ISO-10303-21;
HEADER;
FILE_DESCRIPTION (( 'STEP AP214' ),
    '1' );
FILE_NAME ('59810.STEP',
    '2023-07-12T13:05:45',
    ( '' ),
    ( '' ),
    'SwSTEP 2.0',
    'SolidWorks 2023',
    '' );
FILE_SCHEMA (( 'AUTOMOTIVE_DESIGN' ));
ENDSEC;

DATA;
#1 = FACE_OUTER_BOUND ( 'NONE', #152, .T. ) ;
#2 = DIRECTION ( 'NONE',  ( 0.000000000000000000, 0.000000000000000000, -1.000000000000000000 ) ) ;
#3 = PRODUCT_DEFINITION_SHAPE ( 'NONE', 'NONE',  #108 ) ;
#4 = SURFACE_SIDE_STYLE ('',( #217 ) ) ;
#5 = CONICAL_SURFACE ( 'NONE', #293, 0.03500000000000000333, 0.8726646259971666542 ) ;
#6 = PRESENTATION_STYLE_ASSIGNMENT (( #191 ) ) ;
#7 = ADVANCED_BREP_SHAPE_REPRESENTATION ( '59810', ( #292, #194, #280 ), #100 ) ;
#8 = CARTESIAN_POINT ( 'NONE',  ( -0.1874999999999993894, 0.1279626937545346732, 0.000000000000000000 ) ) ;
#9 = DIRECTION ( 'NONE',  ( -1.000000000000000000, -9.554239632590802510E-17, 0.000000000000000000 ) ) ;
#10 =( GEOMETRIC_REPRESENTATION_CONTEXT ( 3 ) GLOBAL_UNCERTAINTY_ASSIGNED_CONTEXT ( ( #203 ) ) GLOBAL_UNIT_ASSIGNED_CONTEXT ( ( #242, #48, #95 ) ) REPRESENTATION_CONTEXT ( 'NONE', 'WORKASPACE' ) );
#11 = CIRCLE ( 'NONE', #180, 0.1874999999999996669 ) ;
#12 = FILL_AREA_STYLE_COLOUR ( '', #73 ) ;
#13 = UNCERTAINTY_MEASURE_WITH_UNIT (LENGTH_MEASURE( 1.000000000000000082E-05 ), #196, 'distance_accuracy_value', 'NONE');
#14 = VERTEX_POINT ( 'NONE', #138 ) ;
#15 = ORIENTED_EDGE ( 'NONE', *, *, #232, .T. ) ;
#16 = CARTESIAN_POINT ( 'NONE',  ( 0.000000000000000000, 0.000000000000000000, 0.000000000000000000 ) ) ;
#17 = DIRECTION ( 'NONE',  ( -9.554239632590802510E-17, 1.000000000000000000, -0.000000000000000000 ) ) ;
#18 = APPLICATION_PROTOCOL_DEFINITION ( 'draft international standard', 'automotive_design', 1998, #71 ) ;
#19 = CIRCLE ( 'NONE', #230, 0.1874999999999996669 ) ;
#20 = SURFACE_STYLE_USAGE ( .BOTH. , #63 ) ;
#21 = DIRECTION ( 'NONE',  ( -9.554239632590802510E-17, 1.000000000000000000, -0.000000000000000000 ) ) ;
#22 = FILL_AREA_STYLE ('',( #143 ) ) ;
#23 = SURFACE_SIDE_STYLE ('',( #65 ) ) ;
#24 = CARTESIAN_POINT ( 'NONE',  ( 0.000000000000000000, 0.000000000000000000, 0.000000000000000000 ) ) ;
#25 = SURFACE_STYLE_FILL_AREA ( #125 ) ;
#26 = DIRECTION ( 'NONE',  ( 0.000000000000000000, 0.000000000000000000, 1.000000000000000000 ) ) ;
#27 = COLOUR_RGB ( '',1.000000000000000000, 0.000000000000000000, 0.000000000000000000 ) ;
#28 = EDGE_LOOP ( 'NONE', ( #231, #106, #134, #295 ) ) ;
#29 = SURFACE_SIDE_STYLE ('',( #146 ) ) ;
#30 = ORIENTED_EDGE ( 'NONE', *, *, #244, .T. ) ;
#31 = FACE_OUTER_BOUND ( 'NONE', #50, .T. ) ;
#32 = PLANE ( 'NONE',  #37 ) ;
#33 =( GEOMETRIC_REPRESENTATION_CONTEXT ( 3 ) GLOBAL_UNCERTAINTY_ASSIGNED_CONTEXT ( ( #13 ) ) GLOBAL_UNIT_ASSIGNED_CONTEXT ( ( #196, #200, #176 ) ) REPRESENTATION_CONTEXT ( 'NONE', 'WORKASPACE' ) );
#34 = ORIENTED_EDGE ( 'NONE', *, *, #271, .F. ) ;
#35 =( CONVERSION_BASED_UNIT ( 'INCH', #205 ) LENGTH_UNIT ( ) NAMED_UNIT ( #245 ) );
#36 = DIRECTION ( 'NONE',  ( -1.000000000000000000, -9.106159978880893419E-17, 0.000000000000000000 ) ) ;
#37 = AXIS2_PLACEMENT_3D ( 'NONE', #132, #229, #9 ) ;
#38 = EDGE_CURVE ( 'NONE', #300, #197, #183, .T. ) ;
#39 = CARTESIAN_POINT ( 'NONE',  ( 4.286263797015735979E-18, 0.000000000000000000, -0.03500000000000000333 ) ) ;
#40 =( NAMED_UNIT ( * ) SI_UNIT ( $, .STERADIAN. ) SOLID_ANGLE_UNIT ( ) );
#41 = DIRECTION ( 'NONE',  ( -9.554239632590802510E-17, 1.000000000000000000, -0.000000000000000000 ) ) ;
#42 = AXIS2_PLACEMENT_3D ( 'NONE', #269, #44, #2 ) ;
#43 = LENGTH_MEASURE_WITH_UNIT ( LENGTH_MEASURE( 0.02539999999999999897 ), #243 );
#44 = DIRECTION ( 'NONE',  ( -0.000000000000000000, -1.000000000000000000, -0.000000000000000000 ) ) ;
#45 = PRESENTATION_LAYER_ASSIGNMENT (  '', '', ( #219 ) ) ;
#46 = CARTESIAN_POINT ( 'NONE',  ( 6.123233995736772199E-17, 2.500000000000000000, 0.000000000000000000 ) ) ;
#47 = PRODUCT_RELATED_PRODUCT_CATEGORY ( 'part', '', ( #253 ) ) ;
#48 =( NAMED_UNIT ( * ) PLANE_ANGLE_UNIT ( ) SI_UNIT ( $, .RADIAN. ) );
#49 = DIRECTION ( 'NONE',  ( -9.554239632590802510E-17, 1.000000000000000000, -0.000000000000000000 ) ) ;
#50 = EDGE_LOOP ( 'NONE', ( #127, #104, #250, #228 ) ) ;
#51 =( CONVERSION_BASED_UNIT ( 'INCH', #227 ) LENGTH_UNIT ( ) NAMED_UNIT ( #192 ) );
#52 = VECTOR ( 'NONE', #49, 39.37007874015748143 ) ;
#53 = CARTESIAN_POINT ( 'NONE',  ( 0.000000000000000000, 0.000000000000000000, 0.000000000000000000 ) ) ;
#54 = STYLED_ITEM ( 'NONE', ( #86 ), #89 ) ;
#55 = DIRECTION ( 'NONE',  ( 0.000000000000000000, 0.000000000000000000, -1.000000000000000000 ) ) ;
#56 = EDGE_LOOP ( 'NONE', ( #226, #34 ) ) ;
#57 = STYLED_ITEM ( 'NONE', ( #6 ), #194 ) ;
#58 = MECHANICAL_DESIGN_GEOMETRIC_PRESENTATION_REPRESENTATION (  '', ( #219 ), #256 ) ;
#59 = DIRECTION ( 'NONE',  ( 1.000000000000000000, 0.000000000000000000, 0.000000000000000000 ) ) ;
#60 =( CONVERSION_BASED_UNIT ( 'INCH', #289 ) LENGTH_UNIT ( ) NAMED_UNIT ( #124 ) );
#61 =( NAMED_UNIT ( * ) PLANE_ANGLE_UNIT ( ) SI_UNIT ( $, .RADIAN. ) );
#62 = STYLED_ITEM ( 'NONE', ( #130 ), #247 ) ;
#63 = SURFACE_SIDE_STYLE ('',( #181 ) ) ;
#64 = ADVANCED_FACE ( 'NONE', ( #114 ), #307, .F. ) ;
#65 = SURFACE_STYLE_FILL_AREA ( #218 ) ;
#66 = CIRCLE ( 'NONE', #172, 0.1874999999999999167 ) ;
#67 =( NAMED_UNIT ( * ) PLANE_ANGLE_UNIT ( ) SI_UNIT ( $, .RADIAN. ) );
#68 = CARTESIAN_POINT ( 'NONE',  ( 6.123233995736772199E-17, 2.500000000000000000, 0.000000000000000000 ) ) ;
#69 = DIMENSIONAL_EXPONENTS ( 1.000000000000000000, 0.000000000000000000, 0.000000000000000000, 0.000000000000000000, 0.000000000000000000, 0.000000000000000000, 0.000000000000000000 ) ;
#70 = EDGE_CURVE ( 'NONE', #199, #238, #11, .T. ) ;
#71 = APPLICATION_CONTEXT ( 'automotive_design' ) ;
#72 = DIRECTION ( 'NONE',  ( 0.000000000000000000, 0.000000000000000000, -1.000000000000000000 ) ) ;
#73 = COLOUR_RGB ( '',1.000000000000000000, 0.000000000000000000, 0.000000000000000000 ) ;
#74 = CARTESIAN_POINT ( 'NONE',  ( 0.1874999999999999445, 0.1279626937545347010, 2.296212748401285260E-17 ) ) ;
#75 = DIMENSIONAL_EXPONENTS ( 1.000000000000000000, 0.000000000000000000, 0.000000000000000000, 0.000000000000000000, 0.000000000000000000, 0.000000000000000000, 0.000000000000000000 ) ;
#76 = SURFACE_STYLE_USAGE ( .BOTH. , #148 ) ;
#77 = ORIENTED_EDGE ( 'NONE', *, *, #133, .F. ) ;
#78 = CARTESIAN_POINT ( 'NONE',  ( -0.1874999999999997502, 2.500000000000000000, 0.000000000000000000 ) ) ;
#79 = FILL_AREA_STYLE ('',( #12 ) ) ;
#80 = COLOUR_RGB ( '',1.000000000000000000, 0.000000000000000000, 0.000000000000000000 ) ;
#81 = ORIENTED_EDGE ( 'NONE', *, *, #260, .T. ) ;
#82 = CARTESIAN_POINT ( 'NONE',  ( 0.000000000000000000, 0.1279626937545346732, 0.000000000000000000 ) ) ;
#83 = ORIENTED_EDGE ( 'NONE', *, *, #221, .T. ) ;
#84 = APPLICATION_CONTEXT ( 'automotive_design' ) ;
#85 = AXIS2_PLACEMENT_3D ( 'NONE', #53, #277, #26 ) ;
#86 = PRESENTATION_STYLE_ASSIGNMENT (( #20 ) ) ;
#87 = CARTESIAN_POINT ( 'NONE',  ( 2.878624683705112206E-16, 0.1279626937545346732, 0.000000000000000000 ) ) ;
#88 = CLOSED_SHELL ( 'NONE', ( #304, #283, #147, #64 ) ) ;
#89 = ADVANCED_FACE ( 'NONE', ( #261 ), #116, .T. ) ;
#90 =( LENGTH_UNIT ( ) NAMED_UNIT ( * ) SI_UNIT ( $, .METRE. ) );
#91 =( NAMED_UNIT ( * ) PLANE_ANGLE_UNIT ( ) SI_UNIT ( $, .RADIAN. ) );
#92 = DIRECTION ( 'NONE',  ( -9.554239632590802510E-17, 1.000000000000000000, -0.000000000000000000 ) ) ;
#93 = CIRCLE ( 'NONE', #189, 0.1874999999999999167 ) ;
#94 = CARTESIAN_POINT ( 'NONE',  ( 6.123233995736772199E-17, 2.500000000000000000, 0.000000000000000000 ) ) ;
#95 =( NAMED_UNIT ( * ) SI_UNIT ( $, .STERADIAN. ) SOLID_ANGLE_UNIT ( ) );
#96 = CIRCLE ( 'NONE', #139, 0.1874999999999999722 ) ;
#97 = CARTESIAN_POINT ( 'NONE',  ( 1.362419564051430200E-17, 0.000000000000000000, -0.03500000000000000333 ) ) ;
#98 =( LENGTH_UNIT ( ) NAMED_UNIT ( * ) SI_UNIT ( $, .METRE. ) );
#99 = DIMENSIONAL_EXPONENTS ( 1.000000000000000000, 0.000000000000000000, 0.000000000000000000, 0.000000000000000000, 0.000000000000000000, 0.000000000000000000, 0.000000000000000000 ) ;
#100 =( GEOMETRIC_REPRESENTATION_CONTEXT ( 3 ) GLOBAL_UNCERTAINTY_ASSIGNED_CONTEXT ( ( #121 ) ) GLOBAL_UNIT_ASSIGNED_CONTEXT ( ( #35, #91, #282 ) ) REPRESENTATION_CONTEXT ( 'NONE', 'WORKASPACE' ) );
#101 = LENGTH_MEASURE_WITH_UNIT ( LENGTH_MEASURE( 0.02539999999999999897 ), #102 );
#102 =( LENGTH_UNIT ( ) NAMED_UNIT ( * ) SI_UNIT ( $, .METRE. ) );
#103 = ORIENTED_EDGE ( 'NONE', *, *, #212, .T. ) ;
#104 = ORIENTED_EDGE ( 'NONE', *, *, #133, .T. ) ;
#105 = VECTOR ( 'NONE', #265, 39.37007874015748143 ) ;
#106 = ORIENTED_EDGE ( 'NONE', *, *, #137, .T. ) ;
#107 = CYLINDRICAL_SURFACE ( 'NONE', #214, 0.1874999999999998057 ) ;
#108 = PRODUCT_DEFINITION ( 'UNKNOWN', '', #118, #206 ) ;
#109 = ORIENTED_EDGE ( 'NONE', *, *, #235, .F. ) ;
#110 =( LENGTH_UNIT ( ) NAMED_UNIT ( * ) SI_UNIT ( $, .METRE. ) );
#111 = DIRECTION ( 'NONE',  ( -1.000000000000000000, 0.000000000000000000, 0.000000000000000000 ) ) ;
#112 = CARTESIAN_POINT ( 'NONE',  ( 6.123233995736772199E-17, 2.500000000000000000, 0.000000000000000000 ) ) ;
#113 = AXIS2_PLACEMENT_3D ( 'NONE', #24, #220, #72 ) ;
#114 = FACE_OUTER_BOUND ( 'NONE', #254, .T. ) ;
#115 = ORIENTED_EDGE ( 'NONE', *, *, #144, .T. ) ;
#116 = PLANE ( 'NONE',  #155 ) ;
#117 = FILL_AREA_STYLE ('',( #288 ) ) ;
#118 = PRODUCT_DEFINITION_FORMATION_WITH_SPECIFIED_SOURCE ( 'ANY', '', #253, .NOT_KNOWN. ) ;
#119 = DIRECTION ( 'NONE',  ( -9.554239632590802510E-17, 1.000000000000000000, -0.000000000000000000 ) ) ;
#120 = DIRECTION ( 'NONE',  ( -0.000000000000000000, -1.000000000000000000, -0.000000000000000000 ) ) ;
#121 = UNCERTAINTY_MEASURE_WITH_UNIT (LENGTH_MEASURE( 1.000000000000000082E-05 ), #35, 'distance_accuracy_value', 'NONE');
#122 = COLOUR_RGB ( '',0.7921568627450980005, 0.8196078431372548767, 0.9333333333333333481 ) ;
#123 = PRESENTATION_LAYER_ASSIGNMENT (  '', '', ( #168 ) ) ;
#124 = DIMENSIONAL_EXPONENTS ( 1.000000000000000000, 0.000000000000000000, 0.000000000000000000, 0.000000000000000000, 0.000000000000000000, 0.000000000000000000, 0.000000000000000000 ) ;
#125 = FILL_AREA_STYLE ('',( #204 ) ) ;
#126 = CIRCLE ( 'NONE', #145, 0.1874999999999999722 ) ;
#127 = ORIENTED_EDGE ( 'NONE', *, *, #232, .F. ) ;
#128 = SURFACE_STYLE_USAGE ( .BOTH. , #29 ) ;
#129 = COLOUR_RGB ( '',1.000000000000000000, 0.000000000000000000, 0.000000000000000000 ) ;
#130 = PRESENTATION_STYLE_ASSIGNMENT (( #128 ) ) ;
#131 = ORIENTED_EDGE ( 'NONE', *, *, #235, .T. ) ;
#132 = CARTESIAN_POINT ( 'NONE',  ( 2.878624683705112206E-16, 0.1279626937545346732, 0.000000000000000000 ) ) ;
#133 = EDGE_CURVE ( 'NONE', #177, #276, #160, .T. ) ;
#134 = ORIENTED_EDGE ( 'NONE', *, *, #221, .F. ) ;
#135 = UNCERTAINTY_MEASURE_WITH_UNIT (LENGTH_MEASURE( 1.000000000000000082E-05 ), #60, 'distance_accuracy_value', 'NONE');
#136 = PRODUCT_CONTEXT ( 'NONE', #71, 'mechanical' ) ;
#137 = EDGE_CURVE ( 'NONE', #238, #14, #141, .T. ) ;
#138 = CARTESIAN_POINT ( 'NONE',  ( 0.1874999999999999722, 2.500000000000000000, 2.296212748401286185E-17 ) ) ;
#139 = AXIS2_PLACEMENT_3D ( 'NONE', #246, #153, #252 ) ;
#140 = CARTESIAN_POINT ( 'NONE',  ( 2.878624683705112206E-16, 0.1279626937545346732, 0.000000000000000000 ) ) ;
#141 = LINE ( 'NONE', #309, #306 ) ;
#142 = CARTESIAN_POINT ( 'NONE',  ( 0.000000000000000000, 0.1279626937545346732, 0.000000000000000000 ) ) ;
#143 = FILL_AREA_STYLE_COLOUR ( '', #27 ) ;
#144 = EDGE_CURVE ( 'NONE', #238, #199, #19, .T. ) ;
#145 = AXIS2_PLACEMENT_3D ( 'NONE', #82, #275, #55 ) ;
#146 = SURFACE_STYLE_FILL_AREA ( #79 ) ;
#147 = ADVANCED_FACE ( 'NONE', ( #1 ), #281, .T. ) ;
#148 = SURFACE_SIDE_STYLE ('',( #25 ) ) ;
#149 = MECHANICAL_DESIGN_GEOMETRIC_PRESENTATION_REPRESENTATION (  '', ( #168 ), #10 ) ;
#150 = ORIENTED_EDGE ( 'NONE', *, *, #212, .F. ) ;
#151 = PRESENTATION_STYLE_ASSIGNMENT (( #166 ) ) ;
#152 = EDGE_LOOP ( 'NONE', ( #251, #115, #30, #150 ) ) ;
#153 = DIRECTION ( 'NONE',  ( -0.000000000000000000, -1.000000000000000000, -0.000000000000000000 ) ) ;
#154 = ORIENTED_EDGE ( 'NONE', *, *, #70, .F. ) ;
#155 = AXIS2_PLACEMENT_3D ( 'NONE', #142, #186, #215 ) ;
#156 = FACE_OUTER_BOUND ( 'NONE', #28, .T. ) ;
#157 = FILL_AREA_STYLE ('',( #179 ) ) ;
#158 = CARTESIAN_POINT ( 'NONE',  ( 0.000000000000000000, 0.000000000000000000, 0.03500000000000000333 ) ) ;
#159 = MECHANICAL_DESIGN_GEOMETRIC_PRESENTATION_REPRESENTATION (  '', ( #62 ), #255 ) ;
#160 = LINE ( 'NONE', #39, #105 ) ;
#161 = APPLICATION_PROTOCOL_DEFINITION ( 'draft international standard', 'automotive_design', 1998, #84 ) ;
#162 = ADVANCED_FACE ( 'NONE', ( #207 ), #305, .T. ) ;
#163 = CARTESIAN_POINT ( 'NONE',  ( 0.1874999999999999722, 2.500000000000000000, 0.000000000000000000 ) ) ;
#164 =( CONVERSION_BASED_UNIT ( 'INCH', #270 ) LENGTH_UNIT ( ) NAMED_UNIT ( #99 ) );
#165 = MECHANICAL_DESIGN_GEOMETRIC_PRESENTATION_REPRESENTATION (  '', ( #224 ), #33 ) ;
#166 = SURFACE_STYLE_USAGE ( .BOTH. , #4 ) ;
#167 = DIRECTION ( 'NONE',  ( 0.000000000000000000, 0.000000000000000000, -1.000000000000000000 ) ) ;
#168 = STYLED_ITEM ( 'NONE', ( #285 ), #162 ) ;
#169 = FILL_AREA_STYLE_COLOUR ( '', #122 ) ;
#170 = PRESENTATION_STYLE_ASSIGNMENT (( #76 ) ) ;
#171 = LINE ( 'NONE', #78, #52 ) ;
#172 = AXIS2_PLACEMENT_3D ( 'NONE', #68, #188, #216 ) ;
#173 = ORIENTED_EDGE ( 'NONE', *, *, #144, .F. ) ;
#174 =( NAMED_UNIT ( * ) PLANE_ANGLE_UNIT ( ) SI_UNIT ( $, .RADIAN. ) );
#175 = ORIENTED_EDGE ( 'NONE', *, *, #38, .T. ) ;
#176 =( NAMED_UNIT ( * ) SI_UNIT ( $, .STERADIAN. ) SOLID_ANGLE_UNIT ( ) );
#177 = VERTEX_POINT ( 'NONE', #97 ) ;
#178 = PRESENTATION_LAYER_ASSIGNMENT (  '', '', ( #57 ) ) ;
#179 = FILL_AREA_STYLE_COLOUR ( '', #80 ) ;
#180 = AXIS2_PLACEMENT_3D ( 'NONE', #140, #21, #36 ) ;
#181 = SURFACE_STYLE_FILL_AREA ( #117 ) ;
#182 = LENGTH_MEASURE_WITH_UNIT ( LENGTH_MEASURE( 0.02539999999999999897 ), #210 );
#183 = LINE ( 'NONE', #158, #190 ) ;
#184 = COLOUR_RGB ( '',0.7921568627450980005, 0.8196078431372548767, 0.9333333333333333481 ) ;
#185 = DIRECTION ( 'NONE',  ( -1.000000000000000000, -9.106159978880893419E-17, 0.000000000000000000 ) ) ;
#186 = DIRECTION ( 'NONE',  ( 0.000000000000000000, 1.000000000000000000, 0.000000000000000000 ) ) ;
#187 = FACE_OUTER_BOUND ( 'NONE', #278, .T. ) ;
#188 = DIRECTION ( 'NONE',  ( -9.554239632590802510E-17, 1.000000000000000000, -0.000000000000000000 ) ) ;
#189 = AXIS2_PLACEMENT_3D ( 'NONE', #46, #119, #267 ) ;
#190 = VECTOR ( 'NONE', #263, 39.37007874015748143 ) ;
#191 = SURFACE_STYLE_USAGE ( .BOTH. , #23 ) ;
#192 = DIMENSIONAL_EXPONENTS ( 1.000000000000000000, 0.000000000000000000, 0.000000000000000000, 0.000000000000000000, 0.000000000000000000, 0.000000000000000000, 0.000000000000000000 ) ;
#193 = UNCERTAINTY_MEASURE_WITH_UNIT (LENGTH_MEASURE( 1.000000000000000082E-05 ), #164, 'distance_accuracy_value', 'NONE');
#194 = MANIFOLD_SOLID_BREP ( 'Revolve - Tool Body (Tipped Off)', #88 ) ;
#195 = CARTESIAN_POINT ( 'NONE',  ( 0.000000000000000000, 0.000000000000000000, 0.000000000000000000 ) ) ;
#196 =( CONVERSION_BASED_UNIT ( 'INCH', #101 ) LENGTH_UNIT ( ) NAMED_UNIT ( #75 ) );
#197 = VERTEX_POINT ( 'NONE', #291 ) ;
#198 = MECHANICAL_DESIGN_GEOMETRIC_PRESENTATION_REPRESENTATION (  '', ( #54 ), #279 ) ;
#199 = VERTEX_POINT ( 'NONE', #8 ) ;
#200 =( NAMED_UNIT ( * ) PLANE_ANGLE_UNIT ( ) SI_UNIT ( $, .RADIAN. ) );
#201 = DIRECTION ( 'NONE',  ( 0.000000000000000000, 1.000000000000000000, 0.000000000000000000 ) ) ;
#202 = CONICAL_SURFACE ( 'NONE', #85, 0.03500000000000000333, 0.8726646259971666542 ) ;
#203 = UNCERTAINTY_MEASURE_WITH_UNIT (LENGTH_MEASURE( 1.000000000000000082E-05 ), #242, 'distance_accuracy_value', 'NONE');
#204 = FILL_AREA_STYLE_COLOUR ( '', #184 ) ;
#205 = LENGTH_MEASURE_WITH_UNIT ( LENGTH_MEASURE( 0.02539999999999999897 ), #110 );
#206 = PRODUCT_DEFINITION_CONTEXT ( 'detailed design', #84, 'design' ) ;
#207 = FACE_OUTER_BOUND ( 'NONE', #297, .T. ) ;
#208 = PRESENTATION_LAYER_ASSIGNMENT (  '', '', ( #62 ) ) ;
#209 = SURFACE_STYLE_USAGE ( .BOTH. , #234 ) ;
#210 =( LENGTH_UNIT ( ) NAMED_UNIT ( * ) SI_UNIT ( $, .METRE. ) );
#211 = DIRECTION ( 'NONE',  ( 9.554239632590802510E-17, -1.000000000000000000, 0.000000000000000000 ) ) ;
#212 = EDGE_CURVE ( 'NONE', #14, #272, #93, .T. ) ;
#213 = CIRCLE ( 'NONE', #42, 0.03500000000000000333 ) ;
#214 = AXIS2_PLACEMENT_3D ( 'NONE', #112, #236, #258 ) ;
#215 = DIRECTION ( 'NONE',  ( 0.000000000000000000, -0.000000000000000000, 1.000000000000000000 ) ) ;
#216 = DIRECTION ( 'NONE',  ( -1.000000000000000000, 0.000000000000000000, 0.000000000000000000 ) ) ;
#217 = SURFACE_STYLE_FILL_AREA ( #22 ) ;
#218 = FILL_AREA_STYLE ('',( #169 ) ) ;
#219 = STYLED_ITEM ( 'NONE', ( #170 ), #292 ) ;
#220 = DIRECTION ( 'NONE',  ( 0.000000000000000000, -1.000000000000000000, -0.000000000000000000 ) ) ;
#221 = EDGE_CURVE ( 'NONE', #272, #14, #66, .T. ) ;
#222 = DIMENSIONAL_EXPONENTS ( 1.000000000000000000, 0.000000000000000000, 0.000000000000000000, 0.000000000000000000, 0.000000000000000000, 0.000000000000000000, 0.000000000000000000 ) ;
#223 = CARTESIAN_POINT ( 'NONE',  ( 0.000000000000000000, 0.000000000000000000, 0.000000000000000000 ) ) ;
#224 = STYLED_ITEM ( 'NONE', ( #151 ), #240 ) ;
#225 = FACE_OUTER_BOUND ( 'NONE', #274, .T. ) ;
#226 = ORIENTED_EDGE ( 'NONE', *, *, #260, .F. ) ;
#227 = LENGTH_MEASURE_WITH_UNIT ( LENGTH_MEASURE( 0.02539999999999999897 ), #249 );
#228 = ORIENTED_EDGE ( 'NONE', *, *, #38, .F. ) ;
#229 = DIRECTION ( 'NONE',  ( -9.554239632590802510E-17, 1.000000000000000000, 0.000000000000000000 ) ) ;
#230 = AXIS2_PLACEMENT_3D ( 'NONE', #87, #41, #185 ) ;
#231 = ORIENTED_EDGE ( 'NONE', *, *, #70, .T. ) ;
#232 = EDGE_CURVE ( 'NONE', #177, #300, #241, .T. ) ;
#233 = CARTESIAN_POINT ( 'NONE',  ( 0.000000000000000000, 0.000000000000000000, 0.03500000000000000333 ) ) ;
#234 = SURFACE_SIDE_STYLE ('',( #259 ) ) ;
#235 = EDGE_CURVE ( 'NONE', #300, #177, #213, .T. ) ;
#236 = DIRECTION ( 'NONE',  ( -9.554239632590802510E-17, 1.000000000000000000, -0.000000000000000000 ) ) ;
#237 = PRESENTATION_LAYER_ASSIGNMENT (  '', '', ( #54 ) ) ;
#238 = VERTEX_POINT ( 'NONE', #74 ) ;
#239 =( NAMED_UNIT ( * ) SI_UNIT ( $, .STERADIAN. ) SOLID_ANGLE_UNIT ( ) );
#240 = ADVANCED_FACE ( 'NONE', ( #187 ), #202, .T. ) ;
#241 = CIRCLE ( 'NONE', #298, 0.03500000000000000333 ) ;
#242 =( CONVERSION_BASED_UNIT ( 'INCH', #43 ) LENGTH_UNIT ( ) NAMED_UNIT ( #69 ) );
#243 =( LENGTH_UNIT ( ) NAMED_UNIT ( * ) SI_UNIT ( $, .METRE. ) );
#244 = EDGE_CURVE ( 'NONE', #199, #272, #171, .T. ) ;
#245 = DIMENSIONAL_EXPONENTS ( 1.000000000000000000, 0.000000000000000000, 0.000000000000000000, 0.000000000000000000, 0.000000000000000000, 0.000000000000000000, 0.000000000000000000 ) ;
#246 = CARTESIAN_POINT ( 'NONE',  ( 0.000000000000000000, 0.1279626937545346732, 0.000000000000000000 ) ) ;
#247 = ADVANCED_FACE ( 'NONE', ( #31 ), #5, .T. ) ;
#248 = MECHANICAL_DESIGN_GEOMETRIC_PRESENTATION_REPRESENTATION (  '', ( #57 ), #262 ) ;
#249 =( LENGTH_UNIT ( ) NAMED_UNIT ( * ) SI_UNIT ( $, .METRE. ) );
#250 = ORIENTED_EDGE ( 'NONE', *, *, #271, .T. ) ;
#251 = ORIENTED_EDGE ( 'NONE', *, *, #137, .F. ) ;
#252 = DIRECTION ( 'NONE',  ( 0.000000000000000000, 0.000000000000000000, -1.000000000000000000 ) ) ;
#253 = PRODUCT ( '59810', '59810', '', ( #136 ) ) ;
#254 = EDGE_LOOP ( 'NONE', ( #83, #103 ) ) ;
#255 =( GEOMETRIC_REPRESENTATION_CONTEXT ( 3 ) GLOBAL_UNCERTAINTY_ASSIGNED_CONTEXT ( ( #257 ) ) GLOBAL_UNIT_ASSIGNED_CONTEXT ( ( #51, #174, #294 ) ) REPRESENTATION_CONTEXT ( 'NONE', 'WORKASPACE' ) );
#256 =( GEOMETRIC_REPRESENTATION_CONTEXT ( 3 ) GLOBAL_UNCERTAINTY_ASSIGNED_CONTEXT ( ( #290 ) ) GLOBAL_UNIT_ASSIGNED_CONTEXT ( ( #308, #61, #40 ) ) REPRESENTATION_CONTEXT ( 'NONE', 'WORKASPACE' ) );
#257 = UNCERTAINTY_MEASURE_WITH_UNIT (LENGTH_MEASURE( 1.000000000000000082E-05 ), #51, 'distance_accuracy_value', 'NONE');
#258 = DIRECTION ( 'NONE',  ( -1.000000000000000000, 0.000000000000000000, 0.000000000000000000 ) ) ;
#259 = SURFACE_STYLE_FILL_AREA ( #157 ) ;
#260 = EDGE_CURVE ( 'NONE', #197, #276, #126, .T. ) ;
#261 = FACE_OUTER_BOUND ( 'NONE', #56, .T. ) ;
#262 =( GEOMETRIC_REPRESENTATION_CONTEXT ( 3 ) GLOBAL_UNCERTAINTY_ASSIGNED_CONTEXT ( ( #193 ) ) GLOBAL_UNIT_ASSIGNED_CONTEXT ( ( #164, #67, #268 ) ) REPRESENTATION_CONTEXT ( 'NONE', 'WORKASPACE' ) );
#263 = DIRECTION ( 'NONE',  ( 0.000000000000000000, 0.6427876096865379196, 0.7660444431189792347 ) ) ;
#264 = DIRECTION ( 'NONE',  ( 1.000000000000000000, 9.554239632590802510E-17, 0.000000000000000000 ) ) ;
#265 = DIRECTION ( 'NONE',  ( 9.381338752702745572E-17, 0.6427876096865379196, -0.7660444431189792347 ) ) ;
#266 = AXIS2_PLACEMENT_3D ( 'NONE', #94, #17, #111 ) ;
#267 = DIRECTION ( 'NONE',  ( -1.000000000000000000, 0.000000000000000000, 0.000000000000000000 ) ) ;
#268 =( NAMED_UNIT ( * ) SI_UNIT ( $, .STERADIAN. ) SOLID_ANGLE_UNIT ( ) );
#269 = CARTESIAN_POINT ( 'NONE',  ( 0.000000000000000000, 0.000000000000000000, 0.000000000000000000 ) ) ;
#270 = LENGTH_MEASURE_WITH_UNIT ( LENGTH_MEASURE( 0.02539999999999999897 ), #98 );
#271 = EDGE_CURVE ( 'NONE', #276, #197, #96, .T. ) ;
#272 = VERTEX_POINT ( 'NONE', #296 ) ;
#273 = PRESENTATION_LAYER_ASSIGNMENT (  '', '', ( #224 ) ) ;
#274 = EDGE_LOOP ( 'NONE', ( #154, #173 ) ) ;
#275 = DIRECTION ( 'NONE',  ( -0.000000000000000000, -1.000000000000000000, -0.000000000000000000 ) ) ;
#276 = VERTEX_POINT ( 'NONE', #301 ) ;
#277 = DIRECTION ( 'NONE',  ( 0.000000000000000000, 1.000000000000000000, 0.000000000000000000 ) ) ;
#278 = EDGE_LOOP ( 'NONE', ( #77, #109, #175, #81 ) ) ;
#279 =( GEOMETRIC_REPRESENTATION_CONTEXT ( 3 ) GLOBAL_UNCERTAINTY_ASSIGNED_CONTEXT ( ( #135 ) ) GLOBAL_UNIT_ASSIGNED_CONTEXT ( ( #60, #286, #239 ) ) REPRESENTATION_CONTEXT ( 'NONE', 'WORKASPACE' ) );
#280 = AXIS2_PLACEMENT_3D ( 'NONE', #16, #303, #59 ) ;
#281 = CYLINDRICAL_SURFACE ( 'NONE', #266, 0.1874999999999998057 ) ;
#282 =( NAMED_UNIT ( * ) SI_UNIT ( $, .STERADIAN. ) SOLID_ANGLE_UNIT ( ) );
#283 = ADVANCED_FACE ( 'NONE', ( #225 ), #32, .F. ) ;
#284 = AXIS2_PLACEMENT_3D ( 'NONE', #163, #211, #264 ) ;
#285 = PRESENTATION_STYLE_ASSIGNMENT (( #209 ) ) ;
#286 =( NAMED_UNIT ( * ) PLANE_ANGLE_UNIT ( ) SI_UNIT ( $, .RADIAN. ) );
#287 = SHAPE_DEFINITION_REPRESENTATION ( #3, #7 ) ;
#288 = FILL_AREA_STYLE_COLOUR ( '', #129 ) ;
#289 = LENGTH_MEASURE_WITH_UNIT ( LENGTH_MEASURE( 0.02539999999999999897 ), #90 );
#290 = UNCERTAINTY_MEASURE_WITH_UNIT (LENGTH_MEASURE( 1.000000000000000082E-05 ), #308, 'distance_accuracy_value', 'NONE');
#291 = CARTESIAN_POINT ( 'NONE',  ( 0.000000000000000000, 0.1279626937545346732, 0.1874999999999999722 ) ) ;
#292 = MANIFOLD_SOLID_BREP ( 'Revolve - Cutting Edge', #302 ) ;
#293 = AXIS2_PLACEMENT_3D ( 'NONE', #223, #201, #299 ) ;
#294 =( NAMED_UNIT ( * ) SI_UNIT ( $, .STERADIAN. ) SOLID_ANGLE_UNIT ( ) );
#295 = ORIENTED_EDGE ( 'NONE', *, *, #244, .F. ) ;
#296 = CARTESIAN_POINT ( 'NONE',  ( -0.1874999999999998335, 2.500000000000000000, 0.000000000000000000 ) ) ;
#297 = EDGE_LOOP ( 'NONE', ( #131, #15 ) ) ;
#298 = AXIS2_PLACEMENT_3D ( 'NONE', #195, #120, #167 ) ;
#299 = DIRECTION ( 'NONE',  ( 0.000000000000000000, 0.000000000000000000, 1.000000000000000000 ) ) ;
#300 = VERTEX_POINT ( 'NONE', #233 ) ;
#301 = CARTESIAN_POINT ( 'NONE',  ( 2.296212748401286493E-17, 0.1279626937545346732, -0.1874999999999999722 ) ) ;
#302 = CLOSED_SHELL ( 'NONE', ( #247, #89, #240, #162 ) ) ;
#303 = DIRECTION ( 'NONE',  ( 0.000000000000000000, 0.000000000000000000, 1.000000000000000000 ) ) ;
#304 = ADVANCED_FACE ( 'NONE', ( #156 ), #107, .T. ) ;
#305 = PLANE ( 'NONE',  #113 ) ;
#306 = VECTOR ( 'NONE', #92, 39.37007874015748143 ) ;
#307 = PLANE ( 'NONE',  #284 ) ;
#308 =( CONVERSION_BASED_UNIT ( 'INCH', #182 ) LENGTH_UNIT ( ) NAMED_UNIT ( #222 ) );
#309 = CARTESIAN_POINT ( 'NONE',  ( 0.1874999999999998890, 2.500000000000000000, 2.296212748401284952E-17 ) ) ;
ENDSEC;
END-ISO-10303-21;
