ISO-10303-21;
HEADER;
FILE_DESCRIPTION (( 'STEP AP214' ),
    '1' );
FILE_NAME ('59460.STEP',
    '2023-07-24T15:06:56',
    ( '' ),
    ( '' ),
    'SwSTEP 2.0',
    'SolidWorks 2023',
    '' );
FILE_SCHEMA (( 'AUTOMOTIVE_DESIGN' ));
ENDSEC;

DATA;
#1 =( NAMED_UNIT ( * ) PLANE_ANGLE_UNIT ( ) SI_UNIT ( $, .RADIAN. ) );
#2 = CARTESIAN_POINT ( 'NONE',  ( 2.449293598294706414E-16, 1.000000000000000000, 2.000000000000000000 ) ) ;
#3 = AXIS2_PLACEMENT_3D ( 'NONE', #354, #299, #83 ) ;
#4 = EDGE_LOOP ( 'NONE', ( #276, #126, #223, #245 ) ) ;
#5 = VERTEX_POINT ( 'NONE', #70 ) ;
#6 = UNCERTAINTY_MEASURE_WITH_UNIT (LENGTH_MEASURE( 1.000000000000000082E-05 ), #349, 'distance_accuracy_value', 'NONE');
#7 = DIRECTION ( 'NONE',  ( 0.000000000000000000, -0.000000000000000000, 1.000000000000000000 ) ) ;
#8 =( NAMED_UNIT ( * ) SI_UNIT ( $, .STERADIAN. ) SOLID_ANGLE_UNIT ( ) );
#9 =( NAMED_UNIT ( * ) PLANE_ANGLE_UNIT ( ) SI_UNIT ( $, .RADIAN. ) );
#10 = ORIENTED_EDGE ( 'NONE', *, *, #248, .F. ) ;
#11 = SURFACE_STYLE_FILL_AREA ( #368 ) ;
#12 = MECHANICAL_DESIGN_GEOMETRIC_PRESENTATION_REPRESENTATION (  '', ( #112 ), #154 ) ;
#13 =( GEOMETRIC_REPRESENTATION_CONTEXT ( 3 ) GLOBAL_UNCERTAINTY_ASSIGNED_CONTEXT ( ( #239 ) ) GLOBAL_UNIT_ASSIGNED_CONTEXT ( ( #124, #9, #96 ) ) REPRESENTATION_CONTEXT ( 'NONE', 'WORKASPACE' ) );
#14 = AXIS2_PLACEMENT_3D ( 'NONE', #151, #142, #309 ) ;
#15 = VERTEX_POINT ( 'NONE', #158 ) ;
#16 = CARTESIAN_POINT ( 'NONE',  ( 3.000000000000000000, 63.00000000000000000, 0.000000000000000000 ) ) ;
#17 = ADVANCED_FACE ( 'NONE', ( #49 ), #73, .T. ) ;
#18 =( NAMED_UNIT ( * ) PLANE_ANGLE_UNIT ( ) SI_UNIT ( $, .RADIAN. ) );
#19 = PRESENTATION_STYLE_ASSIGNMENT (( #329 ) ) ;
#20 = FILL_AREA_STYLE_COLOUR ( '', #334 ) ;
#21 = ORIENTED_EDGE ( 'NONE', *, *, #118, .T. ) ;
#22 = AXIS2_PLACEMENT_3D ( 'NONE', #153, #265, #297 ) ;
#23 = AXIS2_PLACEMENT_3D ( 'NONE', #2, #342, #200 ) ;
#24 = EDGE_CURVE ( 'NONE', #231, #102, #157, .T. ) ;
#25 =( NAMED_UNIT ( * ) PLANE_ANGLE_UNIT ( ) SI_UNIT ( $, .RADIAN. ) );
#26 = DIRECTION ( 'NONE',  ( -1.222774766076009260E-16, 1.000000000000000000, -0.000000000000000000 ) ) ;
#27 = DIRECTION ( 'NONE',  ( 0.000000000000000000, -1.000000000000000000, -0.000000000000000000 ) ) ;
#28 = FACE_OUTER_BOUND ( 'NONE', #187, .T. ) ;
#29 = DIRECTION ( 'NONE',  ( -0.000000000000000000, -1.000000000000000000, -0.000000000000000000 ) ) ;
#30 = VECTOR ( 'NONE', #141, 1000.000000000000000 ) ;
#31 = PRESENTATION_LAYER_ASSIGNMENT (  '', '', ( #287 ) ) ;
#32 = CARTESIAN_POINT ( 'NONE',  ( 0.000000000000000000, 0.000000000000000000, 0.000000000000000000 ) ) ;
#33 = CARTESIAN_POINT ( 'NONE',  ( 0.000000000000000000, 1.000000000000000000, -2.000000000000000000 ) ) ;
#34 = STYLED_ITEM ( 'NONE', ( #308 ), #46 ) ;
#35 = CIRCLE ( 'NONE', #292, 1.000000000000000000 ) ;
#36 =( NAMED_UNIT ( * ) SI_UNIT ( $, .STERADIAN. ) SOLID_ANGLE_UNIT ( ) );
#37 = SURFACE_SIDE_STYLE ('',( #270 ) ) ;
#38 = EDGE_LOOP ( 'NONE', ( #220, #147, #76, #328 ) ) ;
#39 = UNCERTAINTY_MEASURE_WITH_UNIT (LENGTH_MEASURE( 1.000000000000000082E-05 ), #338, 'distance_accuracy_value', 'NONE');
#40 = COLOUR_RGB ( '',1.000000000000000000, 0.000000000000000000, 0.000000000000000000 ) ;
#41 = VERTEX_POINT ( 'NONE', #285 ) ;
#42 = EDGE_LOOP ( 'NONE', ( #135, #369 ) ) ;
#43 = EDGE_CURVE ( 'NONE', #15, #5, #166, .T. ) ;
#44 = DIRECTION ( 'NONE',  ( -1.222774766076009260E-16, 1.000000000000000000, -0.000000000000000000 ) ) ;
#45 = VECTOR ( 'NONE', #29, 1000.000000000000000 ) ;
#46 = MANIFOLD_SOLID_BREP ( 'Revolve - Tool Body (Straight Shanked)', #365 ) ;
#47 = AXIS2_PLACEMENT_3D ( 'NONE', #136, #165, #103 ) ;
#48 = DIRECTION ( 'NONE',  ( 1.000000000000000000, 1.222774766076009260E-16, 0.000000000000000000 ) ) ;
#49 = FACE_OUTER_BOUND ( 'NONE', #80, .T. ) ;
#50 = FACE_OUTER_BOUND ( 'NONE', #260, .T. ) ;
#51 = FILL_AREA_STYLE ('',( #109 ) ) ;
#52 = AXIS2_PLACEMENT_3D ( 'NONE', #74, #243, #140 ) ;
#53 = SURFACE_STYLE_USAGE ( .BOTH. , #306 ) ;
#54 = ADVANCED_FACE ( 'NONE', ( #359 ), #120, .T. ) ;
#55 = PLANE ( 'NONE',  #336 ) ;
#56 = DIRECTION ( 'NONE',  ( -1.222774766076009260E-16, 1.000000000000000000, -0.000000000000000000 ) ) ;
#57 = SURFACE_STYLE_USAGE ( .BOTH. , #242 ) ;
#58 = MECHANICAL_DESIGN_GEOMETRIC_PRESENTATION_REPRESENTATION (  '', ( #287 ), #291 ) ;
#59 = CARTESIAN_POINT ( 'NONE',  ( -7.470345474798853504E-15, 63.00000000000000000, 0.000000000000000000 ) ) ;
#60 = EDGE_CURVE ( 'NONE', #106, #271, #273, .T. ) ;
#61 = SURFACE_SIDE_STYLE ('',( #312 ) ) ;
#62 = FILL_AREA_STYLE ('',( #66 ) ) ;
#63 = MECHANICAL_DESIGN_GEOMETRIC_PRESENTATION_REPRESENTATION (  '', ( #130 ), #191 ) ;
#64 = CIRCLE ( 'NONE', #208, 3.000000000000000000 ) ;
#65 = EDGE_CURVE ( 'NONE', #271, #106, #159, .T. ) ;
#66 = FILL_AREA_STYLE_COLOUR ( '', #250 ) ;
#67 = UNCERTAINTY_MEASURE_WITH_UNIT (LENGTH_MEASURE( 1.000000000000000082E-05 ), #219, 'distance_accuracy_value', 'NONE');
#68 = AXIS2_PLACEMENT_3D ( 'NONE', #318, #128, #351 ) ;
#69 = MECHANICAL_DESIGN_GEOMETRIC_PRESENTATION_REPRESENTATION (  '', ( #121 ), #161 ) ;
#70 = CARTESIAN_POINT ( 'NONE',  ( 3.000000000000000444, 9.000000000000001776, 3.673940397442067264E-16 ) ) ;
#71 = VERTEX_POINT ( 'NONE', #300 ) ;
#72 = CARTESIAN_POINT ( 'NONE',  ( 0.000000000000000000, 1.000000000000000000, 0.000000000000000000 ) ) ;
#73 = PLANE ( 'NONE',  #146 ) ;
#74 = CARTESIAN_POINT ( 'NONE',  ( 0.000000000000000000, 0.000000000000000000, 0.000000000000000000 ) ) ;
#75 =( NAMED_UNIT ( * ) SI_UNIT ( $, .STERADIAN. ) SOLID_ANGLE_UNIT ( ) );
#76 = ORIENTED_EDGE ( 'NONE', *, *, #118, .F. ) ;
#77 = EDGE_CURVE ( 'NONE', #41, #298, #164, .T. ) ;
#78 = PRESENTATION_STYLE_ASSIGNMENT (( #53 ) ) ;
#79 = SURFACE_STYLE_USAGE ( .BOTH. , #134 ) ;
#80 = EDGE_LOOP ( 'NONE', ( #353, #350 ) ) ;
#81 = PLANE ( 'NONE',  #139 ) ;
#82 = SURFACE_STYLE_USAGE ( .BOTH. , #167 ) ;
#83 = DIRECTION ( 'NONE',  ( 0.000000000000000000, 0.000000000000000000, -1.000000000000000000 ) ) ;
#84 =( GEOMETRIC_REPRESENTATION_CONTEXT ( 3 ) GLOBAL_UNCERTAINTY_ASSIGNED_CONTEXT ( ( #39 ) ) GLOBAL_UNIT_ASSIGNED_CONTEXT ( ( #338, #326, #75 ) ) REPRESENTATION_CONTEXT ( 'NONE', 'WORKASPACE' ) );
#85 =( GEOMETRIC_REPRESENTATION_CONTEXT ( 3 ) GLOBAL_UNCERTAINTY_ASSIGNED_CONTEXT ( ( #209 ) ) GLOBAL_UNIT_ASSIGNED_CONTEXT ( ( #122, #1, #173 ) ) REPRESENTATION_CONTEXT ( 'NONE', 'WORKASPACE' ) );
#86 = FACE_OUTER_BOUND ( 'NONE', #42, .T. ) ;
#87 = CARTESIAN_POINT ( 'NONE',  ( -7.470345474798853504E-15, 63.00000000000000000, 0.000000000000000000 ) ) ;
#88 = DIRECTION ( 'NONE',  ( -1.000000000000000000, -1.222774766076009260E-16, 0.000000000000000000 ) ) ;
#89 = SURFACE_STYLE_FILL_AREA ( #232 ) ;
#90 = AXIS2_PLACEMENT_3D ( 'NONE', #304, #56, #197 ) ;
#91 = DIRECTION ( 'NONE',  ( -1.222774766076009260E-16, 1.000000000000000000, -0.000000000000000000 ) ) ;
#92 = PRESENTATION_STYLE_ASSIGNMENT (( #229 ) ) ;
#93 = ORIENTED_EDGE ( 'NONE', *, *, #43, .T. ) ;
#94 = ADVANCED_FACE ( 'NONE', ( #115 ), #259, .T. ) ;
#95 = PRESENTATION_LAYER_ASSIGNMENT (  '', '', ( #347 ) ) ;
#96 =( NAMED_UNIT ( * ) SI_UNIT ( $, .STERADIAN. ) SOLID_ANGLE_UNIT ( ) );
#97 = PRODUCT_DEFINITION_CONTEXT ( 'detailed design', #313, 'design' ) ;
#98 = CIRCLE ( 'NONE', #305, 3.000000000000000000 ) ;
#99 = EDGE_CURVE ( 'NONE', #298, #102, #98, .T. ) ;
#100 = ORIENTED_EDGE ( 'NONE', *, *, #263, .F. ) ;
#101 =( NAMED_UNIT ( * ) SI_UNIT ( $, .STERADIAN. ) SOLID_ANGLE_UNIT ( ) );
#102 = VERTEX_POINT ( 'NONE', #331 ) ;
#103 = DIRECTION ( 'NONE',  ( 0.000000000000000000, 0.000000000000000000, -1.000000000000000000 ) ) ;
#104 = DIRECTION ( 'NONE',  ( -1.000000000000000000, 0.000000000000000000, 0.000000000000000000 ) ) ;
#105 = EDGE_CURVE ( 'NONE', #41, #231, #352, .T. ) ;
#106 = VERTEX_POINT ( 'NONE', #358 ) ;
#107 =( LENGTH_UNIT ( ) NAMED_UNIT ( * ) SI_UNIT ( .MILLI., .METRE. ) );
#108 = AXIS2_PLACEMENT_3D ( 'NONE', #155, #206, #235 ) ;
#109 = FILL_AREA_STYLE_COLOUR ( '', #40 ) ;
#110 = ORIENTED_EDGE ( 'NONE', *, *, #283, .T. ) ;
#111 = CARTESIAN_POINT ( 'NONE',  ( 0.000000000000000000, 1.000000000000000000, 0.000000000000000000 ) ) ;
#112 = STYLED_ITEM ( 'NONE', ( #143 ), #54 ) ;
#113 = COLOUR_RGB ( '',1.000000000000000000, 0.000000000000000000, 0.000000000000000000 ) ;
#114 = DIRECTION ( 'NONE',  ( -1.222774766076009260E-16, 1.000000000000000000, -0.000000000000000000 ) ) ;
#115 = FACE_OUTER_BOUND ( 'NONE', #286, .T. ) ;
#116 = ORIENTED_EDGE ( 'NONE', *, *, #156, .T. ) ;
#117 = DIRECTION ( 'NONE',  ( -1.000000000000000000, 0.000000000000000000, 0.000000000000000000 ) ) ;
#118 = EDGE_CURVE ( 'NONE', #123, #71, #233, .T. ) ;
#119 = FACE_OUTER_BOUND ( 'NONE', #4, .T. ) ;
#120 = TOROIDAL_SURFACE ( 'NONE', #125, 2.000000000000000000, 1.000000000000000000 ) ;
#121 = STYLED_ITEM ( 'NONE', ( #78 ), #181 ) ;
#122 =( LENGTH_UNIT ( ) NAMED_UNIT ( * ) SI_UNIT ( .MILLI., .METRE. ) );
#123 = VERTEX_POINT ( 'NONE', #225 ) ;
#124 =( LENGTH_UNIT ( ) NAMED_UNIT ( * ) SI_UNIT ( .MILLI., .METRE. ) );
#125 = AXIS2_PLACEMENT_3D ( 'NONE', #111, #282, #228 ) ;
#126 = ORIENTED_EDGE ( 'NONE', *, *, #149, .T. ) ;
#127 = UNCERTAINTY_MEASURE_WITH_UNIT (LENGTH_MEASURE( 1.000000000000000082E-05 ), #107, 'distance_accuracy_value', 'NONE');
#128 = DIRECTION ( 'NONE',  ( 0.000000000000000000, 0.000000000000000000, 1.000000000000000000 ) ) ;
#129 = ORIENTED_EDGE ( 'NONE', *, *, #60, .T. ) ;
#130 = STYLED_ITEM ( 'NONE', ( #267 ), #362 ) ;
#131 = DIRECTION ( 'NONE',  ( -0.000000000000000000, -1.000000000000000000, -0.000000000000000000 ) ) ;
#132 = VECTOR ( 'NONE', #114, 1000.000000000000000 ) ;
#133 = EDGE_LOOP ( 'NONE', ( #129, #217 ) ) ;
#134 = SURFACE_SIDE_STYLE ('',( #171 ) ) ;
#135 = ORIENTED_EDGE ( 'NONE', *, *, #43, .F. ) ;
#136 = CARTESIAN_POINT ( 'NONE',  ( 0.000000000000000000, 0.000000000000000000, 0.000000000000000000 ) ) ;
#137 = CARTESIAN_POINT ( 'NONE',  ( 0.000000000000000000, 9.000000000000000000, 0.000000000000000000 ) ) ;
#138 = MECHANICAL_DESIGN_GEOMETRIC_PRESENTATION_REPRESENTATION (  '', ( #310 ), #341 ) ;
#139 = AXIS2_PLACEMENT_3D ( 'NONE', #16, #224, #48 ) ;
#140 = DIRECTION ( 'NONE',  ( 0.000000000000000000, 0.000000000000000000, -1.000000000000000000 ) ) ;
#141 = DIRECTION ( 'NONE',  ( -0.000000000000000000, -1.000000000000000000, -0.000000000000000000 ) ) ;
#142 = DIRECTION ( 'NONE',  ( -1.222774766076009260E-16, 1.000000000000000000, -0.000000000000000000 ) ) ;
#143 = PRESENTATION_STYLE_ASSIGNMENT (( #82 ) ) ;
#144 = DIRECTION ( 'NONE',  ( 0.000000000000000000, 0.000000000000000000, -1.000000000000000000 ) ) ;
#145 = CARTESIAN_POINT ( 'NONE',  ( 0.000000000000000000, 0.000000000000000000, -3.000000000000000000 ) ) ;
#146 = AXIS2_PLACEMENT_3D ( 'NONE', #137, #269, #7 ) ;
#147 = ORIENTED_EDGE ( 'NONE', *, *, #263, .T. ) ;
#148 = DIRECTION ( 'NONE',  ( 0.000000000000000000, 0.000000000000000000, -1.000000000000000000 ) ) ;
#149 = EDGE_CURVE ( 'NONE', #231, #41, #64, .T. ) ;
#150 = FILL_AREA_STYLE ('',( #367 ) ) ;
#151 = CARTESIAN_POINT ( 'NONE',  ( -8.673617379884035472E-16, 9.000000000000001776, 0.000000000000000000 ) ) ;
#152 = SHAPE_DEFINITION_REPRESENTATION ( #344, #213 ) ;
#153 = CARTESIAN_POINT ( 'NONE',  ( 0.000000000000000000, 1.000000000000000000, 0.000000000000000000 ) ) ;
#154 =( GEOMETRIC_REPRESENTATION_CONTEXT ( 3 ) GLOBAL_UNCERTAINTY_ASSIGNED_CONTEXT ( ( #67 ) ) GLOBAL_UNIT_ASSIGNED_CONTEXT ( ( #219, #246, #253 ) ) REPRESENTATION_CONTEXT ( 'NONE', 'WORKASPACE' ) );
#155 = CARTESIAN_POINT ( 'NONE',  ( 0.000000000000000000, 0.000000000000000000, 0.000000000000000000 ) ) ;
#156 = EDGE_CURVE ( 'NONE', #102, #298, #258, .T. ) ;
#157 = LINE ( 'NONE', #180, #30 ) ;
#158 = CARTESIAN_POINT ( 'NONE',  ( -3.000000000000001776, 9.000000000000001776, 0.000000000000000000 ) ) ;
#159 = CIRCLE ( 'NONE', #207, 3.000000000000007550 ) ;
#160 = SURFACE_SIDE_STYLE ('',( #11 ) ) ;
#161 =( GEOMETRIC_REPRESENTATION_CONTEXT ( 3 ) GLOBAL_UNCERTAINTY_ASSIGNED_CONTEXT ( ( #295 ) ) GLOBAL_UNIT_ASSIGNED_CONTEXT ( ( #221, #25, #252 ) ) REPRESENTATION_CONTEXT ( 'NONE', 'WORKASPACE' ) );
#162 = ORIENTED_EDGE ( 'NONE', *, *, #194, .T. ) ;
#163 = FILL_AREA_STYLE_COLOUR ( '', #212 ) ;
#164 = LINE ( 'NONE', #145, #45 ) ;
#165 = DIRECTION ( 'NONE',  ( -0.000000000000000000, -1.000000000000000000, -0.000000000000000000 ) ) ;
#166 = CIRCLE ( 'NONE', #90, 3.000000000000000888 ) ;
#167 = SURFACE_SIDE_STYLE ('',( #332 ) ) ;
#168 = ADVANCED_FACE ( 'NONE', ( #322 ), #81, .F. ) ;
#169 = CARTESIAN_POINT ( 'NONE',  ( -7.470345474798853504E-15, 63.00000000000000000, 0.000000000000000000 ) ) ;
#170 = DIRECTION ( 'NONE',  ( 0.000000000000000000, 0.000000000000000000, 1.000000000000000000 ) ) ;
#171 = SURFACE_STYLE_FILL_AREA ( #364 ) ;
#172 = ORIENTED_EDGE ( 'NONE', *, *, #60, .F. ) ;
#173 =( NAMED_UNIT ( * ) SI_UNIT ( $, .STERADIAN. ) SOLID_ANGLE_UNIT ( ) );
#174 = DIRECTION ( 'NONE',  ( -0.000000000000000000, -1.000000000000000000, -0.000000000000000000 ) ) ;
#175 = CARTESIAN_POINT ( 'NONE',  ( 0.000000000000000000, 1.000000000000000000, -3.000000000000000000 ) ) ;
#176 =( LENGTH_UNIT ( ) NAMED_UNIT ( * ) SI_UNIT ( .MILLI., .METRE. ) );
#177 = COLOUR_RGB ( '',1.000000000000000000, 0.000000000000000000, 0.000000000000000000 ) ;
#178 = CIRCLE ( 'NONE', #23, 1.000000000000000000 ) ;
#179 = FACE_OUTER_BOUND ( 'NONE', #302, .T. ) ;
#180 = CARTESIAN_POINT ( 'NONE',  ( 3.673940397442059868E-16, 0.000000000000000000, 3.000000000000000000 ) ) ;
#181 = MANIFOLD_SOLID_BREP ( 'Revolve - Cutting Edge', #288 ) ;
#182 = ADVANCED_FACE ( 'NONE', ( #50 ), #254, .T. ) ;
#183 = PRESENTATION_LAYER_ASSIGNMENT (  '', '', ( #34 ) ) ;
#184 = CIRCLE ( 'NONE', #275, 2.000000000000000000 ) ;
#185 =( NAMED_UNIT ( * ) PLANE_ANGLE_UNIT ( ) SI_UNIT ( $, .RADIAN. ) );
#186 = FILL_AREA_STYLE ('',( #193 ) ) ;
#187 = EDGE_LOOP ( 'NONE', ( #21, #110 ) ) ;
#188 = DIRECTION ( 'NONE',  ( 0.000000000000000000, 0.000000000000000000, -1.000000000000000000 ) ) ;
#189 = SURFACE_STYLE_FILL_AREA ( #186 ) ;
#190 = MECHANICAL_DESIGN_GEOMETRIC_PRESENTATION_REPRESENTATION (  '', ( #347 ), #320 ) ;
#191 =( GEOMETRIC_REPRESENTATION_CONTEXT ( 3 ) GLOBAL_UNCERTAINTY_ASSIGNED_CONTEXT ( ( #6 ) ) GLOBAL_UNIT_ASSIGNED_CONTEXT ( ( #349, #185, #8 ) ) REPRESENTATION_CONTEXT ( 'NONE', 'WORKASPACE' ) );
#192 =( LENGTH_UNIT ( ) NAMED_UNIT ( * ) SI_UNIT ( .MILLI., .METRE. ) );
#193 = FILL_AREA_STYLE_COLOUR ( '', #177 ) ;
#194 = EDGE_CURVE ( 'NONE', #298, #123, #35, .T. ) ;
#195 = SURFACE_STYLE_FILL_AREA ( #278 ) ;
#196 = PRESENTATION_LAYER_ASSIGNMENT (  '', '', ( #310 ) ) ;
#197 = DIRECTION ( 'NONE',  ( -1.000000000000000000, 0.000000000000000000, 0.000000000000000000 ) ) ;
#198 = CARTESIAN_POINT ( 'NONE',  ( -8.673617379884035472E-16, 9.000000000000000000, 0.000000000000000000 ) ) ;
#199 = EDGE_CURVE ( 'NONE', #5, #271, #337, .T. ) ;
#200 = DIRECTION ( 'NONE',  ( -1.224646799147353207E-16, 0.000000000000000000, -1.000000000000000000 ) ) ;
#201 = TOROIDAL_SURFACE ( 'NONE', #22, 2.000000000000000000, 1.000000000000000000 ) ;
#202 = SURFACE_SIDE_STYLE ('',( #89 ) ) ;
#203 = DIRECTION ( 'NONE',  ( -1.000000000000000000, 0.000000000000000000, 0.000000000000000000 ) ) ;
#204 = APPLICATION_PROTOCOL_DEFINITION ( 'draft international standard', 'automotive_design', 1998, #251 ) ;
#205 = ORIENTED_EDGE ( 'NONE', *, *, #199, .T. ) ;
#206 = DIRECTION ( 'NONE',  ( -0.000000000000000000, -1.000000000000000000, -0.000000000000000000 ) ) ;
#207 = AXIS2_PLACEMENT_3D ( 'NONE', #356, #26, #104 ) ;
#208 = AXIS2_PLACEMENT_3D ( 'NONE', #218, #363, #333 ) ;
#209 = UNCERTAINTY_MEASURE_WITH_UNIT (LENGTH_MEASURE( 1.000000000000000082E-05 ), #122, 'distance_accuracy_value', 'NONE');
#210 = CYLINDRICAL_SURFACE ( 'NONE', #108, 3.000000000000000000 ) ;
#211 = COLOUR_RGB ( '',1.000000000000000000, 0.000000000000000000, 0.000000000000000000 ) ;
#212 = COLOUR_RGB ( '',0.7921568627450980005, 0.8196078431372548767, 0.9333333333333333481 ) ;
#213 = ADVANCED_BREP_SHAPE_REPRESENTATION ( '59460', ( #181, #46, #68 ), #13 ) ;
#214 = ORIENTED_EDGE ( 'NONE', *, *, #77, .F. ) ;
#215 = CARTESIAN_POINT ( 'NONE',  ( 0.000000000000000000, 9.000000000000000000, 0.000000000000000000 ) ) ;
#216 = PRODUCT_DEFINITION ( 'UNKNOWN', '', #274, #97 ) ;
#217 = ORIENTED_EDGE ( 'NONE', *, *, #65, .T. ) ;
#218 = CARTESIAN_POINT ( 'NONE',  ( 0.000000000000000000, 9.000000000000000000, 0.000000000000000000 ) ) ;
#219 =( LENGTH_UNIT ( ) NAMED_UNIT ( * ) SI_UNIT ( .MILLI., .METRE. ) );
#220 = ORIENTED_EDGE ( 'NONE', *, *, #99, .T. ) ;
#221 =( LENGTH_UNIT ( ) NAMED_UNIT ( * ) SI_UNIT ( .MILLI., .METRE. ) );
#222 = DIRECTION ( 'NONE',  ( -1.000000000000000000, 0.000000000000000000, 0.000000000000000000 ) ) ;
#223 = ORIENTED_EDGE ( 'NONE', *, *, #77, .T. ) ;
#224 = DIRECTION ( 'NONE',  ( 1.222774766076009260E-16, -1.000000000000000000, 0.000000000000000000 ) ) ;
#225 = CARTESIAN_POINT ( 'NONE',  ( 0.000000000000000000, 0.000000000000000000, -2.000000000000000000 ) ) ;
#226 = DIRECTION ( 'NONE',  ( -1.222774766076009260E-16, 1.000000000000000000, -0.000000000000000000 ) ) ;
#227 = PRESENTATION_LAYER_ASSIGNMENT (  '', '', ( #121 ) ) ;
#228 = DIRECTION ( 'NONE',  ( 0.000000000000000000, 0.000000000000000000, -1.000000000000000000 ) ) ;
#229 = SURFACE_STYLE_USAGE ( .BOTH. , #61 ) ;
#230 = FILL_AREA_STYLE_COLOUR ( '', #257 ) ;
#231 = VERTEX_POINT ( 'NONE', #289 ) ;
#232 = FILL_AREA_STYLE ('',( #370 ) ) ;
#233 = CIRCLE ( 'NONE', #52, 2.000000000000000000 ) ;
#234 = CARTESIAN_POINT ( 'NONE',  ( 2.999999999999996891, 63.00000000000000000, 3.673940397442064798E-16 ) ) ;
#235 = DIRECTION ( 'NONE',  ( 0.000000000000000000, 0.000000000000000000, -1.000000000000000000 ) ) ;
#236 = SURFACE_STYLE_USAGE ( .BOTH. , #37 ) ;
#237 = ORIENTED_EDGE ( 'NONE', *, *, #283, .F. ) ;
#238 =( NAMED_UNIT ( * ) PLANE_ANGLE_UNIT ( ) SI_UNIT ( $, .RADIAN. ) );
#239 = UNCERTAINTY_MEASURE_WITH_UNIT (LENGTH_MEASURE( 1.000000000000000082E-05 ), #124, 'distance_accuracy_value', 'NONE');
#240 = APPLICATION_PROTOCOL_DEFINITION ( 'draft international standard', 'automotive_design', 1998, #313 ) ;
#241 = AXIS2_PLACEMENT_3D ( 'NONE', #169, #44, #203 ) ;
#242 = SURFACE_SIDE_STYLE ('',( #189 ) ) ;
#243 = DIRECTION ( 'NONE',  ( -0.000000000000000000, -1.000000000000000000, -0.000000000000000000 ) ) ;
#244 = ADVANCED_FACE ( 'NONE', ( #86 ), #55, .F. ) ;
#245 = ORIENTED_EDGE ( 'NONE', *, *, #156, .F. ) ;
#246 =( NAMED_UNIT ( * ) PLANE_ANGLE_UNIT ( ) SI_UNIT ( $, .RADIAN. ) );
#247 = PRESENTATION_LAYER_ASSIGNMENT (  '', '', ( #316 ) ) ;
#248 = EDGE_CURVE ( 'NONE', #15, #106, #262, .T. ) ;
#249 = PRESENTATION_STYLE_ASSIGNMENT (( #57 ) ) ;
#250 = COLOUR_RGB ( '',1.000000000000000000, 0.000000000000000000, 0.000000000000000000 ) ;
#251 = APPLICATION_CONTEXT ( 'automotive_design' ) ;
#252 =( NAMED_UNIT ( * ) SI_UNIT ( $, .STERADIAN. ) SOLID_ANGLE_UNIT ( ) );
#253 =( NAMED_UNIT ( * ) SI_UNIT ( $, .STERADIAN. ) SOLID_ANGLE_UNIT ( ) );
#254 = CYLINDRICAL_SURFACE ( 'NONE', #241, 3.000000000000004441 ) ;
#255 = DIRECTION ( 'NONE',  ( -1.000000000000000000, 0.000000000000000000, 0.000000000000000000 ) ) ;
#256 = DIRECTION ( 'NONE',  ( -1.222774766076009260E-16, 1.000000000000000000, 0.000000000000000000 ) ) ;
#257 = COLOUR_RGB ( '',1.000000000000000000, 0.000000000000000000, 0.000000000000000000 ) ;
#258 = CIRCLE ( 'NONE', #3, 3.000000000000000000 ) ;
#259 = CYLINDRICAL_SURFACE ( 'NONE', #47, 3.000000000000000000 ) ;
#260 = EDGE_LOOP ( 'NONE', ( #355, #293, #345, #324 ) ) ;
#261 = FACE_OUTER_BOUND ( 'NONE', #357, .T. ) ;
#262 = LINE ( 'NONE', #264, #366 ) ;
#263 = EDGE_CURVE ( 'NONE', #102, #71, #178, .T. ) ;
#264 = CARTESIAN_POINT ( 'NONE',  ( -3.000000000000011990, 63.00000000000000000, 0.000000000000000000 ) ) ;
#265 = DIRECTION ( 'NONE',  ( -0.000000000000000000, -1.000000000000000000, -0.000000000000000000 ) ) ;
#266 = UNCERTAINTY_MEASURE_WITH_UNIT (LENGTH_MEASURE( 1.000000000000000082E-05 ), #192, 'distance_accuracy_value', 'NONE');
#267 = PRESENTATION_STYLE_ASSIGNMENT (( #236 ) ) ;
#268 = PRESENTATION_LAYER_ASSIGNMENT (  '', '', ( #112 ) ) ;
#269 = DIRECTION ( 'NONE',  ( 0.000000000000000000, 1.000000000000000000, 0.000000000000000000 ) ) ;
#270 = SURFACE_STYLE_FILL_AREA ( #62 ) ;
#271 = VERTEX_POINT ( 'NONE', #307 ) ;
#272 = EDGE_CURVE ( 'NONE', #5, #15, #343, .T. ) ;
#273 = CIRCLE ( 'NONE', #315, 3.000000000000007550 ) ;
#274 = PRODUCT_DEFINITION_FORMATION_WITH_SPECIFIED_SOURCE ( 'ANY', '', #348, .NOT_KNOWN. ) ;
#275 = AXIS2_PLACEMENT_3D ( 'NONE', #284, #174, #144 ) ;
#276 = ORIENTED_EDGE ( 'NONE', *, *, #24, .F. ) ;
#277 = DIRECTION ( 'NONE',  ( -0.000000000000000000, -1.000000000000000000, -0.000000000000000000 ) ) ;
#278 = FILL_AREA_STYLE ('',( #163 ) ) ;
#279 = AXIS2_PLACEMENT_3D ( 'NONE', #215, #277, #325 ) ;
#280 = DIRECTION ( 'NONE',  ( -1.222774766076009260E-16, 1.000000000000000000, -0.000000000000000000 ) ) ;
#281 = PLANE ( 'NONE',  #296 ) ;
#282 = DIRECTION ( 'NONE',  ( -0.000000000000000000, -1.000000000000000000, -0.000000000000000000 ) ) ;
#283 = EDGE_CURVE ( 'NONE', #71, #123, #184, .T. ) ;
#284 = CARTESIAN_POINT ( 'NONE',  ( 0.000000000000000000, 0.000000000000000000, 0.000000000000000000 ) ) ;
#285 = CARTESIAN_POINT ( 'NONE',  ( 0.000000000000000000, 9.000000000000000000, -3.000000000000000000 ) ) ;
#286 = EDGE_LOOP ( 'NONE', ( #321, #330, #361, #214 ) ) ;
#287 = STYLED_ITEM ( 'NONE', ( #311 ), #346 ) ;
#288 = CLOSED_SHELL ( 'NONE', ( #94, #54, #319, #362, #346, #17 ) ) ;
#289 = CARTESIAN_POINT ( 'NONE',  ( 3.673940397442059868E-16, 9.000000000000000000, 3.000000000000000000 ) ) ;
#290 = SURFACE_STYLE_USAGE ( .BOTH. , #202 ) ;
#291 =( GEOMETRIC_REPRESENTATION_CONTEXT ( 3 ) GLOBAL_UNCERTAINTY_ASSIGNED_CONTEXT ( ( #317 ) ) GLOBAL_UNIT_ASSIGNED_CONTEXT ( ( #176, #238, #36 ) ) REPRESENTATION_CONTEXT ( 'NONE', 'WORKASPACE' ) );
#292 = AXIS2_PLACEMENT_3D ( 'NONE', #33, #255, #170 ) ;
#293 = ORIENTED_EDGE ( 'NONE', *, *, #272, .T. ) ;
#294 = MECHANICAL_DESIGN_GEOMETRIC_PRESENTATION_REPRESENTATION (  '', ( #316 ), #85 ) ;
#295 = UNCERTAINTY_MEASURE_WITH_UNIT (LENGTH_MEASURE( 1.000000000000000082E-05 ), #221, 'distance_accuracy_value', 'NONE');
#296 = AXIS2_PLACEMENT_3D ( 'NONE', #32, #27, #148 ) ;
#297 = DIRECTION ( 'NONE',  ( 0.000000000000000000, 0.000000000000000000, -1.000000000000000000 ) ) ;
#298 = VERTEX_POINT ( 'NONE', #175 ) ;
#299 = DIRECTION ( 'NONE',  ( -0.000000000000000000, -1.000000000000000000, -0.000000000000000000 ) ) ;
#300 = CARTESIAN_POINT ( 'NONE',  ( 3.061616997868383141E-16, 0.000000000000000000, 2.000000000000000000 ) ) ;
#301 =( NAMED_UNIT ( * ) SI_UNIT ( $, .STERADIAN. ) SOLID_ANGLE_UNIT ( ) );
#302 = EDGE_LOOP ( 'NONE', ( #100, #116, #162, #237 ) ) ;
#303 =( NAMED_UNIT ( * ) PLANE_ANGLE_UNIT ( ) SI_UNIT ( $, .RADIAN. ) );
#304 = CARTESIAN_POINT ( 'NONE',  ( -8.673617379884035472E-16, 9.000000000000001776, 0.000000000000000000 ) ) ;
#305 = AXIS2_PLACEMENT_3D ( 'NONE', #72, #131, #188 ) ;
#306 = SURFACE_SIDE_STYLE ('',( #195 ) ) ;
#307 = CARTESIAN_POINT ( 'NONE',  ( 3.000000000000000444, 63.00000000000000000, 3.673940397442067264E-16 ) ) ;
#308 = PRESENTATION_STYLE_ASSIGNMENT (( #79 ) ) ;
#309 = DIRECTION ( 'NONE',  ( -1.000000000000000000, 0.000000000000000000, 0.000000000000000000 ) ) ;
#310 = STYLED_ITEM ( 'NONE', ( #249 ), #17 ) ;
#311 = PRESENTATION_STYLE_ASSIGNMENT (( #290 ) ) ;
#312 = SURFACE_STYLE_FILL_AREA ( #150 ) ;
#313 = APPLICATION_CONTEXT ( 'automotive_design' ) ;
#314 = PRODUCT_CONTEXT ( 'NONE', #251, 'mechanical' ) ;
#315 = AXIS2_PLACEMENT_3D ( 'NONE', #87, #280, #222 ) ;
#316 = STYLED_ITEM ( 'NONE', ( #92 ), #319 ) ;
#317 = UNCERTAINTY_MEASURE_WITH_UNIT (LENGTH_MEASURE( 1.000000000000000082E-05 ), #176, 'distance_accuracy_value', 'NONE');
#318 = CARTESIAN_POINT ( 'NONE',  ( 0.000000000000000000, 0.000000000000000000, 0.000000000000000000 ) ) ;
#319 = ADVANCED_FACE ( 'NONE', ( #28 ), #281, .T. ) ;
#320 =( GEOMETRIC_REPRESENTATION_CONTEXT ( 3 ) GLOBAL_UNCERTAINTY_ASSIGNED_CONTEXT ( ( #127 ) ) GLOBAL_UNIT_ASSIGNED_CONTEXT ( ( #107, #303, #101 ) ) REPRESENTATION_CONTEXT ( 'NONE', 'WORKASPACE' ) );
#321 = ORIENTED_EDGE ( 'NONE', *, *, #105, .T. ) ;
#322 = FACE_OUTER_BOUND ( 'NONE', #133, .T. ) ;
#323 = PRODUCT_RELATED_PRODUCT_CATEGORY ( 'part', '', ( #348 ) ) ;
#324 = ORIENTED_EDGE ( 'NONE', *, *, #65, .F. ) ;
#325 = DIRECTION ( 'NONE',  ( 0.000000000000000000, 0.000000000000000000, -1.000000000000000000 ) ) ;
#326 =( NAMED_UNIT ( * ) PLANE_ANGLE_UNIT ( ) SI_UNIT ( $, .RADIAN. ) );
#327 = PRESENTATION_LAYER_ASSIGNMENT (  '', '', ( #130 ) ) ;
#328 = ORIENTED_EDGE ( 'NONE', *, *, #194, .F. ) ;
#329 = SURFACE_STYLE_USAGE ( .BOTH. , #160 ) ;
#330 = ORIENTED_EDGE ( 'NONE', *, *, #24, .T. ) ;
#331 = CARTESIAN_POINT ( 'NONE',  ( 3.673940397442059375E-16, 1.000000000000000000, 3.000000000000000000 ) ) ;
#332 = SURFACE_STYLE_FILL_AREA ( #51 ) ;
#333 = DIRECTION ( 'NONE',  ( 0.000000000000000000, 0.000000000000000000, -1.000000000000000000 ) ) ;
#334 = COLOUR_RGB ( '',0.7921568627450980005, 0.8196078431372548767, 0.9333333333333333481 ) ;
#335 = AXIS2_PLACEMENT_3D ( 'NONE', #59, #91, #117 ) ;
#336 = AXIS2_PLACEMENT_3D ( 'NONE', #198, #256, #88 ) ;
#337 = LINE ( 'NONE', #234, #132 ) ;
#338 =( LENGTH_UNIT ( ) NAMED_UNIT ( * ) SI_UNIT ( .MILLI., .METRE. ) );
#339 = ADVANCED_FACE ( 'NONE', ( #261 ), #340, .T. ) ;
#340 = CYLINDRICAL_SURFACE ( 'NONE', #335, 3.000000000000004441 ) ;
#341 =( GEOMETRIC_REPRESENTATION_CONTEXT ( 3 ) GLOBAL_UNCERTAINTY_ASSIGNED_CONTEXT ( ( #266 ) ) GLOBAL_UNIT_ASSIGNED_CONTEXT ( ( #192, #18, #301 ) ) REPRESENTATION_CONTEXT ( 'NONE', 'WORKASPACE' ) );
#342 = DIRECTION ( 'NONE',  ( 1.000000000000000000, 0.000000000000000000, -1.224646799147353207E-16 ) ) ;
#343 = CIRCLE ( 'NONE', #14, 3.000000000000000888 ) ;
#344 = PRODUCT_DEFINITION_SHAPE ( 'NONE', 'NONE',  #216 ) ;
#345 = ORIENTED_EDGE ( 'NONE', *, *, #248, .T. ) ;
#346 = ADVANCED_FACE ( 'NONE', ( #119 ), #210, .T. ) ;
#347 = STYLED_ITEM ( 'NONE', ( #19 ), #94 ) ;
#348 = PRODUCT ( '59460', '59460', '', ( #314 ) ) ;
#349 =( LENGTH_UNIT ( ) NAMED_UNIT ( * ) SI_UNIT ( .MILLI., .METRE. ) );
#350 = ORIENTED_EDGE ( 'NONE', *, *, #149, .F. ) ;
#351 = DIRECTION ( 'NONE',  ( 1.000000000000000000, 0.000000000000000000, 0.000000000000000000 ) ) ;
#352 = CIRCLE ( 'NONE', #279, 3.000000000000000000 ) ;
#353 = ORIENTED_EDGE ( 'NONE', *, *, #105, .F. ) ;
#354 = CARTESIAN_POINT ( 'NONE',  ( 0.000000000000000000, 1.000000000000000000, 0.000000000000000000 ) ) ;
#355 = ORIENTED_EDGE ( 'NONE', *, *, #199, .F. ) ;
#356 = CARTESIAN_POINT ( 'NONE',  ( -7.470345474798853504E-15, 63.00000000000000000, 0.000000000000000000 ) ) ;
#357 = EDGE_LOOP ( 'NONE', ( #93, #205, #172, #10 ) ) ;
#358 = CARTESIAN_POINT ( 'NONE',  ( -3.000000000000014655, 63.00000000000000000, 0.000000000000000000 ) ) ;
#359 = FACE_OUTER_BOUND ( 'NONE', #38, .T. ) ;
#360 = MECHANICAL_DESIGN_GEOMETRIC_PRESENTATION_REPRESENTATION (  '', ( #34 ), #84 ) ;
#361 = ORIENTED_EDGE ( 'NONE', *, *, #99, .F. ) ;
#362 = ADVANCED_FACE ( 'NONE', ( #179 ), #201, .T. ) ;
#363 = DIRECTION ( 'NONE',  ( -0.000000000000000000, -1.000000000000000000, -0.000000000000000000 ) ) ;
#364 = FILL_AREA_STYLE ('',( #20 ) ) ;
#365 = CLOSED_SHELL ( 'NONE', ( #339, #244, #182, #168 ) ) ;
#366 = VECTOR ( 'NONE', #226, 1000.000000000000000 ) ;
#367 = FILL_AREA_STYLE_COLOUR ( '', #113 ) ;
#368 = FILL_AREA_STYLE ('',( #230 ) ) ;
#369 = ORIENTED_EDGE ( 'NONE', *, *, #272, .F. ) ;
#370 = FILL_AREA_STYLE_COLOUR ( '', #211 ) ;
ENDSEC;
END-ISO-10303-21;
