ISO-10303-21;
HEADER;
FILE_DESCRIPTION (( 'STEP AP214' ),
    '1' );
FILE_NAME ('Micro_RME-020-2.STEP',
    '2021-09-01T22:45:09',
    ( '' ),
    ( '' ),
    'SwSTEP 2.0',
    'SolidWorks 2020',
    '' );
FILE_SCHEMA (( 'AUTOMOTIVE_DESIGN' ));
ENDSEC;

DATA;
#1 = CARTESIAN_POINT ( 'NONE',  ( -0.06249999999999997918, 0.0000000000000000000, 0.3577990083481244477 ) ) ;
#2 = LINE ( 'NONE', #210, #66 ) ;
#3 = LINE ( 'NONE', #105, #260 ) ;
#4 = EDGE_CURVE ( 'NONE', #148, #43, #223, .T. ) ;
#5 = CARTESIAN_POINT ( 'NONE',  ( 0.0000000000000000000, 0.0000000000000000000, 0.0000000000000000000 ) ) ;
#6 = DIRECTION ( 'NONE',  ( -0.0000000000000000000, -0.0000000000000000000, -1.000000000000000000 ) ) ;
#7 = CARTESIAN_POINT ( 'NONE',  ( 4.381774103116277669E-17, 0.0000000000000000000, 0.3577990083481244477 ) ) ;
#8 = CIRCLE ( 'NONE', #109, 0.06250000000000002776 ) ;
#9 = DIRECTION ( 'NONE',  ( -1.224646799147353454E-16, -0.0000000000000000000, -1.000000000000000000 ) ) ;
#10 = EDGE_CURVE ( 'NONE', #148, #82, #213, .T. ) ;
#11 = DIRECTION ( 'NONE',  ( 0.1736481776669313581, 0.0000000000000000000, 0.9848077530122077983 ) ) ;
#12 = EDGE_CURVE ( 'NONE', #102, #43, #8, .T. ) ;
#13 = ORIENTED_EDGE ( 'NONE', *, *, #16, .F. ) ;
#14 = SURFACE_STYLE_USAGE ( .BOTH. , #100 ) ;
#15 = CONICAL_SURFACE ( 'NONE', #56, 0.04750000000000064587, 0.7853981633974466137 ) ;
#16 = EDGE_CURVE ( 'NONE', #82, #148, #170, .T. ) ;
#17 = ORIENTED_EDGE ( 'NONE', *, *, #194, .T. ) ;
#18 = ORIENTED_EDGE ( 'NONE', *, *, #24, .F. ) ;
#19 = EDGE_LOOP ( 'NONE', ( #172, #41, #175, #18 ) ) ;
#20 =( LENGTH_UNIT ( ) NAMED_UNIT ( * ) SI_UNIT ( $, .METRE. ) );
#21 = EDGE_CURVE ( 'NONE', #146, #43, #92, .T. ) ;
#22 = LINE ( 'NONE', #158, #25 ) ;
#23 = DIRECTION ( 'NONE',  ( 0.0000000000000000000, 0.0000000000000000000, 1.000000000000000000 ) ) ;
#24 = EDGE_CURVE ( 'NONE', #268, #74, #130, .T. ) ;
#25 = VECTOR ( 'NONE', #127, 39.37007874015748143 ) ;
#26 = DIRECTION ( 'NONE',  ( -0.1736481776669311639, 2.126576849575783008E-17, 0.9848077530122080203 ) ) ;
#27 = DIRECTION ( 'NONE',  ( 0.0000000000000000000, 0.0000000000000000000, 1.000000000000000000 ) ) ;
#28 = UNCERTAINTY_MEASURE_WITH_UNIT (LENGTH_MEASURE( 1.000000000000000082E-05 ), #147, 'distance_accuracy_value', 'NONE');
#29 =( NAMED_UNIT ( * ) SI_UNIT ( $, .STERADIAN. ) SOLID_ANGLE_UNIT ( ) );
#30 = CARTESIAN_POINT ( 'NONE',  ( 7.347880794884121462E-18, 0.0000000000000000000, 0.05999999999999999778 ) ) ;
#31 = DIRECTION ( 'NONE',  ( 0.0000000000000000000, 0.0000000000000000000, -1.000000000000000000 ) ) ;
#32 = CARTESIAN_POINT ( 'NONE',  ( 0.0000000000000000000, 0.0000000000000000000, 0.0000000000000000000 ) ) ;
#33 = CARTESIAN_POINT ( 'NONE',  ( 7.347880794884121462E-18, 0.0000000000000000000, 0.05999999999999999778 ) ) ;
#34 = EDGE_CURVE ( 'NONE', #143, #268, #22, .T. ) ;
#35 = ORIENTED_EDGE ( 'NONE', *, *, #57, .T. ) ;
#36 = ADVANCED_FACE ( 'NONE', ( #254 ), #73, .T. ) ;
#37 = ORIENTED_EDGE ( 'NONE', *, *, #10, .T. ) ;
#38 =( GEOMETRIC_REPRESENTATION_CONTEXT ( 3 ) GLOBAL_UNCERTAINTY_ASSIGNED_CONTEXT ( ( #207 ) ) GLOBAL_UNIT_ASSIGNED_CONTEXT ( ( #65, #126, #29 ) ) REPRESENTATION_CONTEXT ( 'NONE', 'WORKASPACE' ) );
#39 = VECTOR ( 'NONE', #11, 39.37007874015748143 ) ;
#40 = MANIFOLD_SOLID_BREP ( 'Cut-Revolve1', #191 ) ;
#41 = ORIENTED_EDGE ( 'NONE', *, *, #283, .T. ) ;
#42 = EDGE_CURVE ( 'NONE', #74, #268, #234, .T. ) ;
#43 = VERTEX_POINT ( 'NONE', #1 ) ;
#44 = AXIS2_PLACEMENT_3D ( 'NONE', #50, #131, #272 ) ;
#45 =( GEOMETRIC_REPRESENTATION_CONTEXT ( 3 ) GLOBAL_UNCERTAINTY_ASSIGNED_CONTEXT ( ( #277 ) ) GLOBAL_UNIT_ASSIGNED_CONTEXT ( ( #293, #266, #217 ) ) REPRESENTATION_CONTEXT ( 'NONE', 'WORKASPACE' ) );
#46 = DIRECTION ( 'NONE',  ( -0.0000000000000000000, -0.0000000000000000000, -1.000000000000000000 ) ) ;
#47 = VERTEX_POINT ( 'NONE', #225 ) ;
#48 = EDGE_CURVE ( 'NONE', #61, #82, #3, .T. ) ;
#49 = CARTESIAN_POINT ( 'NONE',  ( 1.498260022879196370E-34, 0.0000000000000000000, 1.223422152348206134E-18 ) ) ;
#50 = CARTESIAN_POINT ( 'NONE',  ( 1.498260022879196370E-34, 0.0000000000000000000, 1.223422152348206134E-18 ) ) ;
#51 = CARTESIAN_POINT ( 'NONE',  ( -0.009990000000000000616, 0.0000000000000000000, 2.446844304696412268E-18 ) ) ;
#52 = FACE_OUTER_BOUND ( 'NONE', #221, .T. ) ;
#53 = CARTESIAN_POINT ( 'NONE',  ( -0.009989999999999993677, 4.438732323509582995E-18, 0.05999999999999999778 ) ) ;
#54 = ADVANCED_FACE ( 'NONE', ( #297 ), #63, .T. ) ;
#55 = MECHANICAL_DESIGN_GEOMETRIC_PRESENTATION_REPRESENTATION (  '', ( #104 ), #38 ) ;
#56 = AXIS2_PLACEMENT_3D ( 'NONE', #133, #31, #115 ) ;
#57 = EDGE_CURVE ( 'NONE', #47, #148, #107, .T. ) ;
#58 = EDGE_LOOP ( 'NONE', ( #77, #241 ) ) ;
#59 = ORIENTED_EDGE ( 'NONE', *, *, #10, .F. ) ;
#60 = CIRCLE ( 'NONE', #140, 0.009990000000000000616 ) ;
#61 = VERTEX_POINT ( 'NONE', #165 ) ;
#62 = EDGE_LOOP ( 'NONE', ( #98, #269, #267, #122 ) ) ;
#63 = CYLINDRICAL_SURFACE ( 'NONE', #192, 0.06250000000000002776 ) ;
#64 = DIRECTION ( 'NONE',  ( 1.000000000000000000, 0.0000000000000000000, 0.0000000000000000000 ) ) ;
#65 =( CONVERSION_BASED_UNIT ( 'INCH', #227 ) LENGTH_UNIT ( ) NAMED_UNIT ( #162 ) );
#66 = VECTOR ( 'NONE', #274, 39.37007874015748143 ) ;
#67 = EDGE_LOOP ( 'NONE', ( #196, #290, #35, #13 ) ) ;
#68 = CYLINDRICAL_SURFACE ( 'NONE', #205, 0.06250000000000002776 ) ;
#69 = CARTESIAN_POINT ( 'NONE',  ( -0.009990000000000000616, 0.0000000000000000000, 1.223422152348206134E-18 ) ) ;
#70 = DIRECTION ( 'NONE',  ( -0.7071067811865462405, 0.0000000000000000000, -0.7071067811865486830 ) ) ;
#71 = DIRECTION ( 'NONE',  ( -1.000000000000000000, 0.0000000000000000000, 0.0000000000000000000 ) ) ;
#72 = CONICAL_SURFACE ( 'NONE', #118, 0.04750000000000064587, 0.7853981633974466137 ) ;
#73 = CONICAL_SURFACE ( 'NONE', #117, 0.009990000000000000616, 0.1745329251994338637 ) ;
#74 = VERTEX_POINT ( 'NONE', #51 ) ;
#75 =( NAMED_UNIT ( * ) SI_UNIT ( $, .STERADIAN. ) SOLID_ANGLE_UNIT ( ) );
#76 = ORIENTED_EDGE ( 'NONE', *, *, #263, .F. ) ;
#77 = ORIENTED_EDGE ( 'NONE', *, *, #42, .T. ) ;
#78 = EDGE_LOOP ( 'NONE', ( #37, #239, #220, #246 ) ) ;
#79 = ADVANCED_FACE ( 'NONE', ( #281 ), #15, .T. ) ;
#80 = AXIS2_PLACEMENT_3D ( 'NONE', #289, #242, #296 ) ;
#81 = LENGTH_MEASURE_WITH_UNIT ( LENGTH_MEASURE( 0.02539999999999999897 ), #195 );
#82 = VERTEX_POINT ( 'NONE', #229 ) ;
#83 = SURFACE_STYLE_FILL_AREA ( #90 ) ;
#84 = EDGE_CURVE ( 'NONE', #43, #102, #257, .T. ) ;
#85 = CARTESIAN_POINT ( 'NONE',  ( -0.04750000000000064587, 0.0000000000000000000, 1.500000000000000222 ) ) ;
#86 = AXIS2_PLACEMENT_3D ( 'NONE', #49, #258, #150 ) ;
#87 = DIRECTION ( 'NONE',  ( 1.000000000000000000, 0.0000000000000000000, 0.0000000000000000000 ) ) ;
#88 = DIRECTION ( 'NONE',  ( -0.0000000000000000000, -0.0000000000000000000, -1.000000000000000000 ) ) ;
#89 = PRODUCT ( 'Micro_RME-020-2', 'Micro_RME-020-2', '', ( #226 ) ) ;
#90 = FILL_AREA_STYLE ('',( #178 ) ) ;
#91 = DIRECTION ( 'NONE',  ( 1.000000000000000000, 0.0000000000000000000, -0.0000000000000000000 ) ) ;
#92 = LINE ( 'NONE', #153, #262 ) ;
#93 = SHAPE_DEFINITION_REPRESENTATION ( #163, #265 ) ;
#94 = AXIS2_PLACEMENT_3D ( 'NONE', #253, #203, #64 ) ;
#95 = PRODUCT_DEFINITION_FORMATION_WITH_SPECIFIED_SOURCE ( 'ANY', '', #89, .NOT_KNOWN. ) ;
#96 = DIRECTION ( 'NONE',  ( 1.000000000000000000, 0.0000000000000000000, 0.0000000000000000000 ) ) ;
#97 = AXIS2_PLACEMENT_3D ( 'NONE', #184, #231, #91 ) ;
#98 = ORIENTED_EDGE ( 'NONE', *, *, #114, .F. ) ;
#99 = VECTOR ( 'NONE', #70, 39.37007874015748854 ) ;
#100 = SURFACE_SIDE_STYLE ('',( #222 ) ) ;
#101 = ORIENTED_EDGE ( 'NONE', *, *, #34, .T. ) ;
#102 = VERTEX_POINT ( 'NONE', #188 ) ;
#103 = ORIENTED_EDGE ( 'NONE', *, *, #283, .F. ) ;
#104 = STYLED_ITEM ( 'NONE', ( #299 ), #40 ) ;
#105 = CARTESIAN_POINT ( 'NONE',  ( 0.04750000000000064587, 5.817072295950006528E-18, 1.500000000000000222 ) ) ;
#106 = ADVANCED_FACE ( 'NONE', ( #298 ), #276, .T. ) ;
#107 = LINE ( 'NONE', #85, #99 ) ;
#108 = DIRECTION ( 'NONE',  ( 1.000000000000000000, 0.0000000000000000000, -0.0000000000000000000 ) ) ;
#109 = AXIS2_PLACEMENT_3D ( 'NONE', #160, #278, #87 ) ;
#110 = PRODUCT_DEFINITION_CONTEXT ( 'detailed design', #190, 'design' ) ;
#111 = DIRECTION ( 'NONE',  ( 0.0000000000000000000, 0.0000000000000000000, -1.000000000000000000 ) ) ;
#112 = FACE_OUTER_BOUND ( 'NONE', #292, .T. ) ;
#113 = DIRECTION ( 'NONE',  ( 1.000000000000000000, 0.0000000000000000000, 0.0000000000000000000 ) ) ;
#114 = EDGE_CURVE ( 'NONE', #146, #143, #60, .T. ) ;
#115 = DIRECTION ( 'NONE',  ( -1.000000000000000000, 0.0000000000000000000, 0.0000000000000000000 ) ) ;
#116 = PLANE ( 'NONE',  #97 ) ;
#117 = AXIS2_PLACEMENT_3D ( 'NONE', #250, #185, #113 ) ;
#118 = AXIS2_PLACEMENT_3D ( 'NONE', #182, #132, #144 ) ;
#119 = EDGE_CURVE ( 'NONE', #146, #74, #280, .T. ) ;
#120 = AXIS2_PLACEMENT_3D ( 'NONE', #228, #233, #282 ) ;
#121 =( LENGTH_UNIT ( ) NAMED_UNIT ( * ) SI_UNIT ( $, .METRE. ) );
#122 = ORIENTED_EDGE ( 'NONE', *, *, #139, .F. ) ;
#123 = CIRCLE ( 'NONE', #120, 0.04750000000000064587 ) ;
#124 = ORIENTED_EDGE ( 'NONE', *, *, #114, .T. ) ;
#125 = AXIS2_PLACEMENT_3D ( 'NONE', #32, #23, #108 ) ;
#126 =( NAMED_UNIT ( * ) PLANE_ANGLE_UNIT ( ) SI_UNIT ( $, .RADIAN. ) );
#127 = DIRECTION ( 'NONE',  ( -1.224646799147353454E-16, -0.0000000000000000000, -1.000000000000000000 ) ) ;
#128 = CARTESIAN_POINT ( 'NONE',  ( 0.009990000000000007555, 0.0000000000000000000, 0.05999999999999999778 ) ) ;
#129 = CARTESIAN_POINT ( 'NONE',  ( 0.0000000000000000000, 0.0000000000000000000, 1.485000000000000764 ) ) ;
#130 = CIRCLE ( 'NONE', #44, 0.009990000000000000616 ) ;
#131 = DIRECTION ( 'NONE',  ( -1.224646799147353454E-16, -0.0000000000000000000, -1.000000000000000000 ) ) ;
#132 = DIRECTION ( 'NONE',  ( 0.0000000000000000000, 0.0000000000000000000, -1.000000000000000000 ) ) ;
#133 = CARTESIAN_POINT ( 'NONE',  ( 0.0000000000000000000, 0.0000000000000000000, 1.500000000000000222 ) ) ;
#134 = PLANE ( 'NONE',  #125 ) ;
#135 = CARTESIAN_POINT ( 'NONE',  ( 0.0000000000000000000, 0.0000000000000000000, 0.0000000000000000000 ) ) ;
#136 = CYLINDRICAL_SURFACE ( 'NONE', #284, 0.009990000000000000616 ) ;
#137 = ADVANCED_FACE ( 'NONE', ( #168 ), #116, .T. ) ;
#138 = AXIS2_PLACEMENT_3D ( 'NONE', #30, #9, #71 ) ;
#139 = EDGE_CURVE ( 'NONE', #143, #102, #208, .T. ) ;
#140 = AXIS2_PLACEMENT_3D ( 'NONE', #33, #232, #164 ) ;
#141 = ORIENTED_EDGE ( 'NONE', *, *, #57, .F. ) ;
#142 =( NAMED_UNIT ( * ) PLANE_ANGLE_UNIT ( ) SI_UNIT ( $, .RADIAN. ) );
#143 = VERTEX_POINT ( 'NONE', #128 ) ;
#144 = DIRECTION ( 'NONE',  ( -1.000000000000000000, 0.0000000000000000000, 0.0000000000000000000 ) ) ;
#145 = ORIENTED_EDGE ( 'NONE', *, *, #4, .T. ) ;
#146 = VERTEX_POINT ( 'NONE', #53 ) ;
#147 =( CONVERSION_BASED_UNIT ( 'INCH', #216 ) LENGTH_UNIT ( ) NAMED_UNIT ( #152 ) );
#148 = VERTEX_POINT ( 'NONE', #204 ) ;
#149 = PRODUCT_DEFINITION ( 'UNKNOWN', '', #95, #110 ) ;
#150 = DIRECTION ( 'NONE',  ( -1.000000000000000000, 0.0000000000000000000, 1.224646799147353454E-16 ) ) ;
#151 = PRESENTATION_LAYER_ASSIGNMENT (  '', '', ( #104 ) ) ;
#152 = DIMENSIONAL_EXPONENTS ( 1.000000000000000000, 0.0000000000000000000, 0.0000000000000000000, 0.0000000000000000000, 0.0000000000000000000, 0.0000000000000000000, 0.0000000000000000000 ) ;
#153 = CARTESIAN_POINT ( 'NONE',  ( -0.009989999999999993677, 1.223422152348205941E-18, 0.05999999999999999778 ) ) ;
#154 = DIRECTION ( 'NONE',  ( -1.224646799147353454E-16, -0.0000000000000000000, -1.000000000000000000 ) ) ;
#155 = CARTESIAN_POINT ( 'NONE',  ( -0.06250000000000002776, 0.0000000000000000000, 1.500000000000000222 ) ) ;
#156 = CARTESIAN_POINT ( 'NONE',  ( 0.009990000000000000616, 1.223422152348205941E-18, 0.0000000000000000000 ) ) ;
#157 = DIRECTION ( 'NONE',  ( 1.000000000000000000, 0.0000000000000000000, 0.0000000000000000000 ) ) ;
#158 = CARTESIAN_POINT ( 'NONE',  ( 0.009990000000000000616, 1.223422152348205941E-18, -1.223422152348206134E-18 ) ) ;
#159 = CARTESIAN_POINT ( 'NONE',  ( 0.0000000000000000000, 0.0000000000000000000, 1.500000000000000222 ) ) ;
#160 = CARTESIAN_POINT ( 'NONE',  ( 4.381774103116277669E-17, 0.0000000000000000000, 0.3577990083481244477 ) ) ;
#161 = CARTESIAN_POINT ( 'NONE',  ( 0.009990000000000007555, 0.0000000000000000000, 0.05999999999999999778 ) ) ;
#162 = DIMENSIONAL_EXPONENTS ( 1.000000000000000000, 0.0000000000000000000, 0.0000000000000000000, 0.0000000000000000000, 0.0000000000000000000, 0.0000000000000000000, 0.0000000000000000000 ) ;
#163 = PRODUCT_DEFINITION_SHAPE ( 'NONE', 'NONE',  #149 ) ;
#164 = DIRECTION ( 'NONE',  ( -1.000000000000000000, 0.0000000000000000000, 0.0000000000000000000 ) ) ;
#165 = CARTESIAN_POINT ( 'NONE',  ( 0.04750000000000064587, 6.735557395310483192E-18, 1.500000000000000222 ) ) ;
#166 = DIMENSIONAL_EXPONENTS ( 1.000000000000000000, 0.0000000000000000000, 0.0000000000000000000, 0.0000000000000000000, 0.0000000000000000000, 0.0000000000000000000, 0.0000000000000000000 ) ;
#167 = STYLED_ITEM ( 'NONE', ( #240 ), #265 ) ;
#168 = FACE_OUTER_BOUND ( 'NONE', #270, .T. ) ;
#169 = PRODUCT_RELATED_PRODUCT_CATEGORY ( 'part', '', ( #89 ) ) ;
#170 = CIRCLE ( 'NONE', #94, 0.06250000000000002776 ) ;
#171 = FACE_OUTER_BOUND ( 'NONE', #199, .T. ) ;
#172 = ORIENTED_EDGE ( 'NONE', *, *, #34, .F. ) ;
#173 = ADVANCED_FACE ( 'NONE', ( #52 ), #136, .T. ) ;
#174 = ORIENTED_EDGE ( 'NONE', *, *, #230, .T. ) ;
#175 = ORIENTED_EDGE ( 'NONE', *, *, #119, .T. ) ;
#176 = ORIENTED_EDGE ( 'NONE', *, *, #16, .T. ) ;
#177 = AXIS2_PLACEMENT_3D ( 'NONE', #7, #209, #96 ) ;
#178 = FILL_AREA_STYLE_COLOUR ( '', #248 ) ;
#179 = FACE_OUTER_BOUND ( 'NONE', #58, .T. ) ;
#180 = CONICAL_SURFACE ( 'NONE', #80, 0.009990000000000000616, 0.1745329251994338637 ) ;
#181 = DIRECTION ( 'NONE',  ( 0.0000000000000000000, 0.0000000000000000000, 1.000000000000000000 ) ) ;
#182 = CARTESIAN_POINT ( 'NONE',  ( 0.0000000000000000000, 0.0000000000000000000, 1.500000000000000222 ) ) ;
#183 = DIRECTION ( 'NONE',  ( 1.000000000000000000, 0.0000000000000000000, 0.0000000000000000000 ) ) ;
#184 = CARTESIAN_POINT ( 'NONE',  ( 0.0000000000000000000, 0.0000000000000000000, 1.500000000000000222 ) ) ;
#185 = DIRECTION ( 'NONE',  ( 1.224646799147353454E-16, 0.0000000000000000000, 1.000000000000000000 ) ) ;
#186 = DIRECTION ( 'NONE',  ( -1.000000000000000000, 0.0000000000000000000, 1.224646799147353454E-16 ) ) ;
#187 = DIRECTION ( 'NONE',  ( -1.000000000000000000, 0.0000000000000000000, 1.224646799147353454E-16 ) ) ;
#188 = CARTESIAN_POINT ( 'NONE',  ( 0.06250000000000006939, 7.654042494670963708E-18, 0.3577990083481244477 ) ) ;
#189 = CARTESIAN_POINT ( 'NONE',  ( 0.0000000000000000000, 0.0000000000000000000, 1.500000000000000222 ) ) ;
#190 = APPLICATION_CONTEXT ( 'automotive_design' ) ;
#191 = CLOSED_SHELL ( 'NONE', ( #173, #291, #286, #54, #212, #137, #79, #36, #106, #236 ) ) ;
#192 = AXIS2_PLACEMENT_3D ( 'NONE', #249, #46, #224 ) ;
#193 = ORIENTED_EDGE ( 'NONE', *, *, #48, .T. ) ;
#194 = EDGE_CURVE ( 'NONE', #47, #61, #214, .T. ) ;
#195 =( LENGTH_UNIT ( ) NAMED_UNIT ( * ) SI_UNIT ( $, .METRE. ) );
#196 = ORIENTED_EDGE ( 'NONE', *, *, #48, .F. ) ;
#197 = ORIENTED_EDGE ( 'NONE', *, *, #21, .F. ) ;
#198 = FILL_AREA_STYLE_COLOUR ( '', #243 ) ;
#199 = EDGE_LOOP ( 'NONE', ( #295, #193, #59, #141 ) ) ;
#200 = MECHANICAL_DESIGN_GEOMETRIC_PRESENTATION_REPRESENTATION (  '', ( #167 ), #45 ) ;
#201 = FACE_OUTER_BOUND ( 'NONE', #62, .T. ) ;
#202 = DIRECTION ( 'NONE',  ( 0.7071067811865462405, 8.659560562354916834E-17, -0.7071067811865486830 ) ) ;
#203 = DIRECTION ( 'NONE',  ( 0.0000000000000000000, 0.0000000000000000000, -1.000000000000000000 ) ) ;
#204 = CARTESIAN_POINT ( 'NONE',  ( -0.06250000000000002776, 0.0000000000000000000, 1.485000000000000764 ) ) ;
#205 = AXIS2_PLACEMENT_3D ( 'NONE', #159, #88, #251 ) ;
#206 = SURFACE_STYLE_USAGE ( .BOTH. , #273 ) ;
#207 = UNCERTAINTY_MEASURE_WITH_UNIT (LENGTH_MEASURE( 1.000000000000000082E-05 ), #65, 'distance_accuracy_value', 'NONE');
#208 = LINE ( 'NONE', #161, #39 ) ;
#209 = DIRECTION ( 'NONE',  ( -1.224646799147353454E-16, -0.0000000000000000000, -1.000000000000000000 ) ) ;
#210 = CARTESIAN_POINT ( 'NONE',  ( 0.06250000000000002776, 7.654042494670959086E-18, 1.500000000000000222 ) ) ;
#211 = PRESENTATION_LAYER_ASSIGNMENT (  '', '', ( #167 ) ) ;
#212 = ADVANCED_FACE ( 'NONE', ( #112 ), #68, .T. ) ;
#213 = CIRCLE ( 'NONE', #256, 0.06250000000000002776 ) ;
#214 = CIRCLE ( 'NONE', #261, 0.04750000000000064587 ) ;
#215 = ORIENTED_EDGE ( 'NONE', *, *, #139, .T. ) ;
#216 = LENGTH_MEASURE_WITH_UNIT ( LENGTH_MEASURE( 0.02539999999999999897 ), #121 );
#217 =( NAMED_UNIT ( * ) SI_UNIT ( $, .STERADIAN. ) SOLID_ANGLE_UNIT ( ) );
#218 =( GEOMETRIC_REPRESENTATION_CONTEXT ( 3 ) GLOBAL_UNCERTAINTY_ASSIGNED_CONTEXT ( ( #28 ) ) GLOBAL_UNIT_ASSIGNED_CONTEXT ( ( #147, #142, #75 ) ) REPRESENTATION_CONTEXT ( 'NONE', 'WORKASPACE' ) );
#219 = ORIENTED_EDGE ( 'NONE', *, *, #119, .F. ) ;
#220 = ORIENTED_EDGE ( 'NONE', *, *, #84, .F. ) ;
#221 = EDGE_LOOP ( 'NONE', ( #124, #101, #247, #219 ) ) ;
#222 = SURFACE_STYLE_FILL_AREA ( #245 ) ;
#223 = LINE ( 'NONE', #155, #237 ) ;
#224 = DIRECTION ( 'NONE',  ( -1.000000000000000000, 0.0000000000000000000, 0.0000000000000000000 ) ) ;
#225 = CARTESIAN_POINT ( 'NONE',  ( -0.04750000000000064587, 0.0000000000000000000, 1.500000000000000222 ) ) ;
#226 = PRODUCT_CONTEXT ( 'NONE', #285, 'mechanical' ) ;
#227 = LENGTH_MEASURE_WITH_UNIT ( LENGTH_MEASURE( 0.02539999999999999897 ), #20 );
#228 = CARTESIAN_POINT ( 'NONE',  ( 0.0000000000000000000, 0.0000000000000000000, 1.500000000000000222 ) ) ;
#229 = CARTESIAN_POINT ( 'NONE',  ( 0.06250000000000002776, 7.654042494670959086E-18, 1.485000000000000764 ) ) ;
#230 = EDGE_CURVE ( 'NONE', #61, #47, #123, .T. ) ;
#231 = DIRECTION ( 'NONE',  ( 0.0000000000000000000, 0.0000000000000000000, 1.000000000000000000 ) ) ;
#232 = DIRECTION ( 'NONE',  ( -1.224646799147353454E-16, -0.0000000000000000000, -1.000000000000000000 ) ) ;
#233 = DIRECTION ( 'NONE',  ( 0.0000000000000000000, 0.0000000000000000000, 1.000000000000000000 ) ) ;
#234 = CIRCLE ( 'NONE', #86, 0.009990000000000000616 ) ;
#235 = AXIS2_PLACEMENT_3D ( 'NONE', #135, #259, #187 ) ;
#236 = ADVANCED_FACE ( 'NONE', ( #179 ), #134, .F. ) ;
#237 = VECTOR ( 'NONE', #6, 39.37007874015748143 ) ;
#238 = APPLICATION_PROTOCOL_DEFINITION ( 'draft international standard', 'automotive_design', 1998, #285 ) ;
#239 = ORIENTED_EDGE ( 'NONE', *, *, #263, .T. ) ;
#240 = PRESENTATION_STYLE_ASSIGNMENT (( #14 ) ) ;
#241 = ORIENTED_EDGE ( 'NONE', *, *, #24, .T. ) ;
#242 = DIRECTION ( 'NONE',  ( 1.224646799147353454E-16, 0.0000000000000000000, 1.000000000000000000 ) ) ;
#243 = COLOUR_RGB ( '',0.7921568627450980005, 0.8196078431372548767, 0.9333333333333333481 ) ;
#244 = ORIENTED_EDGE ( 'NONE', *, *, #12, .T. ) ;
#245 = FILL_AREA_STYLE ('',( #198 ) ) ;
#246 = ORIENTED_EDGE ( 'NONE', *, *, #4, .F. ) ;
#247 = ORIENTED_EDGE ( 'NONE', *, *, #42, .F. ) ;
#248 = COLOUR_RGB ( '',0.7921568627450980005, 0.8196078431372548767, 0.9333333333333333481 ) ;
#249 = CARTESIAN_POINT ( 'NONE',  ( 0.0000000000000000000, 0.0000000000000000000, 1.500000000000000222 ) ) ;
#250 = CARTESIAN_POINT ( 'NONE',  ( 7.347880794884121462E-18, 0.0000000000000000000, 0.05999999999999999778 ) ) ;
#251 = DIRECTION ( 'NONE',  ( -1.000000000000000000, 0.0000000000000000000, 0.0000000000000000000 ) ) ;
#252 = DIRECTION ( 'NONE',  ( -1.224646799147353454E-16, -0.0000000000000000000, -1.000000000000000000 ) ) ;
#253 = CARTESIAN_POINT ( 'NONE',  ( 0.0000000000000000000, 0.0000000000000000000, 1.485000000000000764 ) ) ;
#254 = FACE_OUTER_BOUND ( 'NONE', #264, .T. ) ;
#255 = CARTESIAN_POINT ( 'NONE',  ( 0.0000000000000000000, 0.0000000000000000000, 0.0000000000000000000 ) ) ;
#256 = AXIS2_PLACEMENT_3D ( 'NONE', #129, #111, #183 ) ;
#257 = CIRCLE ( 'NONE', #177, 0.06250000000000002776 ) ;
#258 = DIRECTION ( 'NONE',  ( -1.224646799147353454E-16, -0.0000000000000000000, -1.000000000000000000 ) ) ;
#259 = DIRECTION ( 'NONE',  ( -1.224646799147353454E-16, -0.0000000000000000000, -1.000000000000000000 ) ) ;
#260 = VECTOR ( 'NONE', #202, 39.37007874015748854 ) ;
#261 = AXIS2_PLACEMENT_3D ( 'NONE', #189, #27, #279 ) ;
#262 = VECTOR ( 'NONE', #26, 39.37007874015747433 ) ;
#263 = EDGE_CURVE ( 'NONE', #82, #102, #2, .T. ) ;
#264 = EDGE_LOOP ( 'NONE', ( #197, #103, #215, #244 ) ) ;
#265 = ADVANCED_BREP_SHAPE_REPRESENTATION ( 'Micro_RME-020-2', ( #40, #288 ), #218 ) ;
#266 =( NAMED_UNIT ( * ) PLANE_ANGLE_UNIT ( ) SI_UNIT ( $, .RADIAN. ) );
#267 = ORIENTED_EDGE ( 'NONE', *, *, #84, .T. ) ;
#268 = VERTEX_POINT ( 'NONE', #156 ) ;
#269 = ORIENTED_EDGE ( 'NONE', *, *, #21, .T. ) ;
#270 = EDGE_LOOP ( 'NONE', ( #17, #174 ) ) ;
#271 = VECTOR ( 'NONE', #252, 39.37007874015748143 ) ;
#272 = DIRECTION ( 'NONE',  ( -1.000000000000000000, 0.0000000000000000000, 1.224646799147353454E-16 ) ) ;
#273 = SURFACE_SIDE_STYLE ('',( #83 ) ) ;
#274 = DIRECTION ( 'NONE',  ( -0.0000000000000000000, -0.0000000000000000000, -1.000000000000000000 ) ) ;
#275 = APPLICATION_PROTOCOL_DEFINITION ( 'draft international standard', 'automotive_design', 1998, #190 ) ;
#276 = CYLINDRICAL_SURFACE ( 'NONE', #235, 0.009990000000000000616 ) ;
#277 = UNCERTAINTY_MEASURE_WITH_UNIT (LENGTH_MEASURE( 1.000000000000000082E-05 ), #293, 'distance_accuracy_value', 'NONE');
#278 = DIRECTION ( 'NONE',  ( -1.224646799147353454E-16, -0.0000000000000000000, -1.000000000000000000 ) ) ;
#279 = DIRECTION ( 'NONE',  ( 1.000000000000000000, 0.0000000000000000000, 0.0000000000000000000 ) ) ;
#280 = LINE ( 'NONE', #69, #271 ) ;
#281 = FACE_OUTER_BOUND ( 'NONE', #67, .T. ) ;
#282 = DIRECTION ( 'NONE',  ( 1.000000000000000000, 0.0000000000000000000, 0.0000000000000000000 ) ) ;
#283 = EDGE_CURVE ( 'NONE', #143, #146, #294, .T. ) ;
#284 = AXIS2_PLACEMENT_3D ( 'NONE', #255, #154, #186 ) ;
#285 = APPLICATION_CONTEXT ( 'automotive_design' ) ;
#286 = ADVANCED_FACE ( 'NONE', ( #171 ), #72, .T. ) ;
#287 = ORIENTED_EDGE ( 'NONE', *, *, #12, .F. ) ;
#288 = AXIS2_PLACEMENT_3D ( 'NONE', #5, #181, #157 ) ;
#289 = CARTESIAN_POINT ( 'NONE',  ( 7.347880794884121462E-18, 0.0000000000000000000, 0.05999999999999999778 ) ) ;
#290 = ORIENTED_EDGE ( 'NONE', *, *, #194, .F. ) ;
#291 = ADVANCED_FACE ( 'NONE', ( #201 ), #180, .T. ) ;
#292 = EDGE_LOOP ( 'NONE', ( #76, #176, #145, #287 ) ) ;
#293 =( CONVERSION_BASED_UNIT ( 'INCH', #81 ) LENGTH_UNIT ( ) NAMED_UNIT ( #166 ) );
#294 = CIRCLE ( 'NONE', #138, 0.009990000000000000616 ) ;
#295 = ORIENTED_EDGE ( 'NONE', *, *, #230, .F. ) ;
#296 = DIRECTION ( 'NONE',  ( 1.000000000000000000, 0.0000000000000000000, 0.0000000000000000000 ) ) ;
#297 = FACE_OUTER_BOUND ( 'NONE', #78, .T. ) ;
#298 = FACE_OUTER_BOUND ( 'NONE', #19, .T. ) ;
#299 = PRESENTATION_STYLE_ASSIGNMENT (( #206 ) ) ;
ENDSEC;
END-ISO-10303-21;
