ISO-10303-21;
HEADER;
FILE_DESCRIPTION (( 'STEP AP214' ),
    '1' );
FILE_NAME ('01092.STEP',
    '2023-06-22T14:19:29',
    ( '' ),
    ( '' ),
    'SwSTEP 2.0',
    'SolidWorks 2023',
    '' );
FILE_SCHEMA (( 'AUTOMOTIVE_DESIGN' ));
ENDSEC;

DATA;
#1 = DIRECTION ( 'NONE',  ( 0.000000000000000000, 0.000000000000000000, -1.000000000000000000 ) ) ;
#2 = LINE ( 'NONE', #237, #266 ) ;
#3 = COLOUR_RGB ( '',1.000000000000000000, 0.000000000000000000, 0.000000000000000000 ) ;
#4 = AXIS2_PLACEMENT_3D ( 'NONE', #255, #300, #15 ) ;
#5 = FACE_OUTER_BOUND ( 'NONE', #178, .T. ) ;
#6 = PLANE ( 'NONE',  #156 ) ;
#7 = UNCERTAINTY_MEASURE_WITH_UNIT (LENGTH_MEASURE( 1.000000000000000082E-05 ), #228, 'distance_accuracy_value', 'NONE');
#8 = SURFACE_SIDE_STYLE ('',( #297 ) ) ;
#9 = DIRECTION ( 'NONE',  ( 3.628583108584750472E-17, 1.000000000000000000, -0.000000000000000000 ) ) ;
#10 = DIMENSIONAL_EXPONENTS ( 1.000000000000000000, 0.000000000000000000, 0.000000000000000000, 0.000000000000000000, 0.000000000000000000, 0.000000000000000000, 0.000000000000000000 ) ;
#11 =( GEOMETRIC_REPRESENTATION_CONTEXT ( 3 ) GLOBAL_UNCERTAINTY_ASSIGNED_CONTEXT ( ( #204 ) ) GLOBAL_UNIT_ASSIGNED_CONTEXT ( ( #126, #224, #194 ) ) REPRESENTATION_CONTEXT ( 'NONE', 'WORKASPACE' ) );
#12 = PRESENTATION_STYLE_ASSIGNMENT (( #123 ) ) ;
#13 = DIRECTION ( 'NONE',  ( 0.000000000000000000, 1.000000000000000000, 0.000000000000000000 ) ) ;
#14 =( NAMED_UNIT ( * ) SI_UNIT ( $, .STERADIAN. ) SOLID_ANGLE_UNIT ( ) );
#15 = DIRECTION ( 'NONE',  ( 0.000000000000000000, 0.000000000000000000, -1.000000000000000000 ) ) ;
#16 = CLOSED_SHELL ( 'NONE', ( #88, #309, #186, #82 ) ) ;
#17 = MECHANICAL_DESIGN_GEOMETRIC_PRESENTATION_REPRESENTATION (  '', ( #84 ), #285 ) ;
#18 = ORIENTED_EDGE ( 'NONE', *, *, #230, .T. ) ;
#19 = VERTEX_POINT ( 'NONE', #109 ) ;
#20 = EDGE_CURVE ( 'NONE', #182, #19, #220, .T. ) ;
#21 = ORIENTED_EDGE ( 'NONE', *, *, #230, .F. ) ;
#22 = CARTESIAN_POINT ( 'NONE',  ( -0.09374999999999988898, 2.000000000000000000, 0.000000000000000000 ) ) ;
#23 = VERTEX_POINT ( 'NONE', #269 ) ;
#24 = STYLED_ITEM ( 'NONE', ( #179 ), #309 ) ;
#25 = ORIENTED_EDGE ( 'NONE', *, *, #26, .F. ) ;
#26 = EDGE_CURVE ( 'NONE', #73, #111, #168, .T. ) ;
#27 = DIRECTION ( 'NONE',  ( 3.628583108584750472E-17, 1.000000000000000000, -0.000000000000000000 ) ) ;
#28 = CYLINDRICAL_SURFACE ( 'NONE', #51, 0.09374999999999995837 ) ;
#29 = COLOUR_RGB ( '',1.000000000000000000, 0.000000000000000000, 0.000000000000000000 ) ;
#30 = COLOUR_RGB ( '',0.7921568627450980005, 0.8196078431372548767, 0.9333333333333333481 ) ;
#31 = CARTESIAN_POINT ( 'NONE',  ( 0.000000000000000000, 0.000000000000000000, -0.09375000000000001388 ) ) ;
#32 = EDGE_CURVE ( 'NONE', #113, #23, #158, .T. ) ;
#33 = LINE ( 'NONE', #75, #214 ) ;
#34 = SURFACE_STYLE_USAGE ( .BOTH. , #166 ) ;
#35 = STYLED_ITEM ( 'NONE', ( #119 ), #74 ) ;
#36 = PRESENTATION_LAYER_ASSIGNMENT (  '', '', ( #24 ) ) ;
#37 = CARTESIAN_POINT ( 'NONE',  ( 0.000000000000000000, 0.000000000000000000, 0.000000000000000000 ) ) ;
#38 = EDGE_CURVE ( 'NONE', #182, #113, #33, .T. ) ;
#39 = CARTESIAN_POINT ( 'NONE',  ( 6.123233995736766036E-17, 2.000000000000000000, 0.000000000000000000 ) ) ;
#40 = CYLINDRICAL_SURFACE ( 'NONE', #157, 0.09374999999999998612 ) ;
#41 = LENGTH_MEASURE_WITH_UNIT ( LENGTH_MEASURE( 0.02539999999999999897 ), #171 );
#42 = DIRECTION ( 'NONE',  ( 0.000000000000000000, -0.000000000000000000, 1.000000000000000000 ) ) ;
#43 = AXIS2_PLACEMENT_3D ( 'NONE', #290, #219, #61 ) ;
#44 = FILL_AREA_STYLE_COLOUR ( '', #29 ) ;
#45 = SURFACE_STYLE_USAGE ( .BOTH. , #253 ) ;
#46 = LENGTH_MEASURE_WITH_UNIT ( LENGTH_MEASURE( 0.02539999999999999897 ), #201 );
#47 = MECHANICAL_DESIGN_GEOMETRIC_PRESENTATION_REPRESENTATION (  '', ( #24 ), #227 ) ;
#48 = EDGE_LOOP ( 'NONE', ( #257, #283, #133, #50 ) ) ;
#49 = UNCERTAINTY_MEASURE_WITH_UNIT (LENGTH_MEASURE( 1.000000000000000082E-05 ), #130, 'distance_accuracy_value', 'NONE');
#50 = ORIENTED_EDGE ( 'NONE', *, *, #291, .F. ) ;
#51 = AXIS2_PLACEMENT_3D ( 'NONE', #274, #176, #145 ) ;
#52 = AXIS2_PLACEMENT_3D ( 'NONE', #301, #13, #42 ) ;
#53 = APPLICATION_CONTEXT ( 'automotive_design' ) ;
#54 = FILL_AREA_STYLE ('',( #289 ) ) ;
#55 = CYLINDRICAL_SURFACE ( 'NONE', #91, 0.09374999999999998612 ) ;
#56 = SURFACE_STYLE_FILL_AREA ( #142 ) ;
#57 = ADVANCED_BREP_SHAPE_REPRESENTATION ( '01092', ( #287, #74, #215 ), #11 ) ;
#58 = FILL_AREA_STYLE_COLOUR ( '', #99 ) ;
#59 =( GEOMETRIC_REPRESENTATION_CONTEXT ( 3 ) GLOBAL_UNCERTAINTY_ASSIGNED_CONTEXT ( ( #183 ) ) GLOBAL_UNIT_ASSIGNED_CONTEXT ( ( #299, #98, #14 ) ) REPRESENTATION_CONTEXT ( 'NONE', 'WORKASPACE' ) );
#60 = CARTESIAN_POINT ( 'NONE',  ( 0.09374999999999998612, 2.000000000000000000, 0.000000000000000000 ) ) ;
#61 = DIRECTION ( 'NONE',  ( -1.000000000000000000, 0.000000000000000000, 0.000000000000000000 ) ) ;
#62 = EDGE_CURVE ( 'NONE', #155, #111, #121, .T. ) ;
#63 = PRESENTATION_LAYER_ASSIGNMENT (  '', '', ( #85 ) ) ;
#64 = APPLICATION_PROTOCOL_DEFINITION ( 'draft international standard', 'automotive_design', 1998, #53 ) ;
#65 = PRODUCT_DEFINITION ( 'UNKNOWN', '', #92, #217 ) ;
#66 = FACE_OUTER_BOUND ( 'NONE', #236, .T. ) ;
#67 = CARTESIAN_POINT ( 'NONE',  ( 0.000000000000000000, 0.000000000000000000, 0.000000000000000000 ) ) ;
#68 = CARTESIAN_POINT ( 'NONE',  ( 0.000000000000000000, 0.3125000000000000000, -0.09374999999999998612 ) ) ;
#69 = DIMENSIONAL_EXPONENTS ( 1.000000000000000000, 0.000000000000000000, 0.000000000000000000, 0.000000000000000000, 0.000000000000000000, 0.000000000000000000, 0.000000000000000000 ) ;
#70 = FILL_AREA_STYLE ('',( #282 ) ) ;
#71 = ORIENTED_EDGE ( 'NONE', *, *, #265, .F. ) ;
#72 = EDGE_CURVE ( 'NONE', #23, #113, #239, .T. ) ;
#73 = VERTEX_POINT ( 'NONE', #31 ) ;
#74 = MANIFOLD_SOLID_BREP ( 'Revolve - Tool Body (Straight Shanked)', #244 ) ;
#75 = CARTESIAN_POINT ( 'NONE',  ( 0.09375000000000002776, 2.000000000000000000, 1.148106374200643092E-17 ) ) ;
#76 =( GEOMETRIC_REPRESENTATION_CONTEXT ( 3 ) GLOBAL_UNCERTAINTY_ASSIGNED_CONTEXT ( ( #7 ) ) GLOBAL_UNIT_ASSIGNED_CONTEXT ( ( #228, #248, #100 ) ) REPRESENTATION_CONTEXT ( 'NONE', 'WORKASPACE' ) );
#77 = CARTESIAN_POINT ( 'NONE',  ( 1.148106374200643401E-17, 0.000000000000000000, 0.09374999999999998612 ) ) ;
#78 = FACE_OUTER_BOUND ( 'NONE', #288, .T. ) ;
#79 =( NAMED_UNIT ( * ) SI_UNIT ( $, .STERADIAN. ) SOLID_ANGLE_UNIT ( ) );
#80 = DIRECTION ( 'NONE',  ( 1.000000000000000000, 0.000000000000000000, 0.000000000000000000 ) ) ;
#81 = PRESENTATION_LAYER_ASSIGNMENT (  '', '', ( #116 ) ) ;
#82 = ADVANCED_FACE ( 'NONE', ( #5 ), #6, .T. ) ;
#83 = ADVANCED_FACE ( 'NONE', ( #172 ), #197, .F. ) ;
#84 = STYLED_ITEM ( 'NONE', ( #196 ), #186 ) ;
#85 = STYLED_ITEM ( 'NONE', ( #231 ), #287 ) ;
#86 = DIRECTION ( 'NONE',  ( 0.000000000000000000, 0.000000000000000000, -1.000000000000000000 ) ) ;
#87 = VERTEX_POINT ( 'NONE', #68 ) ;
#88 = ADVANCED_FACE ( 'NONE', ( #165 ), #55, .T. ) ;
#89 = ORIENTED_EDGE ( 'NONE', *, *, #26, .T. ) ;
#90 = SURFACE_STYLE_USAGE ( .BOTH. , #304 ) ;
#91 = AXIS2_PLACEMENT_3D ( 'NONE', #293, #184, #1 ) ;
#92 = PRODUCT_DEFINITION_FORMATION_WITH_SPECIFIED_SOURCE ( 'ANY', '', #306, .NOT_KNOWN. ) ;
#93 = ORIENTED_EDGE ( 'NONE', *, *, #281, .T. ) ;
#94 = DIRECTION ( 'NONE',  ( 3.628583108584750472E-17, 1.000000000000000000, -0.000000000000000000 ) ) ;
#95 = SURFACE_SIDE_STYLE ('',( #56 ) ) ;
#96 = COLOUR_RGB ( '',0.7921568627450980005, 0.8196078431372548767, 0.9333333333333333481 ) ;
#97 = LENGTH_MEASURE_WITH_UNIT ( LENGTH_MEASURE( 0.02539999999999999897 ), #213 );
#98 =( NAMED_UNIT ( * ) PLANE_ANGLE_UNIT ( ) SI_UNIT ( $, .RADIAN. ) );
#99 = COLOUR_RGB ( '',1.000000000000000000, 0.000000000000000000, 0.000000000000000000 ) ;
#100 =( NAMED_UNIT ( * ) SI_UNIT ( $, .STERADIAN. ) SOLID_ANGLE_UNIT ( ) );
#101 = CARTESIAN_POINT ( 'NONE',  ( 6.171850957456204517E-35, 0.3125000000000000000, 0.000000000000000000 ) ) ;
#102 = DIRECTION ( 'NONE',  ( 0.000000000000000000, 0.000000000000000000, 1.000000000000000000 ) ) ;
#103 = CYLINDRICAL_SURFACE ( 'NONE', #200, 0.09374999999999995837 ) ;
#104 = DIRECTION ( 'NONE',  ( -1.000000000000000000, 0.000000000000000000, 0.000000000000000000 ) ) ;
#105 =( LENGTH_UNIT ( ) NAMED_UNIT ( * ) SI_UNIT ( $, .METRE. ) );
#106 = FILL_AREA_STYLE ('',( #150 ) ) ;
#107 = DIRECTION ( 'NONE',  ( 0.000000000000000000, 0.000000000000000000, -1.000000000000000000 ) ) ;
#108 = AXIS2_PLACEMENT_3D ( 'NONE', #101, #222, #278 ) ;
#109 = CARTESIAN_POINT ( 'NONE',  ( -0.09374999999999998612, 0.3125000000000000000, 0.000000000000000000 ) ) ;
#110 = CARTESIAN_POINT ( 'NONE',  ( 0.000000000000000000, 0.3125000000000000000, 0.000000000000000000 ) ) ;
#111 = VERTEX_POINT ( 'NONE', #160 ) ;
#112 = PRESENTATION_LAYER_ASSIGNMENT (  '', '', ( #35 ) ) ;
#113 = VERTEX_POINT ( 'NONE', #118 ) ;
#114 = ORIENTED_EDGE ( 'NONE', *, *, #32, .F. ) ;
#115 = SURFACE_STYLE_FILL_AREA ( #54 ) ;
#116 = STYLED_ITEM ( 'NONE', ( #151 ), #82 ) ;
#117 = FILL_AREA_STYLE_COLOUR ( '', #96 ) ;
#118 = CARTESIAN_POINT ( 'NONE',  ( 0.09374999999999998612, 2.000000000000000000, 1.148106374200643247E-17 ) ) ;
#119 = PRESENTATION_STYLE_ASSIGNMENT (( #140 ) ) ;
#120 = DIRECTION ( 'NONE',  ( -0.000000000000000000, -1.000000000000000000, -0.000000000000000000 ) ) ;
#121 = LINE ( 'NONE', #77, #295 ) ;
#122 = FACE_OUTER_BOUND ( 'NONE', #135, .T. ) ;
#123 = SURFACE_STYLE_USAGE ( .BOTH. , #245 ) ;
#124 = DIRECTION ( 'NONE',  ( -0.000000000000000000, -1.000000000000000000, -0.000000000000000000 ) ) ;
#125 = LENGTH_MEASURE_WITH_UNIT ( LENGTH_MEASURE( 0.02539999999999999897 ), #272 );
#126 =( CONVERSION_BASED_UNIT ( 'INCH', #41 ) LENGTH_UNIT ( ) NAMED_UNIT ( #246 ) );
#127 =( CONVERSION_BASED_UNIT ( 'INCH', #148 ) LENGTH_UNIT ( ) NAMED_UNIT ( #254 ) );
#128 = CARTESIAN_POINT ( 'NONE',  ( 0.000000000000000000, 0.3125000000000000000, 0.000000000000000000 ) ) ;
#129 = SURFACE_STYLE_FILL_AREA ( #70 ) ;
#130 =( CONVERSION_BASED_UNIT ( 'INCH', #46 ) LENGTH_UNIT ( ) NAMED_UNIT ( #69 ) );
#131 = ORIENTED_EDGE ( 'NONE', *, *, #32, .T. ) ;
#132 = ORIENTED_EDGE ( 'NONE', *, *, #134, .T. ) ;
#133 = ORIENTED_EDGE ( 'NONE', *, *, #72, .F. ) ;
#134 = EDGE_CURVE ( 'NONE', #87, #73, #2, .T. ) ;
#135 = EDGE_LOOP ( 'NONE', ( #205, #259, #234, #114 ) ) ;
#136 = PLANE ( 'NONE',  #52 ) ;
#137 = CIRCLE ( 'NONE', #43, 0.09374999999999998612 ) ;
#138 = COLOUR_RGB ( '',1.000000000000000000, 0.000000000000000000, 0.000000000000000000 ) ;
#139 = EDGE_LOOP ( 'NONE', ( #71, #21 ) ) ;
#140 = SURFACE_STYLE_USAGE ( .BOTH. , #95 ) ;
#141 = MECHANICAL_DESIGN_GEOMETRIC_PRESENTATION_REPRESENTATION (  '', ( #116 ), #76 ) ;
#142 = FILL_AREA_STYLE ('',( #117 ) ) ;
#143 = AXIS2_PLACEMENT_3D ( 'NONE', #275, #249, #86 ) ;
#144 = DIRECTION ( 'NONE',  ( -3.628583108584750472E-17, -1.000000000000000000, 0.000000000000000000 ) ) ;
#145 = DIRECTION ( 'NONE',  ( -1.000000000000000000, 0.000000000000000000, 0.000000000000000000 ) ) ;
#146 = SURFACE_STYLE_FILL_AREA ( #270 ) ;
#147 = AXIS2_PLACEMENT_3D ( 'NONE', #263, #307, #185 ) ;
#148 = LENGTH_MEASURE_WITH_UNIT ( LENGTH_MEASURE( 0.02539999999999999897 ), #190 );
#149 = SHAPE_DEFINITION_REPRESENTATION ( #209, #57 ) ;
#150 = FILL_AREA_STYLE_COLOUR ( '', #3 ) ;
#151 = PRESENTATION_STYLE_ASSIGNMENT (( #223 ) ) ;
#152 = AXIS2_PLACEMENT_3D ( 'NONE', #188, #308, #216 ) ;
#153 =( GEOMETRIC_REPRESENTATION_CONTEXT ( 3 ) GLOBAL_UNCERTAINTY_ASSIGNED_CONTEXT ( ( #49 ) ) GLOBAL_UNIT_ASSIGNED_CONTEXT ( ( #130, #303, #199 ) ) REPRESENTATION_CONTEXT ( 'NONE', 'WORKASPACE' ) );
#154 = ORIENTED_EDGE ( 'NONE', *, *, #62, .F. ) ;
#155 = VERTEX_POINT ( 'NONE', #212 ) ;
#156 = AXIS2_PLACEMENT_3D ( 'NONE', #37, #221, #107 ) ;
#157 = AXIS2_PLACEMENT_3D ( 'NONE', #251, #124, #189 ) ;
#158 = CIRCLE ( 'NONE', #284, 0.09374999999999991673 ) ;
#159 = AXIS2_PLACEMENT_3D ( 'NONE', #128, #229, #225 ) ;
#160 = CARTESIAN_POINT ( 'NONE',  ( 1.148106374200643555E-17, 0.000000000000000000, 0.09375000000000001388 ) ) ;
#161 = UNCERTAINTY_MEASURE_WITH_UNIT (LENGTH_MEASURE( 1.000000000000000082E-05 ), #296, 'distance_accuracy_value', 'NONE');
#162 = DIRECTION ( 'NONE',  ( -0.000000000000000000, -1.000000000000000000, -0.000000000000000000 ) ) ;
#163 = DIRECTION ( 'NONE',  ( -1.000000000000000000, 0.000000000000000000, 0.000000000000000000 ) ) ;
#164 = EDGE_CURVE ( 'NONE', #19, #182, #137, .T. ) ;
#165 = FACE_OUTER_BOUND ( 'NONE', #202, .T. ) ;
#166 = SURFACE_SIDE_STYLE ('',( #277 ) ) ;
#167 = UNCERTAINTY_MEASURE_WITH_UNIT (LENGTH_MEASURE( 1.000000000000000082E-05 ), #242, 'distance_accuracy_value', 'NONE');
#168 = CIRCLE ( 'NONE', #152, 0.09375000000000001388 ) ;
#169 = APPLICATION_PROTOCOL_DEFINITION ( 'draft international standard', 'automotive_design', 1998, #192 ) ;
#170 = CIRCLE ( 'NONE', #4, 0.09375000000000001388 ) ;
#171 =( LENGTH_UNIT ( ) NAMED_UNIT ( * ) SI_UNIT ( $, .METRE. ) );
#172 = FACE_OUTER_BOUND ( 'NONE', #233, .T. ) ;
#173 = DIRECTION ( 'NONE',  ( 1.000000000000000000, -3.628583108584750472E-17, 0.000000000000000000 ) ) ;
#174 = DIMENSIONAL_EXPONENTS ( 1.000000000000000000, 0.000000000000000000, 0.000000000000000000, 0.000000000000000000, 0.000000000000000000, 0.000000000000000000, 0.000000000000000000 ) ;
#175 =( GEOMETRIC_REPRESENTATION_CONTEXT ( 3 ) GLOBAL_UNCERTAINTY_ASSIGNED_CONTEXT ( ( #161 ) ) GLOBAL_UNIT_ASSIGNED_CONTEXT ( ( #296, #294, #264 ) ) REPRESENTATION_CONTEXT ( 'NONE', 'WORKASPACE' ) );
#176 = DIRECTION ( 'NONE',  ( 3.628583108584750472E-17, 1.000000000000000000, -0.000000000000000000 ) ) ;
#177 = ORIENTED_EDGE ( 'NONE', *, *, #265, .T. ) ;
#178 = EDGE_LOOP ( 'NONE', ( #89, #93 ) ) ;
#179 = PRESENTATION_STYLE_ASSIGNMENT (( #90 ) ) ;
#180 = ADVANCED_FACE ( 'NONE', ( #238 ), #28, .T. ) ;
#181 = DIRECTION ( 'NONE',  ( 3.628583108584750472E-17, 1.000000000000000000, -0.000000000000000000 ) ) ;
#182 = VERTEX_POINT ( 'NONE', #243 ) ;
#183 = UNCERTAINTY_MEASURE_WITH_UNIT (LENGTH_MEASURE( 1.000000000000000082E-05 ), #299, 'distance_accuracy_value', 'NONE');
#184 = DIRECTION ( 'NONE',  ( -0.000000000000000000, -1.000000000000000000, -0.000000000000000000 ) ) ;
#185 = DIRECTION ( 'NONE',  ( -1.000000000000000000, 0.000000000000000000, 0.000000000000000000 ) ) ;
#186 = ADVANCED_FACE ( 'NONE', ( #66 ), #40, .T. ) ;
#187 = MECHANICAL_DESIGN_GEOMETRIC_PRESENTATION_REPRESENTATION (  '', ( #226 ), #59 ) ;
#188 = CARTESIAN_POINT ( 'NONE',  ( 0.000000000000000000, 0.000000000000000000, 0.000000000000000000 ) ) ;
#189 = DIRECTION ( 'NONE',  ( 0.000000000000000000, 0.000000000000000000, -1.000000000000000000 ) ) ;
#190 =( LENGTH_UNIT ( ) NAMED_UNIT ( * ) SI_UNIT ( $, .METRE. ) );
#191 =( NAMED_UNIT ( * ) PLANE_ANGLE_UNIT ( ) SI_UNIT ( $, .RADIAN. ) );
#192 = APPLICATION_CONTEXT ( 'automotive_design' ) ;
#193 = PRESENTATION_LAYER_ASSIGNMENT (  '', '', ( #226 ) ) ;
#194 =( NAMED_UNIT ( * ) SI_UNIT ( $, .STERADIAN. ) SOLID_ANGLE_UNIT ( ) );
#195 = PLANE ( 'NONE',  #252 ) ;
#196 = PRESENTATION_STYLE_ASSIGNMENT (( #34 ) ) ;
#197 = PLANE ( 'NONE',  #108 ) ;
#198 = LENGTH_MEASURE_WITH_UNIT ( LENGTH_MEASURE( 0.02539999999999999897 ), #105 );
#199 =( NAMED_UNIT ( * ) SI_UNIT ( $, .STERADIAN. ) SOLID_ANGLE_UNIT ( ) );
#200 = AXIS2_PLACEMENT_3D ( 'NONE', #39, #9, #104 ) ;
#201 =( LENGTH_UNIT ( ) NAMED_UNIT ( * ) SI_UNIT ( $, .METRE. ) );
#202 = EDGE_LOOP ( 'NONE', ( #177, #261, #25, #208 ) ) ;
#203 = ORIENTED_EDGE ( 'NONE', *, *, #20, .F. ) ;
#204 = UNCERTAINTY_MEASURE_WITH_UNIT (LENGTH_MEASURE( 1.000000000000000082E-05 ), #126, 'distance_accuracy_value', 'NONE');
#205 = ORIENTED_EDGE ( 'NONE', *, *, #38, .F. ) ;
#206 = PRODUCT_RELATED_PRODUCT_CATEGORY ( 'part', '', ( #306 ) ) ;
#207 = FACE_OUTER_BOUND ( 'NONE', #139, .T. ) ;
#208 = ORIENTED_EDGE ( 'NONE', *, *, #134, .F. ) ;
#209 = PRODUCT_DEFINITION_SHAPE ( 'NONE', 'NONE',  #65 ) ;
#210 = ORIENTED_EDGE ( 'NONE', *, *, #281, .F. ) ;
#211 = LINE ( 'NONE', #22, #268 ) ;
#212 = CARTESIAN_POINT ( 'NONE',  ( 1.148106374200643401E-17, 0.3125000000000000000, 0.09374999999999998612 ) ) ;
#213 =( LENGTH_UNIT ( ) NAMED_UNIT ( * ) SI_UNIT ( $, .METRE. ) );
#214 = VECTOR ( 'NONE', #94, 39.37007874015748143 ) ;
#215 = AXIS2_PLACEMENT_3D ( 'NONE', #67, #102, #80 ) ;
#216 = DIRECTION ( 'NONE',  ( 0.000000000000000000, 0.000000000000000000, -1.000000000000000000 ) ) ;
#217 = PRODUCT_DEFINITION_CONTEXT ( 'detailed design', #53, 'design' ) ;
#218 = DIRECTION ( 'NONE',  ( 3.628583108584750472E-17, 1.000000000000000000, -0.000000000000000000 ) ) ;
#219 = DIRECTION ( 'NONE',  ( 3.628583108584750472E-17, 1.000000000000000000, -0.000000000000000000 ) ) ;
#220 = CIRCLE ( 'NONE', #250, 0.09374999999999998612 ) ;
#221 = DIRECTION ( 'NONE',  ( 0.000000000000000000, -1.000000000000000000, -0.000000000000000000 ) ) ;
#222 = DIRECTION ( 'NONE',  ( 3.628583108584750472E-17, 1.000000000000000000, -0.000000000000000000 ) ) ;
#223 = SURFACE_STYLE_USAGE ( .BOTH. , #8 ) ;
#224 =( NAMED_UNIT ( * ) PLANE_ANGLE_UNIT ( ) SI_UNIT ( $, .RADIAN. ) );
#225 = DIRECTION ( 'NONE',  ( 0.000000000000000000, 0.000000000000000000, -1.000000000000000000 ) ) ;
#226 = STYLED_ITEM ( 'NONE', ( #12 ), #88 ) ;
#227 =( GEOMETRIC_REPRESENTATION_CONTEXT ( 3 ) GLOBAL_UNCERTAINTY_ASSIGNED_CONTEXT ( ( #167 ) ) GLOBAL_UNIT_ASSIGNED_CONTEXT ( ( #242, #267, #79 ) ) REPRESENTATION_CONTEXT ( 'NONE', 'WORKASPACE' ) );
#228 =( CONVERSION_BASED_UNIT ( 'INCH', #198 ) LENGTH_UNIT ( ) NAMED_UNIT ( #10 ) );
#229 = DIRECTION ( 'NONE',  ( -0.000000000000000000, -1.000000000000000000, -0.000000000000000000 ) ) ;
#230 = EDGE_CURVE ( 'NONE', #155, #87, #305, .T. ) ;
#231 = PRESENTATION_STYLE_ASSIGNMENT (( #45 ) ) ;
#232 = ORIENTED_EDGE ( 'NONE', *, *, #164, .F. ) ;
#233 = EDGE_LOOP ( 'NONE', ( #232, #203 ) ) ;
#234 = ORIENTED_EDGE ( 'NONE', *, *, #291, .T. ) ;
#235 = CIRCLE ( 'NONE', #143, 0.09374999999999998612 ) ;
#236 = EDGE_LOOP ( 'NONE', ( #154, #18, #132, #210 ) ) ;
#237 = CARTESIAN_POINT ( 'NONE',  ( 0.000000000000000000, 0.000000000000000000, -0.09374999999999998612 ) ) ;
#238 = FACE_OUTER_BOUND ( 'NONE', #48, .T. ) ;
#239 = CIRCLE ( 'NONE', #147, 0.09374999999999991673 ) ;
#240 = UNCERTAINTY_MEASURE_WITH_UNIT (LENGTH_MEASURE( 1.000000000000000082E-05 ), #127, 'distance_accuracy_value', 'NONE');
#241 = CARTESIAN_POINT ( 'NONE',  ( 6.123233995736766036E-17, 2.000000000000000000, 0.000000000000000000 ) ) ;
#242 =( CONVERSION_BASED_UNIT ( 'INCH', #271 ) LENGTH_UNIT ( ) NAMED_UNIT ( #280 ) );
#243 = CARTESIAN_POINT ( 'NONE',  ( 0.09374999999999998612, 0.3125000000000000000, 1.148106374200643247E-17 ) ) ;
#244 = CLOSED_SHELL ( 'NONE', ( #180, #83, #260, #247 ) ) ;
#245 = SURFACE_SIDE_STYLE ('',( #146 ) ) ;
#246 = DIMENSIONAL_EXPONENTS ( 1.000000000000000000, 0.000000000000000000, 0.000000000000000000, 0.000000000000000000, 0.000000000000000000, 0.000000000000000000, 0.000000000000000000 ) ;
#247 = ADVANCED_FACE ( 'NONE', ( #78 ), #195, .F. ) ;
#248 =( NAMED_UNIT ( * ) PLANE_ANGLE_UNIT ( ) SI_UNIT ( $, .RADIAN. ) );
#249 = DIRECTION ( 'NONE',  ( -0.000000000000000000, -1.000000000000000000, -0.000000000000000000 ) ) ;
#250 = AXIS2_PLACEMENT_3D ( 'NONE', #110, #181, #286 ) ;
#251 = CARTESIAN_POINT ( 'NONE',  ( 0.000000000000000000, 0.000000000000000000, 0.000000000000000000 ) ) ;
#252 = AXIS2_PLACEMENT_3D ( 'NONE', #60, #144, #173 ) ;
#253 = SURFACE_SIDE_STYLE ('',( #129 ) ) ;
#254 = DIMENSIONAL_EXPONENTS ( 1.000000000000000000, 0.000000000000000000, 0.000000000000000000, 0.000000000000000000, 0.000000000000000000, 0.000000000000000000, 0.000000000000000000 ) ;
#255 = CARTESIAN_POINT ( 'NONE',  ( 0.000000000000000000, 0.000000000000000000, 0.000000000000000000 ) ) ;
#256 = ORIENTED_EDGE ( 'NONE', *, *, #72, .T. ) ;
#257 = ORIENTED_EDGE ( 'NONE', *, *, #164, .T. ) ;
#258 = MECHANICAL_DESIGN_GEOMETRIC_PRESENTATION_REPRESENTATION (  '', ( #35 ), #175 ) ;
#259 = ORIENTED_EDGE ( 'NONE', *, *, #20, .T. ) ;
#260 = ADVANCED_FACE ( 'NONE', ( #122 ), #103, .T. ) ;
#261 = ORIENTED_EDGE ( 'NONE', *, *, #62, .T. ) ;
#262 = PRESENTATION_LAYER_ASSIGNMENT (  '', '', ( #84 ) ) ;
#263 = CARTESIAN_POINT ( 'NONE',  ( 6.123233995736766036E-17, 2.000000000000000000, 0.000000000000000000 ) ) ;
#264 =( NAMED_UNIT ( * ) SI_UNIT ( $, .STERADIAN. ) SOLID_ANGLE_UNIT ( ) );
#265 = EDGE_CURVE ( 'NONE', #87, #155, #235, .T. ) ;
#266 = VECTOR ( 'NONE', #120, 39.37007874015748143 ) ;
#267 =( NAMED_UNIT ( * ) PLANE_ANGLE_UNIT ( ) SI_UNIT ( $, .RADIAN. ) );
#268 = VECTOR ( 'NONE', #27, 39.37007874015748143 ) ;
#269 = CARTESIAN_POINT ( 'NONE',  ( -0.09374999999999984734, 2.000000000000000000, 0.000000000000000000 ) ) ;
#270 = FILL_AREA_STYLE ('',( #44 ) ) ;
#271 = LENGTH_MEASURE_WITH_UNIT ( LENGTH_MEASURE( 0.02539999999999999897 ), #292 );
#272 =( LENGTH_UNIT ( ) NAMED_UNIT ( * ) SI_UNIT ( $, .METRE. ) );
#273 = PRODUCT_CONTEXT ( 'NONE', #192, 'mechanical' ) ;
#274 = CARTESIAN_POINT ( 'NONE',  ( 6.123233995736766036E-17, 2.000000000000000000, 0.000000000000000000 ) ) ;
#275 = CARTESIAN_POINT ( 'NONE',  ( 0.000000000000000000, 0.3125000000000000000, 0.000000000000000000 ) ) ;
#276 = FILL_AREA_STYLE ('',( #58 ) ) ;
#277 = SURFACE_STYLE_FILL_AREA ( #106 ) ;
#278 = DIRECTION ( 'NONE',  ( -1.000000000000000000, 3.628583108584750472E-17, 0.000000000000000000 ) ) ;
#279 = MECHANICAL_DESIGN_GEOMETRIC_PRESENTATION_REPRESENTATION (  '', ( #85 ), #153 ) ;
#280 = DIMENSIONAL_EXPONENTS ( 1.000000000000000000, 0.000000000000000000, 0.000000000000000000, 0.000000000000000000, 0.000000000000000000, 0.000000000000000000, 0.000000000000000000 ) ;
#281 = EDGE_CURVE ( 'NONE', #111, #73, #170, .T. ) ;
#282 = FILL_AREA_STYLE_COLOUR ( '', #30 ) ;
#283 = ORIENTED_EDGE ( 'NONE', *, *, #38, .T. ) ;
#284 = AXIS2_PLACEMENT_3D ( 'NONE', #241, #218, #163 ) ;
#285 =( GEOMETRIC_REPRESENTATION_CONTEXT ( 3 ) GLOBAL_UNCERTAINTY_ASSIGNED_CONTEXT ( ( #240 ) ) GLOBAL_UNIT_ASSIGNED_CONTEXT ( ( #127, #191, #298 ) ) REPRESENTATION_CONTEXT ( 'NONE', 'WORKASPACE' ) );
#286 = DIRECTION ( 'NONE',  ( -1.000000000000000000, 0.000000000000000000, 0.000000000000000000 ) ) ;
#287 = MANIFOLD_SOLID_BREP ( 'Revolve - Cutting Edge', #16 ) ;
#288 = EDGE_LOOP ( 'NONE', ( #256, #131 ) ) ;
#289 = FILL_AREA_STYLE_COLOUR ( '', #138 ) ;
#290 = CARTESIAN_POINT ( 'NONE',  ( 0.000000000000000000, 0.3125000000000000000, 0.000000000000000000 ) ) ;
#291 = EDGE_CURVE ( 'NONE', #19, #23, #211, .T. ) ;
#292 =( LENGTH_UNIT ( ) NAMED_UNIT ( * ) SI_UNIT ( $, .METRE. ) );
#293 = CARTESIAN_POINT ( 'NONE',  ( 0.000000000000000000, 0.000000000000000000, 0.000000000000000000 ) ) ;
#294 =( NAMED_UNIT ( * ) PLANE_ANGLE_UNIT ( ) SI_UNIT ( $, .RADIAN. ) );
#295 = VECTOR ( 'NONE', #162, 39.37007874015748143 ) ;
#296 =( CONVERSION_BASED_UNIT ( 'INCH', #97 ) LENGTH_UNIT ( ) NAMED_UNIT ( #174 ) );
#297 = SURFACE_STYLE_FILL_AREA ( #276 ) ;
#298 =( NAMED_UNIT ( * ) SI_UNIT ( $, .STERADIAN. ) SOLID_ANGLE_UNIT ( ) );
#299 =( CONVERSION_BASED_UNIT ( 'INCH', #125 ) LENGTH_UNIT ( ) NAMED_UNIT ( #302 ) );
#300 = DIRECTION ( 'NONE',  ( -0.000000000000000000, -1.000000000000000000, -0.000000000000000000 ) ) ;
#301 = CARTESIAN_POINT ( 'NONE',  ( 0.000000000000000000, 0.3125000000000000000, 0.000000000000000000 ) ) ;
#302 = DIMENSIONAL_EXPONENTS ( 1.000000000000000000, 0.000000000000000000, 0.000000000000000000, 0.000000000000000000, 0.000000000000000000, 0.000000000000000000, 0.000000000000000000 ) ;
#303 =( NAMED_UNIT ( * ) PLANE_ANGLE_UNIT ( ) SI_UNIT ( $, .RADIAN. ) );
#304 = SURFACE_SIDE_STYLE ('',( #115 ) ) ;
#305 = CIRCLE ( 'NONE', #159, 0.09374999999999998612 ) ;
#306 = PRODUCT ( '01092', '01092', '', ( #273 ) ) ;
#307 = DIRECTION ( 'NONE',  ( 3.628583108584750472E-17, 1.000000000000000000, -0.000000000000000000 ) ) ;
#308 = DIRECTION ( 'NONE',  ( -0.000000000000000000, -1.000000000000000000, -0.000000000000000000 ) ) ;
#309 = ADVANCED_FACE ( 'NONE', ( #207 ), #136, .T. ) ;
ENDSEC;
END-ISO-10303-21;
