ISO-10303-21;
HEADER;
FILE_DESCRIPTION (( 'STEP AP214' ),
    '1' );
FILE_NAME ('Micro_GEM-093-4X.STEP',
    '2021-09-01T19:21:50',
    ( '' ),
    ( '' ),
    'SwSTEP 2.0',
    'SolidWorks 2020',
    '' );
FILE_SCHEMA (( 'AUTOMOTIVE_DESIGN' ));
ENDSEC;

DATA;
#1 = CARTESIAN_POINT ( 'NONE',  ( 0.0000000000000000000, 0.0000000000000000000, 0.0000000000000000000 ) ) ;
#2 = EDGE_CURVE ( 'NONE', #73, #245, #118, .T. ) ;
#3 = AXIS2_PLACEMENT_3D ( 'NONE', #213, #12, #148 ) ;
#4 = CARTESIAN_POINT ( 'NONE',  ( 7.026839507303433011E-34, 0.0000000000000000000, 5.737849894513087439E-18 ) ) ;
#5 = CIRCLE ( 'NONE', #126, 0.04685310000000000169 ) ;
#6 = FILL_AREA_STYLE_COLOUR ( '', #39 ) ;
#7 = ORIENTED_EDGE ( 'NONE', *, *, #76, .F. ) ;
#8 = EDGE_CURVE ( 'NONE', #91, #179, #296, .T. ) ;
#9 = DIRECTION ( 'NONE',  ( -1.000000000000000000, 0.0000000000000000000, 1.224646799147353700E-16 ) ) ;
#10 =( NAMED_UNIT ( * ) PLANE_ANGLE_UNIT ( ) SI_UNIT ( $, .RADIAN. ) );
#11 = AXIS2_PLACEMENT_3D ( 'NONE', #171, #121, #9 ) ;
#12 = DIRECTION ( 'NONE',  ( -0.0000000000000000000, -0.0000000000000000000, -1.000000000000000000 ) ) ;
#13 = STYLED_ITEM ( 'NONE', ( #230 ), #268 ) ;
#14 = DIRECTION ( 'NONE',  ( 0.0000000000000000000, 0.0000000000000000000, -1.000000000000000000 ) ) ;
#15 = CARTESIAN_POINT ( 'NONE',  ( 0.04750000000000064587, 6.735557395310483192E-18, 1.500000000000000222 ) ) ;
#16 = FACE_OUTER_BOUND ( 'NONE', #96, .T. ) ;
#17 = EDGE_CURVE ( 'NONE', #91, #73, #125, .T. ) ;
#18 = EDGE_CURVE ( 'NONE', #159, #251, #193, .T. ) ;
#19 = DIRECTION ( 'NONE',  ( -1.000000000000000000, 0.0000000000000000000, 1.224646799147353700E-16 ) ) ;
#20 = ORIENTED_EDGE ( 'NONE', *, *, #284, .T. ) ;
#21 = VECTOR ( 'NONE', #205, 39.37007874015748854 ) ;
#22 = LENGTH_MEASURE_WITH_UNIT ( LENGTH_MEASURE( 0.02539999999999999897 ), #117 );
#23 = EDGE_CURVE ( 'NONE', #179, #297, #66, .T. ) ;
#24 = ORIENTED_EDGE ( 'NONE', *, *, #267, .T. ) ;
#25 = ORIENTED_EDGE ( 'NONE', *, *, #23, .T. ) ;
#26 = CARTESIAN_POINT ( 'NONE',  ( 4.592425496802576684E-17, 0.0000000000000000000, 0.3750000000000000555 ) ) ;
#27 = VECTOR ( 'NONE', #150, 39.37007874015747433 ) ;
#28 = ORIENTED_EDGE ( 'NONE', *, *, #8, .T. ) ;
#29 = CARTESIAN_POINT ( 'NONE',  ( 0.04685310000000004332, 0.0000000000000000000, 0.3750000000000000555 ) ) ;
#30 = ADVANCED_FACE ( 'NONE', ( #288 ), #271, .T. ) ;
#31 = DIRECTION ( 'NONE',  ( 1.000000000000000000, 0.0000000000000000000, 0.0000000000000000000 ) ) ;
#32 = CARTESIAN_POINT ( 'NONE',  ( 0.0000000000000000000, 0.0000000000000000000, 1.500000000000000222 ) ) ;
#33 = AXIS2_PLACEMENT_3D ( 'NONE', #128, #238, #146 ) ;
#34 = DIRECTION ( 'NONE',  ( -1.224646799147353700E-16, -0.0000000000000000000, -1.000000000000000000 ) ) ;
#35 = VECTOR ( 'NONE', #86, 39.37007874015748143 ) ;
#36 = CARTESIAN_POINT ( 'NONE',  ( 0.0000000000000000000, 0.0000000000000000000, 1.485000000000000764 ) ) ;
#37 = FACE_OUTER_BOUND ( 'NONE', #186, .T. ) ;
#38 = FACE_OUTER_BOUND ( 'NONE', #136, .T. ) ;
#39 = COLOUR_RGB ( '',0.7921568627450980005, 0.8196078431372548767, 0.9333333333333333481 ) ;
#40 = UNCERTAINTY_MEASURE_WITH_UNIT (LENGTH_MEASURE( 1.000000000000000082E-05 ), #139, 'distance_accuracy_value', 'NONE');
#41 = APPLICATION_PROTOCOL_DEFINITION ( 'draft international standard', 'automotive_design', 1998, #129 ) ;
#42 = ADVANCED_FACE ( 'NONE', ( #37 ), #149, .T. ) ;
#43 = VECTOR ( 'NONE', #173, 39.37007874015748143 ) ;
#44 = APPLICATION_CONTEXT ( 'automotive_design' ) ;
#45 = FACE_OUTER_BOUND ( 'NONE', #53, .T. ) ;
#46 = ORIENTED_EDGE ( 'NONE', *, *, #190, .F. ) ;
#47 = DIRECTION ( 'NONE',  ( 1.000000000000000000, 0.0000000000000000000, -0.0000000000000000000 ) ) ;
#48 = ADVANCED_FACE ( 'NONE', ( #191 ), #72, .T. ) ;
#49 = ORIENTED_EDGE ( 'NONE', *, *, #221, .F. ) ;
#50 = DIRECTION ( 'NONE',  ( 0.0000000000000000000, 0.0000000000000000000, -1.000000000000000000 ) ) ;
#51 = ORIENTED_EDGE ( 'NONE', *, *, #153, .F. ) ;
#52 = DIRECTION ( 'NONE',  ( 0.0000000000000000000, 0.0000000000000000000, -1.000000000000000000 ) ) ;
#53 = EDGE_LOOP ( 'NONE', ( #201, #20 ) ) ;
#54 = DIRECTION ( 'NONE',  ( -1.000000000000000000, 0.0000000000000000000, 0.0000000000000000000 ) ) ;
#55 = AXIS2_PLACEMENT_3D ( 'NONE', #282, #286, #257 ) ;
#56 = CIRCLE ( 'NONE', #220, 0.06250000000000002776 ) ;
#57 = DIRECTION ( 'NONE',  ( -1.224646799147353700E-16, -0.0000000000000000000, -1.000000000000000000 ) ) ;
#58 = DIRECTION ( 'NONE',  ( 0.0000000000000000000, 0.0000000000000000000, -1.000000000000000000 ) ) ;
#59 = AXIS2_PLACEMENT_3D ( 'NONE', #217, #122, #261 ) ;
#60 = CYLINDRICAL_SURFACE ( 'NONE', #105, 0.04685310000000000169 ) ;
#61 = AXIS2_PLACEMENT_3D ( 'NONE', #266, #151, #242 ) ;
#62 = CARTESIAN_POINT ( 'NONE',  ( -0.04685310000000000169, 0.0000000000000000000, 5.737849894513087439E-18 ) ) ;
#63 = SURFACE_SIDE_STYLE ('',( #109 ) ) ;
#64 = CARTESIAN_POINT ( 'NONE',  ( 0.04685310000000004332, 0.0000000000000000000, 0.3750000000000000555 ) ) ;
#65 = ADVANCED_FACE ( 'NONE', ( #81 ), #60, .T. ) ;
#66 = CIRCLE ( 'NONE', #232, 0.06250000000000002776 ) ;
#67 = ORIENTED_EDGE ( 'NONE', *, *, #272, .T. ) ;
#68 = ORIENTED_EDGE ( 'NONE', *, *, #169, .F. ) ;
#69 = FILL_AREA_STYLE ('',( #6 ) ) ;
#70 = VERTEX_POINT ( 'NONE', #15 ) ;
#71 = DIRECTION ( 'NONE',  ( -0.7071067811865462405, 0.0000000000000000000, -0.7071067811865486830 ) ) ;
#72 = CONICAL_SURFACE ( 'NONE', #59, 0.04685310000000000169, 0.1745329251994338915 ) ;
#73 = VERTEX_POINT ( 'NONE', #283 ) ;
#74 = AXIS2_PLACEMENT_3D ( 'NONE', #1, #249, #47 ) ;
#75 = CARTESIAN_POINT ( 'NONE',  ( 0.06250000000000008327, 7.654042494670966789E-18, 0.4637379795033760299 ) ) ;
#76 = EDGE_CURVE ( 'NONE', #110, #70, #269, .T. ) ;
#77 = ORIENTED_EDGE ( 'NONE', *, *, #8, .F. ) ;
#78 = DIRECTION ( 'NONE',  ( -1.000000000000000000, 0.0000000000000000000, 0.0000000000000000000 ) ) ;
#79 = CARTESIAN_POINT ( 'NONE',  ( 0.0000000000000000000, 0.0000000000000000000, 1.500000000000000222 ) ) ;
#80 = CYLINDRICAL_SURFACE ( 'NONE', #3, 0.06250000000000002776 ) ;
#81 = FACE_OUTER_BOUND ( 'NONE', #228, .T. ) ;
#82 = CARTESIAN_POINT ( 'NONE',  ( -0.06250000000000002776, 0.0000000000000000000, 1.500000000000000222 ) ) ;
#83 = VECTOR ( 'NONE', #234, 39.37007874015748143 ) ;
#84 = ADVANCED_FACE ( 'NONE', ( #290 ), #80, .T. ) ;
#85 = FILL_AREA_STYLE_COLOUR ( '', #108 ) ;
#86 = DIRECTION ( 'NONE',  ( -1.224646799147353700E-16, -0.0000000000000000000, -1.000000000000000000 ) ) ;
#87 =( NAMED_UNIT ( * ) SI_UNIT ( $, .STERADIAN. ) SOLID_ANGLE_UNIT ( ) );
#88 = UNCERTAINTY_MEASURE_WITH_UNIT (LENGTH_MEASURE( 1.000000000000000082E-05 ), #241, 'distance_accuracy_value', 'NONE');
#89 = VECTOR ( 'NONE', #141, 39.37007874015748143 ) ;
#90 =( NAMED_UNIT ( * ) PLANE_ANGLE_UNIT ( ) SI_UNIT ( $, .RADIAN. ) );
#91 = VERTEX_POINT ( 'NONE', #100 ) ;
#92 = PLANE ( 'NONE',  #74 ) ;
#93 = ORIENTED_EDGE ( 'NONE', *, *, #153, .T. ) ;
#94 = PRODUCT_DEFINITION ( 'UNKNOWN', '', #152, #270 ) ;
#95 = DIRECTION ( 'NONE',  ( 1.000000000000000000, 0.0000000000000000000, 0.0000000000000000000 ) ) ;
#96 = EDGE_LOOP ( 'NONE', ( #112, #28, #25, #142 ) ) ;
#97 = CARTESIAN_POINT ( 'NONE',  ( 0.06250000000000002776, 7.654042494670959086E-18, 1.485000000000000764 ) ) ;
#98 = AXIS2_PLACEMENT_3D ( 'NONE', #298, #256, #95 ) ;
#99 = EDGE_CURVE ( 'NONE', #159, #179, #102, .T. ) ;
#100 = CARTESIAN_POINT ( 'NONE',  ( -0.04685309999999995312, 6.695946194592023262E-18, 0.3750000000000000555 ) ) ;
#101 = DIRECTION ( 'NONE',  ( 1.000000000000000000, 0.0000000000000000000, 0.0000000000000000000 ) ) ;
#102 = LINE ( 'NONE', #82, #43 ) ;
#103 = CIRCLE ( 'NONE', #98, 0.04750000000000064587 ) ;
#104 = DIRECTION ( 'NONE',  ( -1.000000000000000000, 0.0000000000000000000, 0.0000000000000000000 ) ) ;
#105 = AXIS2_PLACEMENT_3D ( 'NONE', #127, #214, #216 ) ;
#106 = DIRECTION ( 'NONE',  ( 1.000000000000000000, 0.0000000000000000000, 0.0000000000000000000 ) ) ;
#107 = SURFACE_STYLE_USAGE ( .BOTH. , #63 ) ;
#108 = COLOUR_RGB ( '',0.7921568627450980005, 0.8196078431372548767, 0.9333333333333333481 ) ;
#109 = SURFACE_STYLE_FILL_AREA ( #133 ) ;
#110 = VERTEX_POINT ( 'NONE', #264 ) ;
#111 = CARTESIAN_POINT ( 'NONE',  ( 0.04685310000000000169, 5.737849894513085128E-18, 0.0000000000000000000 ) ) ;
#112 = ORIENTED_EDGE ( 'NONE', *, *, #124, .F. ) ;
#113 = DIMENSIONAL_EXPONENTS ( 1.000000000000000000, 0.0000000000000000000, 0.0000000000000000000, 0.0000000000000000000, 0.0000000000000000000, 0.0000000000000000000, 0.0000000000000000000 ) ;
#114 = ORIENTED_EDGE ( 'NONE', *, *, #272, .F. ) ;
#115 = PRESENTATION_STYLE_ASSIGNMENT (( #227 ) ) ;
#116 = EDGE_LOOP ( 'NONE', ( #273, #180 ) ) ;
#117 =( LENGTH_UNIT ( ) NAMED_UNIT ( * ) SI_UNIT ( $, .METRE. ) );
#118 = CIRCLE ( 'NONE', #250, 0.04685310000000000169 ) ;
#119 = CONICAL_SURFACE ( 'NONE', #61, 0.04685310000000000169, 0.1745329251994338915 ) ;
#120 = ORIENTED_EDGE ( 'NONE', *, *, #169, .T. ) ;
#121 = DIRECTION ( 'NONE',  ( -1.224646799147353700E-16, -0.0000000000000000000, -1.000000000000000000 ) ) ;
#122 = DIRECTION ( 'NONE',  ( 1.224646799147353700E-16, 0.0000000000000000000, 1.000000000000000000 ) ) ;
#123 = VECTOR ( 'NONE', #57, 39.37007874015748143 ) ;
#124 = EDGE_CURVE ( 'NONE', #91, #182, #176, .T. ) ;
#125 = LINE ( 'NONE', #62, #123 ) ;
#126 = AXIS2_PLACEMENT_3D ( 'NONE', #26, #233, #78 ) ;
#127 = CARTESIAN_POINT ( 'NONE',  ( 0.0000000000000000000, 0.0000000000000000000, 0.0000000000000000000 ) ) ;
#128 = CARTESIAN_POINT ( 'NONE',  ( 0.0000000000000000000, 0.0000000000000000000, 1.500000000000000222 ) ) ;
#129 = APPLICATION_CONTEXT ( 'automotive_design' ) ;
#130 = CYLINDRICAL_SURFACE ( 'NONE', #218, 0.04685310000000000169 ) ;
#131 = AXIS2_PLACEMENT_3D ( 'NONE', #281, #50, #54 ) ;
#132 = SHAPE_DEFINITION_REPRESENTATION ( #167, #268 ) ;
#133 = FILL_AREA_STYLE ('',( #85 ) ) ;
#134 = AXIS2_PLACEMENT_3D ( 'NONE', #32, #14, #104 ) ;
#135 = EDGE_CURVE ( 'NONE', #245, #73, #138, .T. ) ;
#136 = EDGE_LOOP ( 'NONE', ( #211, #248, #253, #161 ) ) ;
#137 = CARTESIAN_POINT ( 'NONE',  ( 0.0000000000000000000, 0.0000000000000000000, 1.485000000000000764 ) ) ;
#138 = CIRCLE ( 'NONE', #11, 0.04685310000000000169 ) ;
#139 =( CONVERSION_BASED_UNIT ( 'INCH', #22 ) LENGTH_UNIT ( ) NAMED_UNIT ( #252 ) );
#140 = ORIENTED_EDGE ( 'NONE', *, *, #223, .F. ) ;
#141 = DIRECTION ( 'NONE',  ( 0.1736481776669313859, 0.0000000000000000000, 0.9848077530122077983 ) ) ;
#142 = ORIENTED_EDGE ( 'NONE', *, *, #289, .F. ) ;
#143 = ORIENTED_EDGE ( 'NONE', *, *, #223, .T. ) ;
#144 = DIRECTION ( 'NONE',  ( 1.000000000000000000, 0.0000000000000000000, 0.0000000000000000000 ) ) ;
#145 = DIRECTION ( 'NONE',  ( -1.224646799147353700E-16, -0.0000000000000000000, -1.000000000000000000 ) ) ;
#146 = DIRECTION ( 'NONE',  ( -1.000000000000000000, 0.0000000000000000000, 0.0000000000000000000 ) ) ;
#147 =( LENGTH_UNIT ( ) NAMED_UNIT ( * ) SI_UNIT ( $, .METRE. ) );
#148 = DIRECTION ( 'NONE',  ( -1.000000000000000000, 0.0000000000000000000, 0.0000000000000000000 ) ) ;
#149 = CYLINDRICAL_SURFACE ( 'NONE', #33, 0.06250000000000002776 ) ;
#150 = DIRECTION ( 'NONE',  ( -0.1736481776669311916, 2.126576849575783316E-17, 0.9848077530122080203 ) ) ;
#151 = DIRECTION ( 'NONE',  ( 1.224646799147353700E-16, 0.0000000000000000000, 1.000000000000000000 ) ) ;
#152 = PRODUCT_DEFINITION_FORMATION_WITH_SPECIFIED_SOURCE ( 'ANY', '', #239, .NOT_KNOWN. ) ;
#153 = EDGE_CURVE ( 'NONE', #251, #297, #172, .T. ) ;
#154 = DIMENSIONAL_EXPONENTS ( 1.000000000000000000, 0.0000000000000000000, 0.0000000000000000000, 0.0000000000000000000, 0.0000000000000000000, 0.0000000000000000000, 0.0000000000000000000 ) ;
#155 = DIRECTION ( 'NONE',  ( 0.0000000000000000000, 0.0000000000000000000, 1.000000000000000000 ) ) ;
#156 =( GEOMETRIC_REPRESENTATION_CONTEXT ( 3 ) GLOBAL_UNCERTAINTY_ASSIGNED_CONTEXT ( ( #88 ) ) GLOBAL_UNIT_ASSIGNED_CONTEXT ( ( #241, #293, #87 ) ) REPRESENTATION_CONTEXT ( 'NONE', 'WORKASPACE' ) );
#157 = EDGE_LOOP ( 'NONE', ( #140, #7, #24, #49 ) ) ;
#158 = CARTESIAN_POINT ( 'NONE',  ( 0.0000000000000000000, 0.0000000000000000000, 0.0000000000000000000 ) ) ;
#159 = VERTEX_POINT ( 'NONE', #260 ) ;
#160 = DIRECTION ( 'NONE',  ( -1.224646799147353700E-16, -0.0000000000000000000, -1.000000000000000000 ) ) ;
#161 = ORIENTED_EDGE ( 'NONE', *, *, #17, .F. ) ;
#162 = LINE ( 'NONE', #29, #89 ) ;
#163 = ORIENTED_EDGE ( 'NONE', *, *, #23, .F. ) ;
#164 = PLANE ( 'NONE',  #291 ) ;
#165 = ORIENTED_EDGE ( 'NONE', *, *, #267, .F. ) ;
#166 = CARTESIAN_POINT ( 'NONE',  ( -0.04750000000000064587, 0.0000000000000000000, 1.500000000000000222 ) ) ;
#167 = PRODUCT_DEFINITION_SHAPE ( 'NONE', 'NONE',  #94 ) ;
#168 = DIRECTION ( 'NONE',  ( 1.000000000000000000, 0.0000000000000000000, 0.0000000000000000000 ) ) ;
#169 = EDGE_CURVE ( 'NONE', #297, #179, #185, .T. ) ;
#170 = VECTOR ( 'NONE', #71, 39.37007874015748854 ) ;
#171 = CARTESIAN_POINT ( 'NONE',  ( 7.026839507303433011E-34, 0.0000000000000000000, 5.737849894513087439E-18 ) ) ;
#172 = LINE ( 'NONE', #258, #83 ) ;
#173 = DIRECTION ( 'NONE',  ( -0.0000000000000000000, -0.0000000000000000000, -1.000000000000000000 ) ) ;
#174 = MECHANICAL_DESIGN_GEOMETRIC_PRESENTATION_REPRESENTATION (  '', ( #13 ), #156 ) ;
#175 = CARTESIAN_POINT ( 'NONE',  ( 0.04685310000000000169, 5.737849894513085128E-18, -5.737849894513087439E-18 ) ) ;
#176 = CIRCLE ( 'NONE', #55, 0.04685310000000000169 ) ;
#177 = ORIENTED_EDGE ( 'NONE', *, *, #17, .T. ) ;
#178 = AXIS2_PLACEMENT_3D ( 'NONE', #235, #34, #106 ) ;
#179 = VERTEX_POINT ( 'NONE', #195 ) ;
#180 = ORIENTED_EDGE ( 'NONE', *, *, #135, .T. ) ;
#181 = LINE ( 'NONE', #278, #21 ) ;
#182 = VERTEX_POINT ( 'NONE', #64 ) ;
#183 = AXIS2_PLACEMENT_3D ( 'NONE', #79, #192, #31 ) ;
#184 = LINE ( 'NONE', #166, #170 ) ;
#185 = CIRCLE ( 'NONE', #178, 0.06250000000000002776 ) ;
#186 = EDGE_LOOP ( 'NONE', ( #209, #93, #163, #279 ) ) ;
#187 = SURFACE_SIDE_STYLE ('',( #225 ) ) ;
#188 = CARTESIAN_POINT ( 'NONE',  ( 5.679152322418705982E-17, 0.0000000000000000000, 0.4637379795033760299 ) ) ;
#189 =( CONVERSION_BASED_UNIT ( 'INCH', #259 ) LENGTH_UNIT ( ) NAMED_UNIT ( #113 ) );
#190 = EDGE_CURVE ( 'NONE', #182, #245, #292, .T. ) ;
#191 = FACE_OUTER_BOUND ( 'NONE', #280, .T. ) ;
#192 = DIRECTION ( 'NONE',  ( 0.0000000000000000000, 0.0000000000000000000, 1.000000000000000000 ) ) ;
#193 = CIRCLE ( 'NONE', #236, 0.06250000000000002776 ) ;
#194 = APPLICATION_PROTOCOL_DEFINITION ( 'draft international standard', 'automotive_design', 1998, #44 ) ;
#195 = CARTESIAN_POINT ( 'NONE',  ( -0.06249999999999996531, 0.0000000000000000000, 0.4637379795033760299 ) ) ;
#196 = PRESENTATION_LAYER_ASSIGNMENT (  '', '', ( #262 ) ) ;
#197 = UNCERTAINTY_MEASURE_WITH_UNIT (LENGTH_MEASURE( 1.000000000000000082E-05 ), #189, 'distance_accuracy_value', 'NONE');
#198 = MECHANICAL_DESIGN_GEOMETRIC_PRESENTATION_REPRESENTATION (  '', ( #262 ), #294 ) ;
#199 = ADVANCED_FACE ( 'NONE', ( #16 ), #119, .T. ) ;
#200 = CARTESIAN_POINT ( 'NONE',  ( 0.0000000000000000000, 0.0000000000000000000, 0.0000000000000000000 ) ) ;
#201 = ORIENTED_EDGE ( 'NONE', *, *, #76, .T. ) ;
#202 = CARTESIAN_POINT ( 'NONE',  ( 0.0000000000000000000, 0.0000000000000000000, 1.500000000000000222 ) ) ;
#203 = CONICAL_SURFACE ( 'NONE', #131, 0.04750000000000064587, 0.7853981633974466137 ) ;
#204 = ORIENTED_EDGE ( 'NONE', *, *, #221, .T. ) ;
#205 = DIRECTION ( 'NONE',  ( 0.7071067811865462405, 8.659560562354916834E-17, -0.7071067811865486830 ) ) ;
#206 = ORIENTED_EDGE ( 'NONE', *, *, #99, .T. ) ;
#207 = ADVANCED_FACE ( 'NONE', ( #38 ), #130, .T. ) ;
#208 = DIRECTION ( 'NONE',  ( 0.0000000000000000000, 0.0000000000000000000, 1.000000000000000000 ) ) ;
#209 = ORIENTED_EDGE ( 'NONE', *, *, #18, .T. ) ;
#210 = DIRECTION ( 'NONE',  ( 1.000000000000000000, 0.0000000000000000000, -0.0000000000000000000 ) ) ;
#211 = ORIENTED_EDGE ( 'NONE', *, *, #124, .T. ) ;
#212 = ADVANCED_FACE ( 'NONE', ( #45 ), #164, .T. ) ;
#213 = CARTESIAN_POINT ( 'NONE',  ( 0.0000000000000000000, 0.0000000000000000000, 1.500000000000000222 ) ) ;
#214 = DIRECTION ( 'NONE',  ( -1.224646799147353700E-16, -0.0000000000000000000, -1.000000000000000000 ) ) ;
#215 = CLOSED_SHELL ( 'NONE', ( #207, #199, #30, #42, #84, #212, #247, #48, #65, #263 ) ) ;
#216 = DIRECTION ( 'NONE',  ( -1.000000000000000000, 0.0000000000000000000, 1.224646799147353700E-16 ) ) ;
#217 = CARTESIAN_POINT ( 'NONE',  ( 4.592425496802576684E-17, 0.0000000000000000000, 0.3750000000000000555 ) ) ;
#218 = AXIS2_PLACEMENT_3D ( 'NONE', #158, #160, #254 ) ;
#219 = PRODUCT_RELATED_PRODUCT_CATEGORY ( 'part', '', ( #239 ) ) ;
#220 = AXIS2_PLACEMENT_3D ( 'NONE', #137, #52, #144 ) ;
#221 = EDGE_CURVE ( 'NONE', #251, #159, #56, .T. ) ;
#222 = DIRECTION ( 'NONE',  ( -1.224646799147353700E-16, -0.0000000000000000000, -1.000000000000000000 ) ) ;
#223 = EDGE_CURVE ( 'NONE', #70, #251, #181, .T. ) ;
#224 = EDGE_LOOP ( 'NONE', ( #299, #143, #277, #165 ) ) ;
#225 = SURFACE_STYLE_FILL_AREA ( #69 ) ;
#226 = ORIENTED_EDGE ( 'NONE', *, *, #135, .F. ) ;
#227 = SURFACE_STYLE_USAGE ( .BOTH. , #187 ) ;
#228 = EDGE_LOOP ( 'NONE', ( #46, #67, #177, #226 ) ) ;
#229 = FACE_OUTER_BOUND ( 'NONE', #157, .T. ) ;
#230 = PRESENTATION_STYLE_ASSIGNMENT (( #107 ) ) ;
#231 = EDGE_LOOP ( 'NONE', ( #51, #204, #206, #68 ) ) ;
#232 = AXIS2_PLACEMENT_3D ( 'NONE', #188, #145, #168 ) ;
#233 = DIRECTION ( 'NONE',  ( -1.224646799147353700E-16, -0.0000000000000000000, -1.000000000000000000 ) ) ;
#234 = DIRECTION ( 'NONE',  ( -0.0000000000000000000, -0.0000000000000000000, -1.000000000000000000 ) ) ;
#235 = CARTESIAN_POINT ( 'NONE',  ( 5.679152322418705982E-17, 0.0000000000000000000, 0.4637379795033760299 ) ) ;
#236 = AXIS2_PLACEMENT_3D ( 'NONE', #36, #58, #101 ) ;
#237 = PRESENTATION_LAYER_ASSIGNMENT (  '', '', ( #13 ) ) ;
#238 = DIRECTION ( 'NONE',  ( -0.0000000000000000000, -0.0000000000000000000, -1.000000000000000000 ) ) ;
#239 = PRODUCT ( 'Micro_GEM-093-4X', 'Micro_GEM-093-4X', '', ( #265 ) ) ;
#240 = LENGTH_MEASURE_WITH_UNIT ( LENGTH_MEASURE( 0.02539999999999999897 ), #147 );
#241 =( CONVERSION_BASED_UNIT ( 'INCH', #240 ) LENGTH_UNIT ( ) NAMED_UNIT ( #154 ) );
#242 = DIRECTION ( 'NONE',  ( 1.000000000000000000, 0.0000000000000000000, 0.0000000000000000000 ) ) ;
#243 = MANIFOLD_SOLID_BREP ( 'Cut-Revolve1', #215 ) ;
#244 =( GEOMETRIC_REPRESENTATION_CONTEXT ( 3 ) GLOBAL_UNCERTAINTY_ASSIGNED_CONTEXT ( ( #197 ) ) GLOBAL_UNIT_ASSIGNED_CONTEXT ( ( #189, #10, #287 ) ) REPRESENTATION_CONTEXT ( 'NONE', 'WORKASPACE' ) );
#245 = VERTEX_POINT ( 'NONE', #111 ) ;
#246 = FACE_OUTER_BOUND ( 'NONE', #116, .T. ) ;
#247 = ADVANCED_FACE ( 'NONE', ( #229 ), #203, .T. ) ;
#248 = ORIENTED_EDGE ( 'NONE', *, *, #190, .T. ) ;
#249 = DIRECTION ( 'NONE',  ( 0.0000000000000000000, 0.0000000000000000000, 1.000000000000000000 ) ) ;
#250 = AXIS2_PLACEMENT_3D ( 'NONE', #4, #222, #19 ) ;
#251 = VERTEX_POINT ( 'NONE', #97 ) ;
#252 = DIMENSIONAL_EXPONENTS ( 1.000000000000000000, 0.0000000000000000000, 0.0000000000000000000, 0.0000000000000000000, 0.0000000000000000000, 0.0000000000000000000, 0.0000000000000000000 ) ;
#253 = ORIENTED_EDGE ( 'NONE', *, *, #2, .F. ) ;
#254 = DIRECTION ( 'NONE',  ( -1.000000000000000000, 0.0000000000000000000, 1.224646799147353700E-16 ) ) ;
#255 = ORIENTED_EDGE ( 'NONE', *, *, #289, .T. ) ;
#256 = DIRECTION ( 'NONE',  ( 0.0000000000000000000, 0.0000000000000000000, 1.000000000000000000 ) ) ;
#257 = DIRECTION ( 'NONE',  ( -1.000000000000000000, 0.0000000000000000000, 0.0000000000000000000 ) ) ;
#258 = CARTESIAN_POINT ( 'NONE',  ( 0.06250000000000002776, 7.654042494670959086E-18, 1.500000000000000222 ) ) ;
#259 = LENGTH_MEASURE_WITH_UNIT ( LENGTH_MEASURE( 0.02539999999999999897 ), #274 );
#260 = CARTESIAN_POINT ( 'NONE',  ( -0.06250000000000002776, 0.0000000000000000000, 1.485000000000000764 ) ) ;
#261 = DIRECTION ( 'NONE',  ( 1.000000000000000000, 0.0000000000000000000, 0.0000000000000000000 ) ) ;
#262 = STYLED_ITEM ( 'NONE', ( #115 ), #243 ) ;
#263 = ADVANCED_FACE ( 'NONE', ( #246 ), #92, .F. ) ;
#264 = CARTESIAN_POINT ( 'NONE',  ( -0.04750000000000064587, 0.0000000000000000000, 1.500000000000000222 ) ) ;
#265 = PRODUCT_CONTEXT ( 'NONE', #44, 'mechanical' ) ;
#266 = CARTESIAN_POINT ( 'NONE',  ( 4.592425496802576684E-17, 0.0000000000000000000, 0.3750000000000000555 ) ) ;
#267 = EDGE_CURVE ( 'NONE', #110, #159, #184, .T. ) ;
#268 = ADVANCED_BREP_SHAPE_REPRESENTATION ( 'Micro_GEM-093-4X', ( #243, #285 ), #244 ) ;
#269 = CIRCLE ( 'NONE', #183, 0.04750000000000064587 ) ;
#270 = PRODUCT_DEFINITION_CONTEXT ( 'detailed design', #129, 'design' ) ;
#271 = CONICAL_SURFACE ( 'NONE', #134, 0.04750000000000064587, 0.7853981633974466137 ) ;
#272 = EDGE_CURVE ( 'NONE', #182, #91, #5, .T. ) ;
#273 = ORIENTED_EDGE ( 'NONE', *, *, #2, .T. ) ;
#274 =( LENGTH_UNIT ( ) NAMED_UNIT ( * ) SI_UNIT ( $, .METRE. ) );
#275 = CARTESIAN_POINT ( 'NONE',  ( -0.04685309999999995312, 5.737849894513085128E-18, 0.3750000000000000555 ) ) ;
#276 =( NAMED_UNIT ( * ) SI_UNIT ( $, .STERADIAN. ) SOLID_ANGLE_UNIT ( ) );
#277 = ORIENTED_EDGE ( 'NONE', *, *, #18, .F. ) ;
#278 = CARTESIAN_POINT ( 'NONE',  ( 0.04750000000000064587, 5.817072295950006528E-18, 1.500000000000000222 ) ) ;
#279 = ORIENTED_EDGE ( 'NONE', *, *, #99, .F. ) ;
#280 = EDGE_LOOP ( 'NONE', ( #77, #114, #255, #120 ) ) ;
#281 = CARTESIAN_POINT ( 'NONE',  ( 0.0000000000000000000, 0.0000000000000000000, 1.500000000000000222 ) ) ;
#282 = CARTESIAN_POINT ( 'NONE',  ( 4.592425496802576684E-17, 0.0000000000000000000, 0.3750000000000000555 ) ) ;
#283 = CARTESIAN_POINT ( 'NONE',  ( -0.04685310000000000169, 0.0000000000000000000, 1.147569978902617488E-17 ) ) ;
#284 = EDGE_CURVE ( 'NONE', #70, #110, #103, .T. ) ;
#285 = AXIS2_PLACEMENT_3D ( 'NONE', #200, #155, #295 ) ;
#286 = DIRECTION ( 'NONE',  ( -1.224646799147353700E-16, -0.0000000000000000000, -1.000000000000000000 ) ) ;
#287 =( NAMED_UNIT ( * ) SI_UNIT ( $, .STERADIAN. ) SOLID_ANGLE_UNIT ( ) );
#288 = FACE_OUTER_BOUND ( 'NONE', #224, .T. ) ;
#289 = EDGE_CURVE ( 'NONE', #182, #297, #162, .T. ) ;
#290 = FACE_OUTER_BOUND ( 'NONE', #231, .T. ) ;
#291 = AXIS2_PLACEMENT_3D ( 'NONE', #202, #208, #210 ) ;
#292 = LINE ( 'NONE', #175, #35 ) ;
#293 =( NAMED_UNIT ( * ) PLANE_ANGLE_UNIT ( ) SI_UNIT ( $, .RADIAN. ) );
#294 =( GEOMETRIC_REPRESENTATION_CONTEXT ( 3 ) GLOBAL_UNCERTAINTY_ASSIGNED_CONTEXT ( ( #40 ) ) GLOBAL_UNIT_ASSIGNED_CONTEXT ( ( #139, #90, #276 ) ) REPRESENTATION_CONTEXT ( 'NONE', 'WORKASPACE' ) );
#295 = DIRECTION ( 'NONE',  ( 1.000000000000000000, 0.0000000000000000000, 0.0000000000000000000 ) ) ;
#296 = LINE ( 'NONE', #275, #27 ) ;
#297 = VERTEX_POINT ( 'NONE', #75 ) ;
#298 = CARTESIAN_POINT ( 'NONE',  ( 0.0000000000000000000, 0.0000000000000000000, 1.500000000000000222 ) ) ;
#299 = ORIENTED_EDGE ( 'NONE', *, *, #284, .F. ) ;
ENDSEC;
END-ISO-10303-21;
