ISO-10303-21;
HEADER;
FILE_DESCRIPTION (( 'STEP AP214' ),
    '1' );
FILE_NAME ('59436.STEP',
    '2023-06-30T22:15:13',
    ( '' ),
    ( '' ),
    'SwSTEP 2.0',
    'SolidWorks 2023',
    '' );
FILE_SCHEMA (( 'AUTOMOTIVE_DESIGN' ));
ENDSEC;

DATA;
#1 = CIRCLE ( 'NONE', #258, 0.1249999999999996947 ) ;
#2 = AXIS2_PLACEMENT_3D ( 'NONE', #55, #343, #31 ) ;
#3 = VECTOR ( 'NONE', #365, 39.37007874015748143 ) ;
#4 = DIRECTION ( 'NONE',  ( -0.000000000000000000, -1.000000000000000000, -0.000000000000000000 ) ) ;
#5 = UNCERTAINTY_MEASURE_WITH_UNIT (LENGTH_MEASURE( 1.000000000000000082E-05 ), #203, 'distance_accuracy_value', 'NONE');
#6 =( GEOMETRIC_REPRESENTATION_CONTEXT ( 3 ) GLOBAL_UNCERTAINTY_ASSIGNED_CONTEXT ( ( #5 ) ) GLOBAL_UNIT_ASSIGNED_CONTEXT ( ( #203, #49, #271 ) ) REPRESENTATION_CONTEXT ( 'NONE', 'WORKASPACE' ) );
#7 = DIRECTION ( 'NONE',  ( -1.000000000000000000, 0.000000000000000000, 0.000000000000000000 ) ) ;
#8 =( NAMED_UNIT ( * ) PLANE_ANGLE_UNIT ( ) SI_UNIT ( $, .RADIAN. ) );
#9 = ORIENTED_EDGE ( 'NONE', *, *, #134, .F. ) ;
#10 = ADVANCED_FACE ( 'NONE', ( #166 ), #237, .T. ) ;
#11 = SURFACE_SIDE_STYLE ('',( #301 ) ) ;
#12 = PRESENTATION_LAYER_ASSIGNMENT (  '', '', ( #191 ) ) ;
#13 =( LENGTH_UNIT ( ) NAMED_UNIT ( * ) SI_UNIT ( $, .METRE. ) );
#14 = SURFACE_STYLE_FILL_AREA ( #64 ) ;
#15 = LENGTH_MEASURE_WITH_UNIT ( LENGTH_MEASURE( 0.02539999999999999897 ), #33 );
#16 = FILL_AREA_STYLE ('',( #41 ) ) ;
#17 = CLOSED_SHELL ( 'NONE', ( #156, #192, #311, #10, #250 ) ) ;
#18 = STYLED_ITEM ( 'NONE', ( #197 ), #186 ) ;
#19 = LENGTH_MEASURE_WITH_UNIT ( LENGTH_MEASURE( 0.02539999999999999897 ), #164 );
#20 = ORIENTED_EDGE ( 'NONE', *, *, #60, .F. ) ;
#21 = CARTESIAN_POINT ( 'NONE',  ( 2.143131898507868297E-16, 0.7499999999999998890, 0.000000000000000000 ) ) ;
#22 = CARTESIAN_POINT ( 'NONE',  ( 2.143131898507868297E-16, 0.7499999999999998890, 0.000000000000000000 ) ) ;
#23 = FACE_OUTER_BOUND ( 'NONE', #372, .T. ) ;
#24 =( NAMED_UNIT ( * ) PLANE_ANGLE_UNIT ( ) SI_UNIT ( $, .RADIAN. ) );
#25 = PRESENTATION_STYLE_ASSIGNMENT (( #206 ) ) ;
#26 = FACE_OUTER_BOUND ( 'NONE', #287, .T. ) ;
#27 = AXIS2_PLACEMENT_3D ( 'NONE', #135, #169, #92 ) ;
#28 = CARTESIAN_POINT ( 'NONE',  ( -0.1249999999999999029, 2.500000000000000000, 0.000000000000000000 ) ) ;
#29 = ORIENTED_EDGE ( 'NONE', *, *, #319, .F. ) ;
#30 = APPLICATION_PROTOCOL_DEFINITION ( 'draft international standard', 'automotive_design', 1998, #337 ) ;
#31 = DIRECTION ( 'NONE',  ( 0.000000000000000000, 0.000000000000000000, -1.000000000000000000 ) ) ;
#32 = DIRECTION ( 'NONE',  ( 0.000000000000000000, 0.000000000000000000, 1.000000000000000000 ) ) ;
#33 =( LENGTH_UNIT ( ) NAMED_UNIT ( * ) SI_UNIT ( $, .METRE. ) );
#34 = EDGE_CURVE ( 'NONE', #268, #354, #308, .T. ) ;
#35 = ORIENTED_EDGE ( 'NONE', *, *, #357, .T. ) ;
#36 = PRESENTATION_STYLE_ASSIGNMENT (( #362 ) ) ;
#37 = VECTOR ( 'NONE', #247, 39.37007874015748143 ) ;
#38 = ORIENTED_EDGE ( 'NONE', *, *, #60, .T. ) ;
#39 = ORIENTED_EDGE ( 'NONE', *, *, #183, .F. ) ;
#40 = DIMENSIONAL_EXPONENTS ( 1.000000000000000000, 0.000000000000000000, 0.000000000000000000, 0.000000000000000000, 0.000000000000000000, 0.000000000000000000, 0.000000000000000000 ) ;
#41 = FILL_AREA_STYLE_COLOUR ( '', #220 ) ;
#42 = SURFACE_SIDE_STYLE ('',( #264 ) ) ;
#43 = FILL_AREA_STYLE ('',( #294 ) ) ;
#44 = CARTESIAN_POINT ( 'NONE',  ( 1.530808498934190276E-17, 0.000000000000000000, 0.1249999999999999029 ) ) ;
#45 = DIRECTION ( 'NONE',  ( 0.000000000000000000, 0.000000000000000000, -1.000000000000000000 ) ) ;
#46 = AXIS2_PLACEMENT_3D ( 'NONE', #150, #263, #45 ) ;
#47 = PRESENTATION_LAYER_ASSIGNMENT (  '', '', ( #155 ) ) ;
#48 = MECHANICAL_DESIGN_GEOMETRIC_PRESENTATION_REPRESENTATION (  '', ( #215 ), #132 ) ;
#49 =( NAMED_UNIT ( * ) PLANE_ANGLE_UNIT ( ) SI_UNIT ( $, .RADIAN. ) );
#50 = CARTESIAN_POINT ( 'NONE',  ( -6.123233995736772199E-17, 2.500000000000000000, 0.000000000000000000 ) ) ;
#51 = PRODUCT ( '59436', '59436', '', ( #115 ) ) ;
#52 = CARTESIAN_POINT ( 'NONE',  ( 0.000000000000000000, 0.7500000000000001110, 0.000000000000000000 ) ) ;
#53 = CARTESIAN_POINT ( 'NONE',  ( -7.654042494670956004E-18, 0.000000000000000000, 0.000000000000000000 ) ) ;
#54 = AXIS2_PLACEMENT_3D ( 'NONE', #59, #108, #218 ) ;
#55 = CARTESIAN_POINT ( 'NONE',  ( 0.000000000000000000, 0.1249999999999999029, 0.000000000000000000 ) ) ;
#56 = ADVANCED_FACE ( 'NONE', ( #363 ), #366, .F. ) ;
#57 =( NAMED_UNIT ( * ) PLANE_ANGLE_UNIT ( ) SI_UNIT ( $, .RADIAN. ) );
#58 = CARTESIAN_POINT ( 'NONE',  ( -6.123233995736772199E-17, 2.500000000000000000, 0.000000000000000000 ) ) ;
#59 = CARTESIAN_POINT ( 'NONE',  ( -1.530808498934190893E-17, 0.1249999999999999029, 0.000000000000000000 ) ) ;
#60 = EDGE_CURVE ( 'NONE', #350, #106, #190, .T. ) ;
#61 = PRESENTATION_LAYER_ASSIGNMENT (  '', '', ( #18 ) ) ;
#62 =( GEOMETRIC_REPRESENTATION_CONTEXT ( 3 ) GLOBAL_UNCERTAINTY_ASSIGNED_CONTEXT ( ( #85 ) ) GLOBAL_UNIT_ASSIGNED_CONTEXT ( ( #339, #130, #303 ) ) REPRESENTATION_CONTEXT ( 'NONE', 'WORKASPACE' ) );
#63 = VECTOR ( 'NONE', #239, 39.37007874015748143 ) ;
#64 = FILL_AREA_STYLE ('',( #358 ) ) ;
#65 = ORIENTED_EDGE ( 'NONE', *, *, #212, .F. ) ;
#66 =( GEOMETRIC_REPRESENTATION_CONTEXT ( 3 ) GLOBAL_UNCERTAINTY_ASSIGNED_CONTEXT ( ( #314 ) ) GLOBAL_UNIT_ASSIGNED_CONTEXT ( ( #313, #8, #221 ) ) REPRESENTATION_CONTEXT ( 'NONE', 'WORKASPACE' ) );
#67 = DIRECTION ( 'NONE',  ( -0.000000000000000000, -1.000000000000000000, -0.000000000000000000 ) ) ;
#68 = EDGE_LOOP ( 'NONE', ( #39, #171, #35, #81, #20 ) ) ;
#69 = DIMENSIONAL_EXPONENTS ( 1.000000000000000000, 0.000000000000000000, 0.000000000000000000, 0.000000000000000000, 0.000000000000000000, 0.000000000000000000, 0.000000000000000000 ) ;
#70 = LINE ( 'NONE', #44, #310 ) ;
#71 = ORIENTED_EDGE ( 'NONE', *, *, #34, .T. ) ;
#72 = FILL_AREA_STYLE_COLOUR ( '', #234 ) ;
#73 = CIRCLE ( 'NONE', #281, 0.1249999999999999029 ) ;
#74 = CARTESIAN_POINT ( 'NONE',  ( 1.530808498934190276E-17, 0.1249999999999999029, 0.1249999999999999029 ) ) ;
#75 = EDGE_CURVE ( 'NONE', #117, #324, #348, .T. ) ;
#76 = DIRECTION ( 'NONE',  ( 0.000000000000000000, 0.000000000000000000, -1.000000000000000000 ) ) ;
#77 =( CONVERSION_BASED_UNIT ( 'INCH', #149 ) LENGTH_UNIT ( ) NAMED_UNIT ( #194 ) );
#78 = DIRECTION ( 'NONE',  ( -0.000000000000000000, -1.000000000000000000, -0.000000000000000000 ) ) ;
#79 = DIRECTION ( 'NONE',  ( 0.000000000000000000, 0.000000000000000000, -1.000000000000000000 ) ) ;
#80 = PRESENTATION_LAYER_ASSIGNMENT (  '', '', ( #154 ) ) ;
#81 = ORIENTED_EDGE ( 'NONE', *, *, #277, .F. ) ;
#82 = CARTESIAN_POINT ( 'NONE',  ( 0.000000000000000000, 0.7500000000000001110, -0.1249999999999999029 ) ) ;
#83 = DIRECTION ( 'NONE',  ( -1.000000000000000000, 0.000000000000000000, 0.000000000000000000 ) ) ;
#84 = MECHANICAL_DESIGN_GEOMETRIC_PRESENTATION_REPRESENTATION (  '', ( #155 ), #91 ) ;
#85 = UNCERTAINTY_MEASURE_WITH_UNIT (LENGTH_MEASURE( 1.000000000000000082E-05 ), #339, 'distance_accuracy_value', 'NONE');
#86 = DIMENSIONAL_EXPONENTS ( 1.000000000000000000, 0.000000000000000000, 0.000000000000000000, 0.000000000000000000, 0.000000000000000000, 0.000000000000000000, 0.000000000000000000 ) ;
#87 = MECHANICAL_DESIGN_GEOMETRIC_PRESENTATION_REPRESENTATION (  '', ( #312 ), #62 ) ;
#88 = ORIENTED_EDGE ( 'NONE', *, *, #255, .F. ) ;
#89 = ORIENTED_EDGE ( 'NONE', *, *, #134, .T. ) ;
#90 = AXIS2_PLACEMENT_3D ( 'NONE', #272, #153, #304 ) ;
#91 =( GEOMETRIC_REPRESENTATION_CONTEXT ( 3 ) GLOBAL_UNCERTAINTY_ASSIGNED_CONTEXT ( ( #207 ) ) GLOBAL_UNIT_ASSIGNED_CONTEXT ( ( #77, #24, #181 ) ) REPRESENTATION_CONTEXT ( 'NONE', 'WORKASPACE' ) );
#92 = DIRECTION ( 'NONE',  ( 0.000000000000000000, 0.000000000000000000, -1.000000000000000000 ) ) ;
#93 =( NAMED_UNIT ( * ) SI_UNIT ( $, .STERADIAN. ) SOLID_ANGLE_UNIT ( ) );
#94 = EDGE_LOOP ( 'NONE', ( #225, #320, #257, #278 ) ) ;
#95 = DIRECTION ( 'NONE',  ( -1.574545884618025728E-16, 1.000000000000000000, -0.000000000000000000 ) ) ;
#96 = DIRECTION ( 'NONE',  ( -1.000000000000000000, 0.000000000000000000, 0.000000000000000000 ) ) ;
#97 = PRODUCT_DEFINITION_SHAPE ( 'NONE', 'NONE',  #285 ) ;
#98 =( NAMED_UNIT ( * ) PLANE_ANGLE_UNIT ( ) SI_UNIT ( $, .RADIAN. ) );
#99 = ORIENTED_EDGE ( 'NONE', *, *, #34, .F. ) ;
#100 = ADVANCED_FACE ( 'NONE', ( #142 ), #211, .T. ) ;
#101 = CARTESIAN_POINT ( 'NONE',  ( 0.000000000000000000, 0.000000000000000000, 0.000000000000000000 ) ) ;
#102 = DIRECTION ( 'NONE',  ( -0.000000000000000000, -1.000000000000000000, -0.000000000000000000 ) ) ;
#103 = MECHANICAL_DESIGN_GEOMETRIC_PRESENTATION_REPRESENTATION (  '', ( #154 ), #6 ) ;
#104 = COLOUR_RGB ( '',1.000000000000000000, 0.000000000000000000, 0.000000000000000000 ) ;
#105 = PRESENTATION_STYLE_ASSIGNMENT (( #188 ) ) ;
#106 = VERTEX_POINT ( 'NONE', #147 ) ;
#107 = FILL_AREA_STYLE_COLOUR ( '', #300 ) ;
#108 = DIRECTION ( 'NONE',  ( 0.000000000000000000, 0.000000000000000000, 1.000000000000000000 ) ) ;
#109 = LENGTH_MEASURE_WITH_UNIT ( LENGTH_MEASURE( 0.02539999999999999897 ), #342 );
#110 = MECHANICAL_DESIGN_GEOMETRIC_PRESENTATION_REPRESENTATION (  '', ( #191 ), #196 ) ;
#111 = FACE_OUTER_BOUND ( 'NONE', #131, .T. ) ;
#112 = AXIS2_PLACEMENT_3D ( 'NONE', #58, #249, #83 ) ;
#113 = ORIENTED_EDGE ( 'NONE', *, *, #243, .F. ) ;
#114 =( NAMED_UNIT ( * ) PLANE_ANGLE_UNIT ( ) SI_UNIT ( $, .RADIAN. ) );
#115 = PRODUCT_CONTEXT ( 'NONE', #337, 'mechanical' ) ;
#116 = CARTESIAN_POINT ( 'NONE',  ( 0.000000000000000000, 0.000000000000000000, 0.000000000000000000 ) ) ;
#117 = VERTEX_POINT ( 'NONE', #293 ) ;
#118 =( CONVERSION_BASED_UNIT ( 'INCH', #15 ) LENGTH_UNIT ( ) NAMED_UNIT ( #226 ) );
#119 = AXIS2_PLACEMENT_3D ( 'NONE', #21, #95, #242 ) ;
#120 = VERTEX_POINT ( 'NONE', #269 ) ;
#121 = DIRECTION ( 'NONE',  ( -1.574545884618025728E-16, 1.000000000000000000, -0.000000000000000000 ) ) ;
#122 = ORIENTED_EDGE ( 'NONE', *, *, #357, .F. ) ;
#123 = SURFACE_SIDE_STYLE ('',( #209 ) ) ;
#124 = CARTESIAN_POINT ( 'NONE',  ( 0.1249999999999997641, 2.500000000000000000, 1.530808498934189352E-17 ) ) ;
#125 = CARTESIAN_POINT ( 'NONE',  ( -0.1250000000000000555, 2.500000000000000000, 0.000000000000000000 ) ) ;
#126 = DIRECTION ( 'NONE',  ( -1.574545884618025728E-16, 1.000000000000000000, -0.000000000000000000 ) ) ;
#127 = AXIS2_PLACEMENT_3D ( 'NONE', #50, #121, #333 ) ;
#128 =( NAMED_UNIT ( * ) SI_UNIT ( $, .STERADIAN. ) SOLID_ANGLE_UNIT ( ) );
#129 = CARTESIAN_POINT ( 'NONE',  ( -6.123233995736772199E-17, 2.500000000000000000, 0.000000000000000000 ) ) ;
#130 =( NAMED_UNIT ( * ) PLANE_ANGLE_UNIT ( ) SI_UNIT ( $, .RADIAN. ) );
#131 = EDGE_LOOP ( 'NONE', ( #328, #140 ) ) ;
#132 =( GEOMETRIC_REPRESENTATION_CONTEXT ( 3 ) GLOBAL_UNCERTAINTY_ASSIGNED_CONTEXT ( ( #201 ) ) GLOBAL_UNIT_ASSIGNED_CONTEXT ( ( #202, #341, #367 ) ) REPRESENTATION_CONTEXT ( 'NONE', 'WORKASPACE' ) );
#133 = LENGTH_MEASURE_WITH_UNIT ( LENGTH_MEASURE( 0.02539999999999999897 ), #335 );
#134 = EDGE_CURVE ( 'NONE', #353, #120, #204, .T. ) ;
#135 = CARTESIAN_POINT ( 'NONE',  ( 0.000000000000000000, 0.1249999999999999029, 0.000000000000000000 ) ) ;
#136 = SHAPE_DEFINITION_REPRESENTATION ( #97, #360 ) ;
#137 = SURFACE_STYLE_FILL_AREA ( #43 ) ;
#138 = DIRECTION ( 'NONE',  ( 1.000000000000000000, 0.000000000000000000, 0.000000000000000000 ) ) ;
#139 = EDGE_LOOP ( 'NONE', ( #193, #261, #182, #288 ) ) ;
#140 = ORIENTED_EDGE ( 'NONE', *, *, #75, .F. ) ;
#141 = ORIENTED_EDGE ( 'NONE', *, *, #351, .T. ) ;
#142 = FACE_OUTER_BOUND ( 'NONE', #139, .T. ) ;
#143 = SURFACE_SIDE_STYLE ('',( #137 ) ) ;
#144 = ADVANCED_FACE ( 'NONE', ( #175 ), #370, .F. ) ;
#145 = EDGE_LOOP ( 'NONE', ( #290, #236, #88, #65, #122 ) ) ;
#146 = AXIS2_PLACEMENT_3D ( 'NONE', #273, #126, #167 ) ;
#147 = CARTESIAN_POINT ( 'NONE',  ( -0.1249999999999999029, 0.1249999999999999029, 1.530808498934189968E-17 ) ) ;
#148 = UNCERTAINTY_MEASURE_WITH_UNIT (LENGTH_MEASURE( 1.000000000000000082E-05 ), #251, 'distance_accuracy_value', 'NONE');
#149 = LENGTH_MEASURE_WITH_UNIT ( LENGTH_MEASURE( 0.02539999999999999897 ), #329 );
#150 = CARTESIAN_POINT ( 'NONE',  ( 0.000000000000000000, 0.1249999999999999029, 0.000000000000000000 ) ) ;
#151 = DIRECTION ( 'NONE',  ( -0.000000000000000000, -1.000000000000000000, -0.000000000000000000 ) ) ;
#152 = DIRECTION ( 'NONE',  ( 1.000000000000000000, 0.000000000000000000, -1.224646799147353207E-16 ) ) ;
#153 = DIRECTION ( 'NONE',  ( 0.000000000000000000, 0.000000000000000000, 1.000000000000000000 ) ) ;
#154 = STYLED_ITEM ( 'NONE', ( #36 ), #10 ) ;
#155 = STYLED_ITEM ( 'NONE', ( #336 ), #156 ) ;
#156 = ADVANCED_FACE ( 'NONE', ( #23 ), #306, .T. ) ;
#157 = PRESENTATION_LAYER_ASSIGNMENT (  '', '', ( #215 ) ) ;
#158 = CIRCLE ( 'NONE', #112, 0.1250000000000000000 ) ;
#159 = UNCERTAINTY_MEASURE_WITH_UNIT (LENGTH_MEASURE( 1.000000000000000082E-05 ), #291, 'distance_accuracy_value', 'NONE');
#160 = CIRCLE ( 'NONE', #345, 0.1249999999999999029 ) ;
#161 = PRODUCT_DEFINITION_FORMATION_WITH_SPECIFIED_SOURCE ( 'ANY', '', #51, .NOT_KNOWN. ) ;
#162 = ORIENTED_EDGE ( 'NONE', *, *, #346, .T. ) ;
#163 = SURFACE_SIDE_STYLE ('',( #14 ) ) ;
#164 =( LENGTH_UNIT ( ) NAMED_UNIT ( * ) SI_UNIT ( $, .METRE. ) );
#165 = CARTESIAN_POINT ( 'NONE',  ( 0.1249999999999999167, 0.7499999999999998890, 1.530808498934190276E-17 ) ) ;
#166 = FACE_OUTER_BOUND ( 'NONE', #68, .T. ) ;
#167 = DIRECTION ( 'NONE',  ( -1.000000000000000000, 0.000000000000000000, 0.000000000000000000 ) ) ;
#168 = ADVANCED_FACE ( 'NONE', ( #26 ), #302, .T. ) ;
#169 = DIRECTION ( 'NONE',  ( -0.000000000000000000, -1.000000000000000000, -0.000000000000000000 ) ) ;
#170 = FILL_AREA_STYLE ('',( #235 ) ) ;
#171 = ORIENTED_EDGE ( 'NONE', *, *, #75, .T. ) ;
#172 = DIRECTION ( 'NONE',  ( 1.000000000000000000, 1.574545884618025728E-16, 0.000000000000000000 ) ) ;
#173 = AXIS2_PLACEMENT_3D ( 'NONE', #179, #102, #205 ) ;
#174 = CIRCLE ( 'NONE', #27, 0.1249999999999999029 ) ;
#175 = FACE_OUTER_BOUND ( 'NONE', #195, .T. ) ;
#176 = CARTESIAN_POINT ( 'NONE',  ( -1.530808498934190893E-17, 0.1249999999999999029, 0.000000000000000000 ) ) ;
#177 = PRODUCT_RELATED_PRODUCT_CATEGORY ( 'part', '', ( #51 ) ) ;
#178 = DIRECTION ( 'NONE',  ( 0.000000000000000000, 0.000000000000000000, -1.000000000000000000 ) ) ;
#179 = CARTESIAN_POINT ( 'NONE',  ( 0.000000000000000000, 0.7500000000000001110, 0.000000000000000000 ) ) ;
#180 = DIRECTION ( 'NONE',  ( -1.574545884618025728E-16, 1.000000000000000000, -0.000000000000000000 ) ) ;
#181 =( NAMED_UNIT ( * ) SI_UNIT ( $, .STERADIAN. ) SOLID_ANGLE_UNIT ( ) );
#182 = ORIENTED_EDGE ( 'NONE', *, *, #243, .T. ) ;
#183 = EDGE_CURVE ( 'NONE', #117, #350, #70, .T. ) ;
#184 = DIMENSIONAL_EXPONENTS ( 1.000000000000000000, 0.000000000000000000, 0.000000000000000000, 0.000000000000000000, 0.000000000000000000, 0.000000000000000000, 0.000000000000000000 ) ;
#185 = MANIFOLD_SOLID_BREP ( 'Revolve - Tool Body (Straight Shanked)', #213 ) ;
#186 = MANIFOLD_SOLID_BREP ( 'Revolve - Cutting Edge', #17 ) ;
#187 = AXIS2_PLACEMENT_3D ( 'NONE', #240, #78, #178 ) ;
#188 = SURFACE_STYLE_USAGE ( .BOTH. , #373 ) ;
#189 = AXIS2_PLACEMENT_3D ( 'NONE', #116, #32, #138 ) ;
#190 = CIRCLE ( 'NONE', #46, 0.1249999999999999029 ) ;
#191 = STYLED_ITEM ( 'NONE', ( #361 ), #185 ) ;
#192 = ADVANCED_FACE ( 'NONE', ( #260 ), #228, .T. ) ;
#193 = ORIENTED_EDGE ( 'NONE', *, *, #346, .F. ) ;
#194 = DIMENSIONAL_EXPONENTS ( 1.000000000000000000, 0.000000000000000000, 0.000000000000000000, 0.000000000000000000, 0.000000000000000000, 0.000000000000000000, 0.000000000000000000 ) ;
#195 = EDGE_LOOP ( 'NONE', ( #99, #29 ) ) ;
#196 =( GEOMETRIC_REPRESENTATION_CONTEXT ( 3 ) GLOBAL_UNCERTAINTY_ASSIGNED_CONTEXT ( ( #159 ) ) GLOBAL_UNIT_ASSIGNED_CONTEXT ( ( #291, #98, #93 ) ) REPRESENTATION_CONTEXT ( 'NONE', 'WORKASPACE' ) );
#197 = PRESENTATION_STYLE_ASSIGNMENT (( #316 ) ) ;
#198 = SURFACE_STYLE_FILL_AREA ( #170 ) ;
#199 = ORIENTED_EDGE ( 'NONE', *, *, #229, .T. ) ;
#200 = CARTESIAN_POINT ( 'NONE',  ( 0.1249999999999999306, 2.500000000000000000, 0.000000000000000000 ) ) ;
#201 = UNCERTAINTY_MEASURE_WITH_UNIT (LENGTH_MEASURE( 1.000000000000000082E-05 ), #202, 'distance_accuracy_value', 'NONE');
#202 =( CONVERSION_BASED_UNIT ( 'INCH', #359 ) LENGTH_UNIT ( ) NAMED_UNIT ( #69 ) );
#203 =( CONVERSION_BASED_UNIT ( 'INCH', #292 ) LENGTH_UNIT ( ) NAMED_UNIT ( #86 ) );
#204 = CIRCLE ( 'NONE', #146, 0.1250000000000000000 ) ;
#205 = DIRECTION ( 'NONE',  ( 0.000000000000000000, 0.000000000000000000, -1.000000000000000000 ) ) ;
#206 = SURFACE_STYLE_USAGE ( .BOTH. , #42 ) ;
#207 = UNCERTAINTY_MEASURE_WITH_UNIT (LENGTH_MEASURE( 1.000000000000000082E-05 ), #77, 'distance_accuracy_value', 'NONE');
#208 = DIRECTION ( 'NONE',  ( 0.000000000000000000, 1.000000000000000000, 0.000000000000000000 ) ) ;
#209 = SURFACE_STYLE_FILL_AREA ( #16 ) ;
#210 =( LENGTH_UNIT ( ) NAMED_UNIT ( * ) SI_UNIT ( $, .METRE. ) );
#211 = CYLINDRICAL_SURFACE ( 'NONE', #127, 0.1249999999999998335 ) ;
#212 = EDGE_CURVE ( 'NONE', #296, #262, #160, .T. ) ;
#213 = CLOSED_SHELL ( 'NONE', ( #168, #144, #100, #56 ) ) ;
#214 = AXIS2_PLACEMENT_3D ( 'NONE', #276, #327, #245 ) ;
#215 = STYLED_ITEM ( 'NONE', ( #265 ), #311 ) ;
#216 = DIRECTION ( 'NONE',  ( 0.000000000000000000, -0.000000000000000000, 1.000000000000000000 ) ) ;
#217 = FILL_AREA_STYLE ('',( #107 ) ) ;
#218 = DIRECTION ( 'NONE',  ( 1.000000000000000000, 0.000000000000000000, 0.000000000000000000 ) ) ;
#219 = EDGE_LOOP ( 'NONE', ( #89, #199 ) ) ;
#220 = COLOUR_RGB ( '',1.000000000000000000, 0.000000000000000000, 0.000000000000000000 ) ;
#221 =( NAMED_UNIT ( * ) SI_UNIT ( $, .STERADIAN. ) SOLID_ANGLE_UNIT ( ) );
#222 = SURFACE_STYLE_USAGE ( .BOTH. , #143 ) ;
#223 = EDGE_CURVE ( 'NONE', #324, #117, #368, .T. ) ;
#224 = MECHANICAL_DESIGN_GEOMETRIC_PRESENTATION_REPRESENTATION (  '', ( #317 ), #66 ) ;
#225 = ORIENTED_EDGE ( 'NONE', *, *, #351, .F. ) ;
#226 = DIMENSIONAL_EXPONENTS ( 1.000000000000000000, 0.000000000000000000, 0.000000000000000000, 0.000000000000000000, 0.000000000000000000, 0.000000000000000000, 0.000000000000000000 ) ;
#227 = ORIENTED_EDGE ( 'NONE', *, *, #255, .T. ) ;
#228 = CYLINDRICAL_SURFACE ( 'NONE', #187, 0.1249999999999999029 ) ;
#229 = EDGE_CURVE ( 'NONE', #120, #353, #158, .T. ) ;
#230 = CARTESIAN_POINT ( 'NONE',  ( 0.000000000000000000, 0.000000000000000000, -0.1249999999999999029 ) ) ;
#231 =( NAMED_UNIT ( * ) SI_UNIT ( $, .STERADIAN. ) SOLID_ANGLE_UNIT ( ) );
#232 = CARTESIAN_POINT ( 'NONE',  ( -0.1249999999999994726, 0.7499999999999998890, 0.000000000000000000 ) ) ;
#233 = AXIS2_PLACEMENT_3D ( 'NONE', #101, #4, #79 ) ;
#234 = COLOUR_RGB ( '',0.7921568627450980005, 0.8196078431372548767, 0.9333333333333333481 ) ;
#235 = FILL_AREA_STYLE_COLOUR ( '', #259 ) ;
#236 = ORIENTED_EDGE ( 'NONE', *, *, #183, .T. ) ;
#237 = CYLINDRICAL_SURFACE ( 'NONE', #233, 0.1249999999999999029 ) ;
#238 = PRODUCT_DEFINITION_CONTEXT ( 'detailed design', #284, 'design' ) ;
#239 = DIRECTION ( 'NONE',  ( -1.574545884618025728E-16, 1.000000000000000000, -0.000000000000000000 ) ) ;
#240 = CARTESIAN_POINT ( 'NONE',  ( 0.000000000000000000, 0.000000000000000000, 0.000000000000000000 ) ) ;
#241 = LINE ( 'NONE', #230, #3 ) ;
#242 = DIRECTION ( 'NONE',  ( -1.000000000000000000, 0.000000000000000000, 0.000000000000000000 ) ) ;
#243 = EDGE_CURVE ( 'NONE', #268, #353, #309, .T. ) ;
#244 = AXIS2_PLACEMENT_3D ( 'NONE', #129, #246, #7 ) ;
#245 = DIRECTION ( 'NONE',  ( -1.000000000000000000, -1.574545884618025728E-16, 0.000000000000000000 ) ) ;
#246 = DIRECTION ( 'NONE',  ( -1.574545884618025728E-16, 1.000000000000000000, -0.000000000000000000 ) ) ;
#247 = DIRECTION ( 'NONE',  ( -1.574545884618025728E-16, 1.000000000000000000, -0.000000000000000000 ) ) ;
#248 = PRESENTATION_LAYER_ASSIGNMENT (  '', '', ( #312 ) ) ;
#249 = DIRECTION ( 'NONE',  ( -1.574545884618025728E-16, 1.000000000000000000, -0.000000000000000000 ) ) ;
#250 = ADVANCED_FACE ( 'NONE', ( #279 ), #283, .T. ) ;
#251 =( CONVERSION_BASED_UNIT ( 'INCH', #133 ) LENGTH_UNIT ( ) NAMED_UNIT ( #321 ) );
#252 = CARTESIAN_POINT ( 'NONE',  ( -1.530808498934190893E-17, 0.1249999999999999029, 0.000000000000000000 ) ) ;
#253 = CIRCLE ( 'NONE', #2, 0.1249999999999999029 ) ;
#254 = CARTESIAN_POINT ( 'NONE',  ( 0.1249999999999999029, 0.1249999999999999029, 0.000000000000000000 ) ) ;
#255 = EDGE_CURVE ( 'NONE', #262, #350, #253, .T. ) ;
#256 =( LENGTH_UNIT ( ) NAMED_UNIT ( * ) SI_UNIT ( $, .METRE. ) );
#257 = ORIENTED_EDGE ( 'NONE', *, *, #212, .T. ) ;
#258 = AXIS2_PLACEMENT_3D ( 'NONE', #22, #180, #307 ) ;
#259 = COLOUR_RGB ( '',0.7921568627450980005, 0.8196078431372548767, 0.9333333333333333481 ) ;
#260 = FACE_OUTER_BOUND ( 'NONE', #145, .T. ) ;
#261 = ORIENTED_EDGE ( 'NONE', *, *, #319, .T. ) ;
#262 = VERTEX_POINT ( 'NONE', #254 ) ;
#263 = DIRECTION ( 'NONE',  ( -0.000000000000000000, -1.000000000000000000, -0.000000000000000000 ) ) ;
#264 = SURFACE_STYLE_FILL_AREA ( #355 ) ;
#265 = PRESENTATION_STYLE_ASSIGNMENT (( #222 ) ) ;
#266 = PRESENTATION_LAYER_ASSIGNMENT (  '', '', ( #317 ) ) ;
#267 = SURFACE_SIDE_STYLE ('',( #198 ) ) ;
#268 = VERTEX_POINT ( 'NONE', #232 ) ;
#269 = CARTESIAN_POINT ( 'NONE',  ( 0.1249999999999999306, 2.500000000000000000, 1.530808498934190276E-17 ) ) ;
#270 = CARTESIAN_POINT ( 'NONE',  ( 0.000000000000000000, 0.7500000000000001110, 0.000000000000000000 ) ) ;
#271 =( NAMED_UNIT ( * ) SI_UNIT ( $, .STERADIAN. ) SOLID_ANGLE_UNIT ( ) );
#272 = CARTESIAN_POINT ( 'NONE',  ( -1.530808498934190893E-17, 0.1249999999999999029, 0.000000000000000000 ) ) ;
#273 = CARTESIAN_POINT ( 'NONE',  ( -6.123233995736772199E-17, 2.500000000000000000, 0.000000000000000000 ) ) ;
#274 = DIRECTION ( 'NONE',  ( 0.000000000000000000, 0.000000000000000000, -1.000000000000000000 ) ) ;
#275 = AXIS2_PLACEMENT_3D ( 'NONE', #52, #151, #274 ) ;
#276 = CARTESIAN_POINT ( 'NONE',  ( 2.143131898507868297E-16, 0.7500000000000001110, 0.000000000000000000 ) ) ;
#277 = EDGE_CURVE ( 'NONE', #106, #296, #174, .T. ) ;
#278 = ORIENTED_EDGE ( 'NONE', *, *, #299, .T. ) ;
#279 = FACE_OUTER_BOUND ( 'NONE', #94, .T. ) ;
#280 = CIRCLE ( 'NONE', #347, 0.1249999999999999029 ) ;
#281 = AXIS2_PLACEMENT_3D ( 'NONE', #252, #315, #96 ) ;
#282 = AXIS2_PLACEMENT_3D ( 'NONE', #270, #208, #216 ) ;
#283 = SPHERICAL_SURFACE ( 'NONE', #54, 0.1249999999999999029 ) ;
#284 = APPLICATION_CONTEXT ( 'automotive_design' ) ;
#285 = PRODUCT_DEFINITION ( 'UNKNOWN', '', #161, #238 ) ;
#286 = PLANE ( 'NONE',  #282 ) ;
#287 = EDGE_LOOP ( 'NONE', ( #71, #162, #9, #113 ) ) ;
#288 = ORIENTED_EDGE ( 'NONE', *, *, #229, .F. ) ;
#289 = DIMENSIONAL_EXPONENTS ( 1.000000000000000000, 0.000000000000000000, 0.000000000000000000, 0.000000000000000000, 0.000000000000000000, 0.000000000000000000, 0.000000000000000000 ) ;
#290 = ORIENTED_EDGE ( 'NONE', *, *, #223, .T. ) ;
#291 =( CONVERSION_BASED_UNIT ( 'INCH', #19 ) LENGTH_UNIT ( ) NAMED_UNIT ( #289 ) );
#292 = LENGTH_MEASURE_WITH_UNIT ( LENGTH_MEASURE( 0.02539999999999999897 ), #13 );
#293 = CARTESIAN_POINT ( 'NONE',  ( 1.530808498934190276E-17, 0.7500000000000001110, 0.1249999999999999029 ) ) ;
#294 = FILL_AREA_STYLE_COLOUR ( '', #297 ) ;
#295 = SURFACE_STYLE_USAGE ( .BOTH. , #267 ) ;
#296 = VERTEX_POINT ( 'NONE', #318 ) ;
#297 = COLOUR_RGB ( '',1.000000000000000000, 0.000000000000000000, 0.000000000000000000 ) ;
#298 = LINE ( 'NONE', #124, #63 ) ;
#299 = EDGE_CURVE ( 'NONE', #262, #322, #73, .T. ) ;
#300 = COLOUR_RGB ( '',1.000000000000000000, 0.000000000000000000, 0.000000000000000000 ) ;
#301 = SURFACE_STYLE_FILL_AREA ( #325 ) ;
#302 = CYLINDRICAL_SURFACE ( 'NONE', #244, 0.1249999999999998335 ) ;
#303 =( NAMED_UNIT ( * ) SI_UNIT ( $, .STERADIAN. ) SOLID_ANGLE_UNIT ( ) );
#304 = DIRECTION ( 'NONE',  ( 1.000000000000000000, 0.000000000000000000, 0.000000000000000000 ) ) ;
#305 = UNCERTAINTY_MEASURE_WITH_UNIT (LENGTH_MEASURE( 1.000000000000000082E-05 ), #118, 'distance_accuracy_value', 'NONE');
#306 = SPHERICAL_SURFACE ( 'NONE', #90, 0.1249999999999999029 ) ;
#307 = DIRECTION ( 'NONE',  ( -1.000000000000000000, 0.000000000000000000, 0.000000000000000000 ) ) ;
#308 = CIRCLE ( 'NONE', #119, 0.1249999999999996947 ) ;
#309 = LINE ( 'NONE', #28, #37 ) ;
#310 = VECTOR ( 'NONE', #67, 39.37007874015748143 ) ;
#311 = ADVANCED_FACE ( 'NONE', ( #111 ), #286, .T. ) ;
#312 = STYLED_ITEM ( 'NONE', ( #25 ), #192 ) ;
#313 =( CONVERSION_BASED_UNIT ( 'INCH', #109 ) LENGTH_UNIT ( ) NAMED_UNIT ( #184 ) );
#314 = UNCERTAINTY_MEASURE_WITH_UNIT (LENGTH_MEASURE( 1.000000000000000082E-05 ), #313, 'distance_accuracy_value', 'NONE');
#315 = DIRECTION ( 'NONE',  ( 0.000000000000000000, 0.000000000000000000, -1.000000000000000000 ) ) ;
#316 = SURFACE_STYLE_USAGE ( .BOTH. , #11 ) ;
#317 = STYLED_ITEM ( 'NONE', ( #105 ), #250 ) ;
#318 = CARTESIAN_POINT ( 'NONE',  ( 0.000000000000000000, 0.1249999999999999029, -0.1249999999999999029 ) ) ;
#319 = EDGE_CURVE ( 'NONE', #354, #268, #1, .T. ) ;
#320 = ORIENTED_EDGE ( 'NONE', *, *, #277, .T. ) ;
#321 = DIMENSIONAL_EXPONENTS ( 1.000000000000000000, 0.000000000000000000, 0.000000000000000000, 0.000000000000000000, 0.000000000000000000, 0.000000000000000000, 0.000000000000000000 ) ;
#322 = VERTEX_POINT ( 'NONE', #53 ) ;
#323 = FILL_AREA_STYLE_COLOUR ( '', #104 ) ;
#324 = VERTEX_POINT ( 'NONE', #82 ) ;
#325 = FILL_AREA_STYLE ('',( #72 ) ) ;
#326 = ORIENTED_EDGE ( 'NONE', *, *, #299, .F. ) ;
#327 = DIRECTION ( 'NONE',  ( -1.574545884618025728E-16, 1.000000000000000000, 0.000000000000000000 ) ) ;
#328 = ORIENTED_EDGE ( 'NONE', *, *, #223, .F. ) ;
#329 =( LENGTH_UNIT ( ) NAMED_UNIT ( * ) SI_UNIT ( $, .METRE. ) );
#330 =( GEOMETRIC_REPRESENTATION_CONTEXT ( 3 ) GLOBAL_UNCERTAINTY_ASSIGNED_CONTEXT ( ( #305 ) ) GLOBAL_UNIT_ASSIGNED_CONTEXT ( ( #118, #114, #231 ) ) REPRESENTATION_CONTEXT ( 'NONE', 'WORKASPACE' ) );
#331 =( GEOMETRIC_REPRESENTATION_CONTEXT ( 3 ) GLOBAL_UNCERTAINTY_ASSIGNED_CONTEXT ( ( #148 ) ) GLOBAL_UNIT_ASSIGNED_CONTEXT ( ( #251, #57, #128 ) ) REPRESENTATION_CONTEXT ( 'NONE', 'WORKASPACE' ) );
#332 = DIRECTION ( 'NONE',  ( -0.000000000000000000, -1.000000000000000000, -0.000000000000000000 ) ) ;
#333 = DIRECTION ( 'NONE',  ( -1.000000000000000000, 0.000000000000000000, 0.000000000000000000 ) ) ;
#334 = DIRECTION ( 'NONE',  ( 1.224646799147353207E-16, -0.000000000000000000, 1.000000000000000000 ) ) ;
#335 =( LENGTH_UNIT ( ) NAMED_UNIT ( * ) SI_UNIT ( $, .METRE. ) );
#336 = PRESENTATION_STYLE_ASSIGNMENT (( #369 ) ) ;
#337 = APPLICATION_CONTEXT ( 'automotive_design' ) ;
#338 = DIRECTION ( 'NONE',  ( 1.574545884618025728E-16, -1.000000000000000000, 0.000000000000000000 ) ) ;
#339 =( CONVERSION_BASED_UNIT ( 'INCH', #371 ) LENGTH_UNIT ( ) NAMED_UNIT ( #40 ) );
#340 = AXIS2_PLACEMENT_3D ( 'NONE', #200, #338, #172 ) ;
#341 =( NAMED_UNIT ( * ) PLANE_ANGLE_UNIT ( ) SI_UNIT ( $, .RADIAN. ) );
#342 =( LENGTH_UNIT ( ) NAMED_UNIT ( * ) SI_UNIT ( $, .METRE. ) );
#343 = DIRECTION ( 'NONE',  ( -0.000000000000000000, -1.000000000000000000, -0.000000000000000000 ) ) ;
#344 = SURFACE_STYLE_FILL_AREA ( #217 ) ;
#345 = AXIS2_PLACEMENT_3D ( 'NONE', #364, #332, #76 ) ;
#346 = EDGE_CURVE ( 'NONE', #354, #120, #298, .T. ) ;
#347 = AXIS2_PLACEMENT_3D ( 'NONE', #176, #334, #152 ) ;
#348 = CIRCLE ( 'NONE', #173, 0.1249999999999999029 ) ;
#349 = MECHANICAL_DESIGN_GEOMETRIC_PRESENTATION_REPRESENTATION (  '', ( #18 ), #330 ) ;
#350 = VERTEX_POINT ( 'NONE', #74 ) ;
#351 = EDGE_CURVE ( 'NONE', #106, #322, #280, .T. ) ;
#352 = APPLICATION_PROTOCOL_DEFINITION ( 'draft international standard', 'automotive_design', 1998, #284 ) ;
#353 = VERTEX_POINT ( 'NONE', #125 ) ;
#354 = VERTEX_POINT ( 'NONE', #165 ) ;
#355 = FILL_AREA_STYLE ('',( #323 ) ) ;
#356 = COLOUR_RGB ( '',1.000000000000000000, 0.000000000000000000, 0.000000000000000000 ) ;
#357 = EDGE_CURVE ( 'NONE', #324, #296, #241, .T. ) ;
#358 = FILL_AREA_STYLE_COLOUR ( '', #356 ) ;
#359 = LENGTH_MEASURE_WITH_UNIT ( LENGTH_MEASURE( 0.02539999999999999897 ), #256 );
#360 = ADVANCED_BREP_SHAPE_REPRESENTATION ( '59436', ( #186, #185, #189 ), #331 ) ;
#361 = PRESENTATION_STYLE_ASSIGNMENT (( #295 ) ) ;
#362 = SURFACE_STYLE_USAGE ( .BOTH. , #163 ) ;
#363 = FACE_OUTER_BOUND ( 'NONE', #219, .T. ) ;
#364 = CARTESIAN_POINT ( 'NONE',  ( 0.000000000000000000, 0.1249999999999999029, 0.000000000000000000 ) ) ;
#365 = DIRECTION ( 'NONE',  ( -0.000000000000000000, -1.000000000000000000, -0.000000000000000000 ) ) ;
#366 = PLANE ( 'NONE',  #340 ) ;
#367 =( NAMED_UNIT ( * ) SI_UNIT ( $, .STERADIAN. ) SOLID_ANGLE_UNIT ( ) );
#368 = CIRCLE ( 'NONE', #275, 0.1249999999999999029 ) ;
#369 = SURFACE_STYLE_USAGE ( .BOTH. , #123 ) ;
#370 = PLANE ( 'NONE',  #214 ) ;
#371 = LENGTH_MEASURE_WITH_UNIT ( LENGTH_MEASURE( 0.02539999999999999897 ), #210 );
#372 = EDGE_LOOP ( 'NONE', ( #38, #141, #326, #227 ) ) ;
#373 = SURFACE_SIDE_STYLE ('',( #344 ) ) ;
ENDSEC;
END-ISO-10303-21;
