ISO-10303-21;
HEADER;
FILE_DESCRIPTION (( 'STEP AP214' ),
    '1' );
FILE_NAME ('49360.STEP',
    '2023-06-30T22:01:52',
    ( '' ),
    ( '' ),
    'SwSTEP 2.0',
    'SolidWorks 2023',
    '' );
FILE_SCHEMA (( 'AUTOMOTIVE_DESIGN' ));
ENDSEC;

DATA;
#1 = APPLICATION_PROTOCOL_DEFINITION ( 'draft international standard', 'automotive_design', 1998, #135 ) ;
#2 = AXIS2_PLACEMENT_3D ( 'NONE', #330, #323, #123 ) ;
#3 = PLANE ( 'NONE',  #94 ) ;
#4 = DIRECTION ( 'NONE',  ( -0.000000000000000000, -1.000000000000000000, -0.000000000000000000 ) ) ;
#5 =( NAMED_UNIT ( * ) SI_UNIT ( $, .STERADIAN. ) SOLID_ANGLE_UNIT ( ) );
#6 = LENGTH_MEASURE_WITH_UNIT ( LENGTH_MEASURE( 0.02539999999999999897 ), #189 );
#7 = CIRCLE ( 'NONE', #244, 0.3124999999999998335 ) ;
#8 = ORIENTED_EDGE ( 'NONE', *, *, #258, .F. ) ;
#9 =( GEOMETRIC_REPRESENTATION_CONTEXT ( 3 ) GLOBAL_UNCERTAINTY_ASSIGNED_CONTEXT ( ( #282 ) ) GLOBAL_UNIT_ASSIGNED_CONTEXT ( ( #72, #304, #240 ) ) REPRESENTATION_CONTEXT ( 'NONE', 'WORKASPACE' ) );
#10 = AXIS2_PLACEMENT_3D ( 'NONE', #210, #11, #199 ) ;
#11 = DIRECTION ( 'NONE',  ( 0.000000000000000000, 0.000000000000000000, 1.000000000000000000 ) ) ;
#12 = APPLICATION_CONTEXT ( 'automotive_design' ) ;
#13 = CARTESIAN_POINT ( 'NONE',  ( -3.827021247335478926E-17, 0.3125000000000000000, 0.000000000000000000 ) ) ;
#14 =( NAMED_UNIT ( * ) SI_UNIT ( $, .STERADIAN. ) SOLID_ANGLE_UNIT ( ) );
#15 = ORIENTED_EDGE ( 'NONE', *, *, #112, .F. ) ;
#16 = DIMENSIONAL_EXPONENTS ( 1.000000000000000000, 0.000000000000000000, 0.000000000000000000, 0.000000000000000000, 0.000000000000000000, 0.000000000000000000, 0.000000000000000000 ) ;
#17 = LINE ( 'NONE', #20, #365 ) ;
#18 = SURFACE_STYLE_USAGE ( .BOTH. , #46 ) ;
#19 = ORIENTED_EDGE ( 'NONE', *, *, #131, .T. ) ;
#20 = CARTESIAN_POINT ( 'NONE',  ( 0.3124999999999996669, 4.000000000000000000, 3.827021247335475845E-17 ) ) ;
#21 = VECTOR ( 'NONE', #366, 39.37007874015748143 ) ;
#22 = EDGE_CURVE ( 'NONE', #344, #280, #217, .T. ) ;
#23 = UNCERTAINTY_MEASURE_WITH_UNIT (LENGTH_MEASURE( 1.000000000000000082E-05 ), #150, 'distance_accuracy_value', 'NONE');
#24 = FACE_OUTER_BOUND ( 'NONE', #212, .T. ) ;
#25 = STYLED_ITEM ( 'NONE', ( #334 ), #317 ) ;
#26 = ORIENTED_EDGE ( 'NONE', *, *, #99, .F. ) ;
#27 = EDGE_LOOP ( 'NONE', ( #156, #19, #79, #15 ) ) ;
#28 = DIRECTION ( 'NONE',  ( -0.000000000000000000, -1.000000000000000000, -0.000000000000000000 ) ) ;
#29 =( NAMED_UNIT ( * ) SI_UNIT ( $, .STERADIAN. ) SOLID_ANGLE_UNIT ( ) );
#30 = CARTESIAN_POINT ( 'NONE',  ( 0.000000000000000000, 0.000000000000000000, 0.000000000000000000 ) ) ;
#31 = LENGTH_MEASURE_WITH_UNIT ( LENGTH_MEASURE( 0.02539999999999999897 ), #372 );
#32 = COLOUR_RGB ( '',1.000000000000000000, 0.000000000000000000, 0.000000000000000000 ) ;
#33 = DIRECTION ( 'NONE',  ( -1.000000000000000000, 0.000000000000000000, 0.000000000000000000 ) ) ;
#34 = SURFACE_STYLE_USAGE ( .BOTH. , #115 ) ;
#35 =( NAMED_UNIT ( * ) PLANE_ANGLE_UNIT ( ) SI_UNIT ( $, .RADIAN. ) );
#36 = ORIENTED_EDGE ( 'NONE', *, *, #320, .T. ) ;
#37 =( LENGTH_UNIT ( ) NAMED_UNIT ( * ) SI_UNIT ( $, .METRE. ) );
#38 = PRESENTATION_LAYER_ASSIGNMENT (  '', '', ( #288 ) ) ;
#39 = AXIS2_PLACEMENT_3D ( 'NONE', #360, #205, #341 ) ;
#40 = PRESENTATION_STYLE_ASSIGNMENT (( #155 ) ) ;
#41 = EDGE_CURVE ( 'NONE', #204, #162, #319, .T. ) ;
#42 = CYLINDRICAL_SURFACE ( 'NONE', #88, 0.3124999999999997224 ) ;
#43 = ORIENTED_EDGE ( 'NONE', *, *, #169, .T. ) ;
#44 = LENGTH_MEASURE_WITH_UNIT ( LENGTH_MEASURE( 0.02539999999999999897 ), #277 );
#45 = PLANE ( 'NONE',  #295 ) ;
#46 = SURFACE_SIDE_STYLE ('',( #138 ) ) ;
#47 = FILL_AREA_STYLE ('',( #269 ) ) ;
#48 = ADVANCED_BREP_SHAPE_REPRESENTATION ( '49360', ( #270, #139, #178 ), #126 ) ;
#49 = SURFACE_SIDE_STYLE ('',( #182 ) ) ;
#50 =( GEOMETRIC_REPRESENTATION_CONTEXT ( 3 ) GLOBAL_UNCERTAINTY_ASSIGNED_CONTEXT ( ( #213 ) ) GLOBAL_UNIT_ASSIGNED_CONTEXT ( ( #168, #142, #234 ) ) REPRESENTATION_CONTEXT ( 'NONE', 'WORKASPACE' ) );
#51 = COLOUR_RGB ( '',1.000000000000000000, 0.000000000000000000, 0.000000000000000000 ) ;
#52 = FACE_OUTER_BOUND ( 'NONE', #267, .T. ) ;
#53 = VERTEX_POINT ( 'NONE', #57 ) ;
#54 = DIRECTION ( 'NONE',  ( 0.000000000000000000, 0.000000000000000000, -1.000000000000000000 ) ) ;
#55 = ORIENTED_EDGE ( 'NONE', *, *, #22, .F. ) ;
#56 = CYLINDRICAL_SURFACE ( 'NONE', #227, 0.3124999999999998890 ) ;
#57 = CARTESIAN_POINT ( 'NONE',  ( -1.913510623667739463E-17, 0.000000000000000000, 0.000000000000000000 ) ) ;
#58 = FILL_AREA_STYLE_COLOUR ( '', #196 ) ;
#59 = ORIENTED_EDGE ( 'NONE', *, *, #131, .F. ) ;
#60 = FILL_AREA_STYLE ('',( #254 ) ) ;
#61 = PRESENTATION_LAYER_ASSIGNMENT (  '', '', ( #68 ) ) ;
#62 =( GEOMETRIC_REPRESENTATION_CONTEXT ( 3 ) GLOBAL_UNCERTAINTY_ASSIGNED_CONTEXT ( ( #247 ) ) GLOBAL_UNIT_ASSIGNED_CONTEXT ( ( #170, #349, #5 ) ) REPRESENTATION_CONTEXT ( 'NONE', 'WORKASPACE' ) );
#63 = PLANE ( 'NONE',  #322 ) ;
#64 = DIRECTION ( 'NONE',  ( 0.000000000000000000, 0.000000000000000000, -1.000000000000000000 ) ) ;
#65 = ADVANCED_FACE ( 'NONE', ( #251 ), #307, .T. ) ;
#66 = CARTESIAN_POINT ( 'NONE',  ( 3.827021247335476461E-17, 1.625000000000000000, 0.3124999999999998335 ) ) ;
#67 = PRESENTATION_STYLE_ASSIGNMENT (( #195 ) ) ;
#68 = STYLED_ITEM ( 'NONE', ( #219 ), #124 ) ;
#69 = ADVANCED_FACE ( 'NONE', ( #52 ), #42, .T. ) ;
#70 = PRESENTATION_LAYER_ASSIGNMENT (  '', '', ( #25 ) ) ;
#71 =( LENGTH_UNIT ( ) NAMED_UNIT ( * ) SI_UNIT ( $, .METRE. ) );
#72 =( CONVERSION_BASED_UNIT ( 'INCH', #175 ) LENGTH_UNIT ( ) NAMED_UNIT ( #183 ) );
#73 = EDGE_CURVE ( 'NONE', #250, #276, #214, .T. ) ;
#74 = CIRCLE ( 'NONE', #253, 0.3124999999999999445 ) ;
#75 = FACE_OUTER_BOUND ( 'NONE', #113, .T. ) ;
#76 = DIRECTION ( 'NONE',  ( -1.000000000000000000, 0.000000000000000000, 0.000000000000000000 ) ) ;
#77 = AXIS2_PLACEMENT_3D ( 'NONE', #333, #338, #76 ) ;
#78 = UNCERTAINTY_MEASURE_WITH_UNIT (LENGTH_MEASURE( 1.000000000000000082E-05 ), #209, 'distance_accuracy_value', 'NONE');
#79 = ORIENTED_EDGE ( 'NONE', *, *, #73, .T. ) ;
#80 = ADVANCED_FACE ( 'NONE', ( #359 ), #45, .F. ) ;
#81 = SURFACE_STYLE_USAGE ( .BOTH. , #284 ) ;
#82 = MECHANICAL_DESIGN_GEOMETRIC_PRESENTATION_REPRESENTATION (  '', ( #191 ), #114 ) ;
#83 = AXIS2_PLACEMENT_3D ( 'NONE', #309, #275, #174 ) ;
#84 = ORIENTED_EDGE ( 'NONE', *, *, #186, .F. ) ;
#85 = DIRECTION ( 'NONE',  ( -0.000000000000000000, -1.000000000000000000, -0.000000000000000000 ) ) ;
#86 = SURFACE_STYLE_FILL_AREA ( #362 ) ;
#87 = LENGTH_MEASURE_WITH_UNIT ( LENGTH_MEASURE( 0.02539999999999999897 ), #92 );
#88 = AXIS2_PLACEMENT_3D ( 'NONE', #273, #158, #166 ) ;
#89 = AXIS2_PLACEMENT_3D ( 'NONE', #105, #348, #54 ) ;
#90 = CARTESIAN_POINT ( 'NONE',  ( 2.296212748401286986E-16, 1.625000000000000000, 0.000000000000000000 ) ) ;
#91 = CARTESIAN_POINT ( 'NONE',  ( 2.296212748401286986E-16, 1.625000000000000000, 0.000000000000000000 ) ) ;
#92 =( LENGTH_UNIT ( ) NAMED_UNIT ( * ) SI_UNIT ( $, .METRE. ) );
#93 = CARTESIAN_POINT ( 'NONE',  ( 0.000000000000000000, 0.000000000000000000, 0.000000000000000000 ) ) ;
#94 = AXIS2_PLACEMENT_3D ( 'NONE', #90, #231, #197 ) ;
#95 = CIRCLE ( 'NONE', #77, 0.3124999999999996114 ) ;
#96 = VERTEX_POINT ( 'NONE', #305 ) ;
#97 = DIRECTION ( 'NONE',  ( -1.224646799147353207E-16, 1.000000000000000000, -0.000000000000000000 ) ) ;
#98 = PRESENTATION_STYLE_ASSIGNMENT (( #18 ) ) ;
#99 = EDGE_CURVE ( 'NONE', #188, #53, #354, .T. ) ;
#100 = VERTEX_POINT ( 'NONE', #221 ) ;
#101 = DIRECTION ( 'NONE',  ( 0.000000000000000000, 0.000000000000000000, 1.000000000000000000 ) ) ;
#102 = CYLINDRICAL_SURFACE ( 'NONE', #39, 0.3124999999999998890 ) ;
#103 = AXIS2_PLACEMENT_3D ( 'NONE', #293, #119, #172 ) ;
#104 = EDGE_LOOP ( 'NONE', ( #26, #242, #36, #43 ) ) ;
#105 = CARTESIAN_POINT ( 'NONE',  ( 0.000000000000000000, 0.3125000000000000555, 0.000000000000000000 ) ) ;
#106 = PRESENTATION_STYLE_ASSIGNMENT (( #129 ) ) ;
#107 = ORIENTED_EDGE ( 'NONE', *, *, #169, .F. ) ;
#108 = MECHANICAL_DESIGN_GEOMETRIC_PRESENTATION_REPRESENTATION (  '', ( #285 ), #9 ) ;
#109 = UNCERTAINTY_MEASURE_WITH_UNIT (LENGTH_MEASURE( 1.000000000000000082E-05 ), #120, 'distance_accuracy_value', 'NONE');
#110 = CARTESIAN_POINT ( 'NONE',  ( 0.3124999999999998335, 4.000000000000000000, 0.000000000000000000 ) ) ;
#111 = DIMENSIONAL_EXPONENTS ( 1.000000000000000000, 0.000000000000000000, 0.000000000000000000, 0.000000000000000000, 0.000000000000000000, 0.000000000000000000, 0.000000000000000000 ) ;
#112 = EDGE_CURVE ( 'NONE', #201, #276, #222, .T. ) ;
#113 = EDGE_LOOP ( 'NONE', ( #145, #161, #152, #233, #55 ) ) ;
#114 =( GEOMETRIC_REPRESENTATION_CONTEXT ( 3 ) GLOBAL_UNCERTAINTY_ASSIGNED_CONTEXT ( ( #78 ) ) GLOBAL_UNIT_ASSIGNED_CONTEXT ( ( #209, #238, #134 ) ) REPRESENTATION_CONTEXT ( 'NONE', 'WORKASPACE' ) );
#115 = SURFACE_SIDE_STYLE ('',( #86 ) ) ;
#116 = DIRECTION ( 'NONE',  ( 0.000000000000000000, 0.000000000000000000, -1.000000000000000000 ) ) ;
#117 = EDGE_CURVE ( 'NONE', #204, #344, #7, .T. ) ;
#118 = SURFACE_STYLE_FILL_AREA ( #202 ) ;
#119 = DIRECTION ( 'NONE',  ( -0.000000000000000000, -1.000000000000000000, -0.000000000000000000 ) ) ;
#120 =( CONVERSION_BASED_UNIT ( 'INCH', #31 ) LENGTH_UNIT ( ) NAMED_UNIT ( #157 ) );
#121 = CYLINDRICAL_SURFACE ( 'NONE', #318, 0.3124999999999997224 ) ;
#122 = CARTESIAN_POINT ( 'NONE',  ( 0.000000000000000000, 0.3125000000000000555, 0.000000000000000000 ) ) ;
#123 = DIRECTION ( 'NONE',  ( -1.000000000000000000, 0.000000000000000000, 0.000000000000000000 ) ) ;
#124 = ADVANCED_FACE ( 'NONE', ( #24 ), #56, .T. ) ;
#125 = STYLED_ITEM ( 'NONE', ( #98 ), #65 ) ;
#126 =( GEOMETRIC_REPRESENTATION_CONTEXT ( 3 ) GLOBAL_UNCERTAINTY_ASSIGNED_CONTEXT ( ( #109 ) ) GLOBAL_UNIT_ASSIGNED_CONTEXT ( ( #120, #140, #29 ) ) REPRESENTATION_CONTEXT ( 'NONE', 'WORKASPACE' ) );
#127 = ORIENTED_EDGE ( 'NONE', *, *, #73, .F. ) ;
#128 = CARTESIAN_POINT ( 'NONE',  ( -0.3124999999999993894, 1.625000000000000000, 0.000000000000000000 ) ) ;
#129 = SURFACE_STYLE_USAGE ( .BOTH. , #246 ) ;
#130 = ORIENTED_EDGE ( 'NONE', *, *, #314, .T. ) ;
#131 = EDGE_CURVE ( 'NONE', #96, #250, #283, .T. ) ;
#132 = SURFACE_STYLE_FILL_AREA ( #355 ) ;
#133 = EDGE_LOOP ( 'NONE', ( #8, #59 ) ) ;
#134 =( NAMED_UNIT ( * ) SI_UNIT ( $, .STERADIAN. ) SOLID_ANGLE_UNIT ( ) );
#135 = APPLICATION_CONTEXT ( 'automotive_design' ) ;
#136 = UNCERTAINTY_MEASURE_WITH_UNIT (LENGTH_MEASURE( 1.000000000000000082E-05 ), #299, 'distance_accuracy_value', 'NONE');
#137 = SURFACE_STYLE_FILL_AREA ( #60 ) ;
#138 = SURFACE_STYLE_FILL_AREA ( #343 ) ;
#139 = MANIFOLD_SOLID_BREP ( 'Revolve - Tool Body (Straight Shanked)', #335 ) ;
#140 =( NAMED_UNIT ( * ) PLANE_ANGLE_UNIT ( ) SI_UNIT ( $, .RADIAN. ) );
#141 = CIRCLE ( 'NONE', #358, 0.3124999999999999445 ) ;
#142 =( NAMED_UNIT ( * ) PLANE_ANGLE_UNIT ( ) SI_UNIT ( $, .RADIAN. ) );
#143 =( NAMED_UNIT ( * ) SI_UNIT ( $, .STERADIAN. ) SOLID_ANGLE_UNIT ( ) );
#144 = CARTESIAN_POINT ( 'NONE',  ( -3.827021247335478926E-17, 0.3125000000000000000, 0.000000000000000000 ) ) ;
#145 = ORIENTED_EDGE ( 'NONE', *, *, #224, .T. ) ;
#146 = PRODUCT_DEFINITION ( 'UNKNOWN', '', #229, #265 ) ;
#147 = AXIS2_PLACEMENT_3D ( 'NONE', #149, #101, #206 ) ;
#148 = MECHANICAL_DESIGN_GEOMETRIC_PRESENTATION_REPRESENTATION (  '', ( #25 ), #216 ) ;
#149 = CARTESIAN_POINT ( 'NONE',  ( -3.827021247335478926E-17, 0.3125000000000000000, 0.000000000000000000 ) ) ;
#150 =( CONVERSION_BASED_UNIT ( 'INCH', #306 ) LENGTH_UNIT ( ) NAMED_UNIT ( #16 ) );
#151 = ORIENTED_EDGE ( 'NONE', *, *, #41, .F. ) ;
#152 = ORIENTED_EDGE ( 'NONE', *, *, #303, .F. ) ;
#153 = CARTESIAN_POINT ( 'NONE',  ( -0.3124999999999999445, 4.000000000000000000, 0.000000000000000000 ) ) ;
#154 = VECTOR ( 'NONE', #315, 39.37007874015748143 ) ;
#155 = SURFACE_STYLE_USAGE ( .BOTH. , #49 ) ;
#156 = ORIENTED_EDGE ( 'NONE', *, *, #314, .F. ) ;
#157 = DIMENSIONAL_EXPONENTS ( 1.000000000000000000, 0.000000000000000000, 0.000000000000000000, 0.000000000000000000, 0.000000000000000000, 0.000000000000000000, 0.000000000000000000 ) ;
#158 = DIRECTION ( 'NONE',  ( -1.224646799147353207E-16, 1.000000000000000000, -0.000000000000000000 ) ) ;
#159 = ORIENTED_EDGE ( 'NONE', *, *, #22, .T. ) ;
#160 = FILL_AREA_STYLE ('',( #256 ) ) ;
#161 = ORIENTED_EDGE ( 'NONE', *, *, #41, .T. ) ;
#162 = VERTEX_POINT ( 'NONE', #351 ) ;
#163 = SURFACE_SIDE_STYLE ('',( #137 ) ) ;
#164 = AXIS2_PLACEMENT_3D ( 'NONE', #13, #241, #310 ) ;
#165 = STYLED_ITEM ( 'NONE', ( #290 ), #337 ) ;
#166 = DIRECTION ( 'NONE',  ( -1.000000000000000000, 0.000000000000000000, 0.000000000000000000 ) ) ;
#167 = SURFACE_STYLE_FILL_AREA ( #160 ) ;
#168 =( CONVERSION_BASED_UNIT ( 'INCH', #87 ) LENGTH_UNIT ( ) NAMED_UNIT ( #272 ) );
#169 = EDGE_CURVE ( 'NONE', #100, #53, #350, .T. ) ;
#170 =( CONVERSION_BASED_UNIT ( 'INCH', #225 ) LENGTH_UNIT ( ) NAMED_UNIT ( #313 ) );
#171 = CARTESIAN_POINT ( 'NONE',  ( -6.123233995736766036E-17, 4.000000000000000000, 0.000000000000000000 ) ) ;
#172 = DIRECTION ( 'NONE',  ( 0.000000000000000000, 0.000000000000000000, -1.000000000000000000 ) ) ;
#173 = PRESENTATION_LAYER_ASSIGNMENT (  '', '', ( #125 ) ) ;
#174 = DIRECTION ( 'NONE',  ( 0.000000000000000000, 0.000000000000000000, -1.000000000000000000 ) ) ;
#175 = LENGTH_MEASURE_WITH_UNIT ( LENGTH_MEASURE( 0.02539999999999999897 ), #37 );
#176 = AXIS2_PLACEMENT_3D ( 'NONE', #144, #64, #264 ) ;
#177 = DIRECTION ( 'NONE',  ( 1.224646799147353207E-16, -1.000000000000000000, 0.000000000000000000 ) ) ;
#178 = AXIS2_PLACEMENT_3D ( 'NONE', #93, #325, #203 ) ;
#179 = CARTESIAN_POINT ( 'NONE',  ( 0.000000000000000000, 0.3125000000000000555, -0.3124999999999999445 ) ) ;
#180 = PRODUCT_RELATED_PRODUCT_CATEGORY ( 'part', '', ( #286 ) ) ;
#181 = CARTESIAN_POINT ( 'NONE',  ( -0.3124999999999998335, 4.000000000000000000, 0.000000000000000000 ) ) ;
#182 = SURFACE_STYLE_FILL_AREA ( #47 ) ;
#183 = DIMENSIONAL_EXPONENTS ( 1.000000000000000000, 0.000000000000000000, 0.000000000000000000, 0.000000000000000000, 0.000000000000000000, 0.000000000000000000, 0.000000000000000000 ) ;
#184 = MECHANICAL_DESIGN_GEOMETRIC_PRESENTATION_REPRESENTATION (  '', ( #68 ), #259 ) ;
#185 = CIRCLE ( 'NONE', #2, 0.3124999999999998890 ) ;
#186 = EDGE_CURVE ( 'NONE', #188, #280, #74, .T. ) ;
#187 = ADVANCED_FACE ( 'NONE', ( #260 ), #121, .T. ) ;
#188 = VERTEX_POINT ( 'NONE', #257 ) ;
#189 =( LENGTH_UNIT ( ) NAMED_UNIT ( * ) SI_UNIT ( $, .METRE. ) );
#190 = ADVANCED_FACE ( 'NONE', ( #373 ), #3, .F. ) ;
#191 = STYLED_ITEM ( 'NONE', ( #106 ), #239 ) ;
#192 = ORIENTED_EDGE ( 'NONE', *, *, #117, .F. ) ;
#193 = FACE_OUTER_BOUND ( 'NONE', #353, .T. ) ;
#194 = VECTOR ( 'NONE', #311, 39.37007874015748143 ) ;
#195 = SURFACE_STYLE_USAGE ( .BOTH. , #328 ) ;
#196 = COLOUR_RGB ( '',1.000000000000000000, 0.000000000000000000, 0.000000000000000000 ) ;
#197 = DIRECTION ( 'NONE',  ( -1.000000000000000000, -1.224646799147353207E-16, 0.000000000000000000 ) ) ;
#198 = SHAPE_DEFINITION_REPRESENTATION ( #346, #48 ) ;
#199 = DIRECTION ( 'NONE',  ( 1.000000000000000000, 0.000000000000000000, 0.000000000000000000 ) ) ;
#200 = COLOUR_RGB ( '',1.000000000000000000, 0.000000000000000000, 0.000000000000000000 ) ;
#201 = VERTEX_POINT ( 'NONE', #324 ) ;
#202 = FILL_AREA_STYLE ('',( #352 ) ) ;
#203 = DIRECTION ( 'NONE',  ( 1.000000000000000000, 0.000000000000000000, 0.000000000000000000 ) ) ;
#204 = VERTEX_POINT ( 'NONE', #66 ) ;
#205 = DIRECTION ( 'NONE',  ( -0.000000000000000000, -1.000000000000000000, -0.000000000000000000 ) ) ;
#206 = DIRECTION ( 'NONE',  ( 1.000000000000000000, 0.000000000000000000, 0.000000000000000000 ) ) ;
#207 = ORIENTED_EDGE ( 'NONE', *, *, #99, .T. ) ;
#208 = DIRECTION ( 'NONE',  ( 0.000000000000000000, 0.000000000000000000, -1.000000000000000000 ) ) ;
#209 =( CONVERSION_BASED_UNIT ( 'INCH', #44 ) LENGTH_UNIT ( ) NAMED_UNIT ( #111 ) );
#210 = CARTESIAN_POINT ( 'NONE',  ( -3.827021247335478926E-17, 0.3125000000000000000, 0.000000000000000000 ) ) ;
#211 = FILL_AREA_STYLE_COLOUR ( '', #32 ) ;
#212 = EDGE_LOOP ( 'NONE', ( #151, #308, #159, #84, #237 ) ) ;
#213 = UNCERTAINTY_MEASURE_WITH_UNIT (LENGTH_MEASURE( 1.000000000000000082E-05 ), #168, 'distance_accuracy_value', 'NONE');
#214 = LINE ( 'NONE', #181, #21 ) ;
#215 =( GEOMETRIC_REPRESENTATION_CONTEXT ( 3 ) GLOBAL_UNCERTAINTY_ASSIGNED_CONTEXT ( ( #136 ) ) GLOBAL_UNIT_ASSIGNED_CONTEXT ( ( #299, #35, #143 ) ) REPRESENTATION_CONTEXT ( 'NONE', 'WORKASPACE' ) );
#216 =( GEOMETRIC_REPRESENTATION_CONTEXT ( 3 ) GLOBAL_UNCERTAINTY_ASSIGNED_CONTEXT ( ( #23 ) ) GLOBAL_UNIT_ASSIGNED_CONTEXT ( ( #150, #271, #14 ) ) REPRESENTATION_CONTEXT ( 'NONE', 'WORKASPACE' ) );
#217 = LINE ( 'NONE', #312, #154 ) ;
#218 = ORIENTED_EDGE ( 'NONE', *, *, #224, .F. ) ;
#219 = PRESENTATION_STYLE_ASSIGNMENT (( #367 ) ) ;
#220 =( LENGTH_UNIT ( ) NAMED_UNIT ( * ) SI_UNIT ( $, .METRE. ) );
#221 = CARTESIAN_POINT ( 'NONE',  ( 0.3124999999999999445, 0.3125000000000000555, 0.000000000000000000 ) ) ;
#222 = CIRCLE ( 'NONE', #371, 0.3124999999999998890 ) ;
#223 = CIRCLE ( 'NONE', #83, 0.3124999999999999445 ) ;
#224 = EDGE_CURVE ( 'NONE', #344, #204, #327, .T. ) ;
#225 = LENGTH_MEASURE_WITH_UNIT ( LENGTH_MEASURE( 0.02539999999999999897 ), #220 );
#226 = EDGE_CURVE ( 'NONE', #162, #188, #141, .T. ) ;
#227 = AXIS2_PLACEMENT_3D ( 'NONE', #30, #28, #116 ) ;
#228 =( NAMED_UNIT ( * ) PLANE_ANGLE_UNIT ( ) SI_UNIT ( $, .RADIAN. ) );
#229 = PRODUCT_DEFINITION_FORMATION_WITH_SPECIFIED_SOURCE ( 'ANY', '', #286, .NOT_KNOWN. ) ;
#230 = CARTESIAN_POINT ( 'NONE',  ( 0.000000000000000000, 1.625000000000000000, -0.3124999999999998335 ) ) ;
#231 = DIRECTION ( 'NONE',  ( -1.224646799147353207E-16, 1.000000000000000000, 0.000000000000000000 ) ) ;
#232 = PRODUCT_CONTEXT ( 'NONE', #135, 'mechanical' ) ;
#233 = ORIENTED_EDGE ( 'NONE', *, *, #320, .F. ) ;
#234 =( NAMED_UNIT ( * ) SI_UNIT ( $, .STERADIAN. ) SOLID_ANGLE_UNIT ( ) );
#235 = MECHANICAL_DESIGN_GEOMETRIC_PRESENTATION_REPRESENTATION (  '', ( #288 ), #50 ) ;
#236 = PRESENTATION_LAYER_ASSIGNMENT (  '', '', ( #165 ) ) ;
#237 = ORIENTED_EDGE ( 'NONE', *, *, #226, .F. ) ;
#238 =( NAMED_UNIT ( * ) PLANE_ANGLE_UNIT ( ) SI_UNIT ( $, .RADIAN. ) );
#239 = ADVANCED_FACE ( 'NONE', ( #75 ), #102, .T. ) ;
#240 =( NAMED_UNIT ( * ) SI_UNIT ( $, .STERADIAN. ) SOLID_ANGLE_UNIT ( ) );
#241 = DIRECTION ( 'NONE',  ( 1.224646799147353207E-16, -0.000000000000000000, 1.000000000000000000 ) ) ;
#242 = ORIENTED_EDGE ( 'NONE', *, *, #186, .T. ) ;
#243 = DIRECTION ( 'NONE',  ( -1.224646799147353207E-16, 1.000000000000000000, -0.000000000000000000 ) ) ;
#244 = AXIS2_PLACEMENT_3D ( 'NONE', #347, #85, #370 ) ;
#245 = DIMENSIONAL_EXPONENTS ( 1.000000000000000000, 0.000000000000000000, 0.000000000000000000, 0.000000000000000000, 0.000000000000000000, 0.000000000000000000, 0.000000000000000000 ) ;
#246 = SURFACE_SIDE_STYLE ('',( #132 ) ) ;
#247 = UNCERTAINTY_MEASURE_WITH_UNIT (LENGTH_MEASURE( 1.000000000000000082E-05 ), #170, 'distance_accuracy_value', 'NONE');
#248 = MECHANICAL_DESIGN_GEOMETRIC_PRESENTATION_REPRESENTATION (  '', ( #125 ), #215 ) ;
#249 = CIRCLE ( 'NONE', #89, 0.3124999999999999445 ) ;
#250 = VERTEX_POINT ( 'NONE', #128 ) ;
#251 = FACE_OUTER_BOUND ( 'NONE', #331, .T. ) ;
#252 = DIRECTION ( 'NONE',  ( -1.000000000000000000, 0.000000000000000000, 0.000000000000000000 ) ) ;
#253 = AXIS2_PLACEMENT_3D ( 'NONE', #122, #263, #291 ) ;
#254 = FILL_AREA_STYLE_COLOUR ( '', #200 ) ;
#255 = DIRECTION ( 'NONE',  ( -1.000000000000000000, 0.000000000000000000, 0.000000000000000000 ) ) ;
#256 = FILL_AREA_STYLE_COLOUR ( '', #51 ) ;
#257 = CARTESIAN_POINT ( 'NONE',  ( -0.3125000000000000000, 0.3125000000000000555, 3.827021247335477694E-17 ) ) ;
#258 = EDGE_CURVE ( 'NONE', #250, #96, #95, .T. ) ;
#259 =( GEOMETRIC_REPRESENTATION_CONTEXT ( 3 ) GLOBAL_UNCERTAINTY_ASSIGNED_CONTEXT ( ( #361 ) ) GLOBAL_UNIT_ASSIGNED_CONTEXT ( ( #300, #228, #332 ) ) REPRESENTATION_CONTEXT ( 'NONE', 'WORKASPACE' ) );
#260 = FACE_OUTER_BOUND ( 'NONE', #27, .T. ) ;
#261 = PRESENTATION_LAYER_ASSIGNMENT (  '', '', ( #285 ) ) ;
#262 =( LENGTH_UNIT ( ) NAMED_UNIT ( * ) SI_UNIT ( $, .METRE. ) );
#263 = DIRECTION ( 'NONE',  ( -0.000000000000000000, -1.000000000000000000, -0.000000000000000000 ) ) ;
#264 = DIRECTION ( 'NONE',  ( -1.000000000000000000, 0.000000000000000000, 0.000000000000000000 ) ) ;
#265 = PRODUCT_DEFINITION_CONTEXT ( 'detailed design', #12, 'design' ) ;
#266 = SPHERICAL_SURFACE ( 'NONE', #10, 0.3125000000000000000 ) ;
#267 = EDGE_LOOP ( 'NONE', ( #340, #130, #287, #127 ) ) ;
#268 = COLOUR_RGB ( '',0.7921568627450980005, 0.8196078431372548767, 0.9333333333333333481 ) ;
#269 = FILL_AREA_STYLE_COLOUR ( '', #268 ) ;
#270 = MANIFOLD_SOLID_BREP ( 'Revolve - Cutting Edge', #342 ) ;
#271 =( NAMED_UNIT ( * ) PLANE_ANGLE_UNIT ( ) SI_UNIT ( $, .RADIAN. ) );
#272 = DIMENSIONAL_EXPONENTS ( 1.000000000000000000, 0.000000000000000000, 0.000000000000000000, 0.000000000000000000, 0.000000000000000000, 0.000000000000000000, 0.000000000000000000 ) ;
#273 = CARTESIAN_POINT ( 'NONE',  ( -6.123233995736766036E-17, 4.000000000000000000, 0.000000000000000000 ) ) ;
#274 = ORIENTED_EDGE ( 'NONE', *, *, #226, .T. ) ;
#275 = DIRECTION ( 'NONE',  ( -0.000000000000000000, -1.000000000000000000, -0.000000000000000000 ) ) ;
#276 = VERTEX_POINT ( 'NONE', #153 ) ;
#277 =( LENGTH_UNIT ( ) NAMED_UNIT ( * ) SI_UNIT ( $, .METRE. ) );
#278 = PRESENTATION_LAYER_ASSIGNMENT (  '', '', ( #191 ) ) ;
#279 = FILL_AREA_STYLE_COLOUR ( '', #345 ) ;
#280 = VERTEX_POINT ( 'NONE', #179 ) ;
#281 = DIRECTION ( 'NONE',  ( -1.224646799147353207E-16, 1.000000000000000000, -0.000000000000000000 ) ) ;
#282 = UNCERTAINTY_MEASURE_WITH_UNIT (LENGTH_MEASURE( 1.000000000000000082E-05 ), #72, 'distance_accuracy_value', 'NONE');
#283 = CIRCLE ( 'NONE', #336, 0.3124999999999996114 ) ;
#284 = SURFACE_SIDE_STYLE ('',( #167 ) ) ;
#285 = STYLED_ITEM ( 'NONE', ( #40 ), #270 ) ;
#286 = PRODUCT ( '49360', '49360', '', ( #232 ) ) ;
#287 = ORIENTED_EDGE ( 'NONE', *, *, #368, .F. ) ;
#288 = STYLED_ITEM ( 'NONE', ( #67 ), #139 ) ;
#289 = DIRECTION ( 'NONE',  ( -1.224646799147353207E-16, 1.000000000000000000, -0.000000000000000000 ) ) ;
#290 = PRESENTATION_STYLE_ASSIGNMENT (( #81 ) ) ;
#291 = DIRECTION ( 'NONE',  ( 0.000000000000000000, 0.000000000000000000, -1.000000000000000000 ) ) ;
#292 = DIRECTION ( 'NONE',  ( 0.000000000000000000, 1.000000000000000000, 0.000000000000000000 ) ) ;
#293 = CARTESIAN_POINT ( 'NONE',  ( 0.000000000000000000, 1.625000000000000000, 0.000000000000000000 ) ) ;
#294 = APPLICATION_PROTOCOL_DEFINITION ( 'draft international standard', 'automotive_design', 1998, #12 ) ;
#295 = AXIS2_PLACEMENT_3D ( 'NONE', #110, #177, #339 ) ;
#296 = DIMENSIONAL_EXPONENTS ( 1.000000000000000000, 0.000000000000000000, 0.000000000000000000, 0.000000000000000000, 0.000000000000000000, 0.000000000000000000, 0.000000000000000000 ) ;
#297 = CARTESIAN_POINT ( 'NONE',  ( 0.000000000000000000, 0.3125000000000000555, 0.000000000000000000 ) ) ;
#298 = CARTESIAN_POINT ( 'NONE',  ( 0.000000000000000000, 1.625000000000000000, 0.000000000000000000 ) ) ;
#299 =( CONVERSION_BASED_UNIT ( 'INCH', #326 ) LENGTH_UNIT ( ) NAMED_UNIT ( #296 ) );
#300 =( CONVERSION_BASED_UNIT ( 'INCH', #6 ) LENGTH_UNIT ( ) NAMED_UNIT ( #245 ) );
#301 = DIRECTION ( 'NONE',  ( 0.000000000000000000, -0.000000000000000000, 1.000000000000000000 ) ) ;
#302 = ORIENTED_EDGE ( 'NONE', *, *, #368, .T. ) ;
#303 = EDGE_CURVE ( 'NONE', #100, #162, #223, .T. ) ;
#304 =( NAMED_UNIT ( * ) PLANE_ANGLE_UNIT ( ) SI_UNIT ( $, .RADIAN. ) );
#305 = CARTESIAN_POINT ( 'NONE',  ( 0.3124999999999998335, 1.625000000000000000, 3.827021247335476461E-17 ) ) ;
#306 = LENGTH_MEASURE_WITH_UNIT ( LENGTH_MEASURE( 0.02539999999999999897 ), #262 );
#307 = SPHERICAL_SURFACE ( 'NONE', #147, 0.3125000000000000000 ) ;
#308 = ORIENTED_EDGE ( 'NONE', *, *, #117, .T. ) ;
#309 = CARTESIAN_POINT ( 'NONE',  ( 0.000000000000000000, 0.3125000000000000555, 0.000000000000000000 ) ) ;
#310 = DIRECTION ( 'NONE',  ( 1.000000000000000000, 0.000000000000000000, -1.224646799147353207E-16 ) ) ;
#311 = DIRECTION ( 'NONE',  ( -0.000000000000000000, -1.000000000000000000, -0.000000000000000000 ) ) ;
#312 = CARTESIAN_POINT ( 'NONE',  ( 0.000000000000000000, 0.000000000000000000, -0.3124999999999998890 ) ) ;
#313 = DIMENSIONAL_EXPONENTS ( 1.000000000000000000, 0.000000000000000000, 0.000000000000000000, 0.000000000000000000, 0.000000000000000000, 0.000000000000000000, 0.000000000000000000 ) ;
#314 = EDGE_CURVE ( 'NONE', #96, #201, #17, .T. ) ;
#315 = DIRECTION ( 'NONE',  ( -0.000000000000000000, -1.000000000000000000, -0.000000000000000000 ) ) ;
#316 = ORIENTED_EDGE ( 'NONE', *, *, #112, .T. ) ;
#317 = ADVANCED_FACE ( 'NONE', ( #357 ), #266, .T. ) ;
#318 = AXIS2_PLACEMENT_3D ( 'NONE', #171, #289, #255 ) ;
#319 = LINE ( 'NONE', #369, #194 ) ;
#320 = EDGE_CURVE ( 'NONE', #280, #100, #249, .T. ) ;
#321 = EDGE_LOOP ( 'NONE', ( #302, #316 ) ) ;
#322 = AXIS2_PLACEMENT_3D ( 'NONE', #298, #292, #301 ) ;
#323 = DIRECTION ( 'NONE',  ( -1.224646799147353207E-16, 1.000000000000000000, -0.000000000000000000 ) ) ;
#324 = CARTESIAN_POINT ( 'NONE',  ( 0.3124999999999998335, 4.000000000000000000, 3.827021247335476461E-17 ) ) ;
#325 = DIRECTION ( 'NONE',  ( 0.000000000000000000, 0.000000000000000000, 1.000000000000000000 ) ) ;
#326 = LENGTH_MEASURE_WITH_UNIT ( LENGTH_MEASURE( 0.02539999999999999897 ), #71 );
#327 = CIRCLE ( 'NONE', #103, 0.3124999999999998335 ) ;
#328 = SURFACE_SIDE_STYLE ('',( #118 ) ) ;
#329 = MECHANICAL_DESIGN_GEOMETRIC_PRESENTATION_REPRESENTATION (  '', ( #165 ), #62 ) ;
#330 = CARTESIAN_POINT ( 'NONE',  ( -6.123233995736764803E-17, 4.000000000000000000, 0.000000000000000000 ) ) ;
#331 = EDGE_LOOP ( 'NONE', ( #274, #207, #107, #356 ) ) ;
#332 =( NAMED_UNIT ( * ) SI_UNIT ( $, .STERADIAN. ) SOLID_ANGLE_UNIT ( ) );
#333 = CARTESIAN_POINT ( 'NONE',  ( 2.296212748401286986E-16, 1.625000000000000000, 0.000000000000000000 ) ) ;
#334 = PRESENTATION_STYLE_ASSIGNMENT (( #34 ) ) ;
#335 = CLOSED_SHELL ( 'NONE', ( #69, #190, #187, #80 ) ) ;
#336 = AXIS2_PLACEMENT_3D ( 'NONE', #91, #97, #33 ) ;
#337 = ADVANCED_FACE ( 'NONE', ( #193 ), #63, .T. ) ;
#338 = DIRECTION ( 'NONE',  ( -1.224646799147353207E-16, 1.000000000000000000, -0.000000000000000000 ) ) ;
#339 = DIRECTION ( 'NONE',  ( 1.000000000000000000, 1.224646799147353207E-16, 0.000000000000000000 ) ) ;
#340 = ORIENTED_EDGE ( 'NONE', *, *, #258, .T. ) ;
#341 = DIRECTION ( 'NONE',  ( 0.000000000000000000, 0.000000000000000000, -1.000000000000000000 ) ) ;
#342 = CLOSED_SHELL ( 'NONE', ( #65, #239, #337, #124, #317 ) ) ;
#343 = FILL_AREA_STYLE ('',( #279 ) ) ;
#344 = VERTEX_POINT ( 'NONE', #230 ) ;
#345 = COLOUR_RGB ( '',1.000000000000000000, 0.000000000000000000, 0.000000000000000000 ) ;
#346 = PRODUCT_DEFINITION_SHAPE ( 'NONE', 'NONE',  #146 ) ;
#347 = CARTESIAN_POINT ( 'NONE',  ( 0.000000000000000000, 1.625000000000000000, 0.000000000000000000 ) ) ;
#348 = DIRECTION ( 'NONE',  ( -0.000000000000000000, -1.000000000000000000, -0.000000000000000000 ) ) ;
#349 =( NAMED_UNIT ( * ) PLANE_ANGLE_UNIT ( ) SI_UNIT ( $, .RADIAN. ) );
#350 = CIRCLE ( 'NONE', #176, 0.3125000000000000000 ) ;
#351 = CARTESIAN_POINT ( 'NONE',  ( 3.827021247335477694E-17, 0.3125000000000000555, 0.3124999999999999445 ) ) ;
#352 = FILL_AREA_STYLE_COLOUR ( '', #364 ) ;
#353 = EDGE_LOOP ( 'NONE', ( #218, #192 ) ) ;
#354 = CIRCLE ( 'NONE', #164, 0.3125000000000000000 ) ;
#355 = FILL_AREA_STYLE ('',( #211 ) ) ;
#356 = ORIENTED_EDGE ( 'NONE', *, *, #303, .T. ) ;
#357 = FACE_OUTER_BOUND ( 'NONE', #104, .T. ) ;
#358 = AXIS2_PLACEMENT_3D ( 'NONE', #297, #4, #208 ) ;
#359 = FACE_OUTER_BOUND ( 'NONE', #321, .T. ) ;
#360 = CARTESIAN_POINT ( 'NONE',  ( 0.000000000000000000, 0.000000000000000000, 0.000000000000000000 ) ) ;
#361 = UNCERTAINTY_MEASURE_WITH_UNIT (LENGTH_MEASURE( 1.000000000000000082E-05 ), #300, 'distance_accuracy_value', 'NONE');
#362 = FILL_AREA_STYLE ('',( #58 ) ) ;
#363 = CARTESIAN_POINT ( 'NONE',  ( -6.123233995736764803E-17, 4.000000000000000000, 0.000000000000000000 ) ) ;
#364 = COLOUR_RGB ( '',0.7921568627450980005, 0.8196078431372548767, 0.9333333333333333481 ) ;
#365 = VECTOR ( 'NONE', #243, 39.37007874015748143 ) ;
#366 = DIRECTION ( 'NONE',  ( -1.224646799147353207E-16, 1.000000000000000000, -0.000000000000000000 ) ) ;
#367 = SURFACE_STYLE_USAGE ( .BOTH. , #163 ) ;
#368 = EDGE_CURVE ( 'NONE', #276, #201, #185, .T. ) ;
#369 = CARTESIAN_POINT ( 'NONE',  ( 3.827021247335477078E-17, 0.000000000000000000, 0.3124999999999998890 ) ) ;
#370 = DIRECTION ( 'NONE',  ( 0.000000000000000000, 0.000000000000000000, -1.000000000000000000 ) ) ;
#371 = AXIS2_PLACEMENT_3D ( 'NONE', #363, #281, #252 ) ;
#372 =( LENGTH_UNIT ( ) NAMED_UNIT ( * ) SI_UNIT ( $, .METRE. ) );
#373 = FACE_OUTER_BOUND ( 'NONE', #133, .T. ) ;
ENDSEC;
END-ISO-10303-21;
