ISO-10303-21;
HEADER;
FILE_DESCRIPTION (( 'STEP AP214' ),
    '1' );
FILE_NAME ('Micro_RNCM-050-1.STEP',
    '2021-09-03T17:40:51',
    ( '' ),
    ( '' ),
    'SwSTEP 2.0',
    'SolidWorks 2020',
    '' );
FILE_SCHEMA (( 'AUTOMOTIVE_DESIGN' ));
ENDSEC;

DATA;
#1 = CARTESIAN_POINT ( 'NONE',  ( 0.0000000000000000000, 0.0000000000000000000, 1.953503999999999685 ) ) ;
#2 = EDGE_LOOP ( 'NONE', ( #86, #221, #157, #94 ) ) ;
#3 = APPLICATION_CONTEXT ( 'automotive_design' ) ;
#4 = EDGE_CURVE ( 'NONE', #62, #6, #113, .T. ) ;
#5 = CARTESIAN_POINT ( 'NONE',  ( -0.003936999999999995191, 6.267864782716068801E-18, 0.0000000000000000000 ) ) ;
#6 = VERTEX_POINT ( 'NONE', #216 ) ;
#7 = PRODUCT_RELATED_PRODUCT_CATEGORY ( 'part', '', ( #171 ) ) ;
#8 = PRESENTATION_STYLE_ASSIGNMENT (( #183 ) ) ;
#9 = CLOSED_SHELL ( 'NONE', ( #236, #194, #20, #229, #37, #116, #201, #227 ) ) ;
#10 = AXIS2_PLACEMENT_3D ( 'NONE', #18, #204, #159 ) ;
#11 = CARTESIAN_POINT ( 'NONE',  ( 0.09842500000000001248, 1.205358612060782468E-17, 1.953503999999999685 ) ) ;
#12 = FILL_AREA_STYLE ('',( #111 ) ) ;
#13 = UNCERTAINTY_MEASURE_WITH_UNIT (LENGTH_MEASURE( 1.000000000000000082E-05 ), #164, 'distance_accuracy_value', 'NONE');
#14 = DIRECTION ( 'NONE',  ( 1.000000000000000000, 0.0000000000000000000, -0.0000000000000000000 ) ) ;
#15 = DIRECTION ( 'NONE',  ( 0.0000000000000000000, 0.0000000000000000000, -1.000000000000000000 ) ) ;
#16 = CARTESIAN_POINT ( 'NONE',  ( 0.0000000000000000000, 0.0000000000000000000, 0.0000000000000000000 ) ) ;
#17 = ORIENTED_EDGE ( 'NONE', *, *, #99, .T. ) ;
#18 = CARTESIAN_POINT ( 'NONE',  ( 0.0000000000000000000, 0.0000000000000000000, 1.968503999999999809 ) ) ;
#19 = EDGE_LOOP ( 'NONE', ( #196, #38, #217, #42 ) ) ;
#20 = ADVANCED_FACE ( 'NONE', ( #181 ), #46, .T. ) ;
#21 = VECTOR ( 'NONE', #139, 39.37007874015748143 ) ;
#22 = CONICAL_SURFACE ( 'NONE', #10, 0.08342499999999994365, 0.7853981633974420618 ) ;
#23 = LINE ( 'NONE', #177, #74 ) ;
#24 = DIRECTION ( 'NONE',  ( -1.000000000000000000, 0.0000000000000000000, 0.0000000000000000000 ) ) ;
#25 = CARTESIAN_POINT ( 'NONE',  ( 0.003936999999999995191, 0.0000000000000000000, 0.0000000000000000000 ) ) ;
#26 = CARTESIAN_POINT ( 'NONE',  ( 0.0000000000000000000, 0.0000000000000000000, 0.0000000000000000000 ) ) ;
#27 = VERTEX_POINT ( 'NONE', #5 ) ;
#28 = VERTEX_POINT ( 'NONE', #49 ) ;
#29 = DIRECTION ( 'NONE',  ( 0.7071067811865430208, 8.659560562354874926E-17, -0.7071067811865517916 ) ) ;
#30 = AXIS2_PLACEMENT_3D ( 'NONE', #223, #31, #123 ) ;
#31 = DIRECTION ( 'NONE',  ( -0.0000000000000000000, -0.0000000000000000000, -1.000000000000000000 ) ) ;
#32 = CARTESIAN_POINT ( 'NONE',  ( 0.0000000000000000000, 0.0000000000000000000, 0.09448799999999960009 ) ) ;
#33 = AXIS2_PLACEMENT_3D ( 'NONE', #205, #70, #65 ) ;
#34 = AXIS2_PLACEMENT_3D ( 'NONE', #26, #104, #179 ) ;
#35 = UNCERTAINTY_MEASURE_WITH_UNIT (LENGTH_MEASURE( 1.000000000000000082E-05 ), #246, 'distance_accuracy_value', 'NONE');
#36 = CARTESIAN_POINT ( 'NONE',  ( 0.0000000000000000000, 0.0000000000000000000, 1.968503999999999809 ) ) ;
#37 = ADVANCED_FACE ( 'NONE', ( #180 ), #85, .T. ) ;
#38 = ORIENTED_EDGE ( 'NONE', *, *, #190, .F. ) ;
#39 = AXIS2_PLACEMENT_3D ( 'NONE', #16, #168, #93 ) ;
#40 = VERTEX_POINT ( 'NONE', #122 ) ;
#41 =( NAMED_UNIT ( * ) PLANE_ANGLE_UNIT ( ) SI_UNIT ( $, .RADIAN. ) );
#42 = ORIENTED_EDGE ( 'NONE', *, *, #212, .T. ) ;
#43 = DIRECTION ( 'NONE',  ( -1.000000000000000000, 0.0000000000000000000, 0.0000000000000000000 ) ) ;
#44 = CIRCLE ( 'NONE', #184, 0.08342499999999994365 ) ;
#45 = CONICAL_SURFACE ( 'NONE', #39, 0.003936999999999995191, 0.7853981633974504994 ) ;
#46 = CYLINDRICAL_SURFACE ( 'NONE', #33, 0.09842500000000001248 ) ;
#47 = ORIENTED_EDGE ( 'NONE', *, *, #95, .T. ) ;
#48 = CARTESIAN_POINT ( 'NONE',  ( 0.08342499999999994365, 1.021661592188678507E-17, 1.968503999999999809 ) ) ;
#49 = CARTESIAN_POINT ( 'NONE',  ( 0.09842500000000001248, 1.205358612060782468E-17, 0.09448799999999960009 ) ) ;
#50 = COLOUR_RGB ( '',0.7921568627450980005, 0.8196078431372548767, 0.9333333333333333481 ) ;
#51 = LENGTH_MEASURE_WITH_UNIT ( LENGTH_MEASURE( 0.02539999999999999897 ), #187 );
#52 = ORIENTED_EDGE ( 'NONE', *, *, #95, .F. ) ;
#53 = DIRECTION ( 'NONE',  ( -0.0000000000000000000, -0.0000000000000000000, -1.000000000000000000 ) ) ;
#54 = EDGE_CURVE ( 'NONE', #40, #28, #142, .T. ) ;
#55 = EDGE_CURVE ( 'NONE', #215, #28, #67, .T. ) ;
#56 = PRODUCT_DEFINITION_FORMATION_WITH_SPECIFIED_SOURCE ( 'ANY', '', #171, .NOT_KNOWN. ) ;
#57 = DIRECTION ( 'NONE',  ( -0.0000000000000000000, -0.0000000000000000000, -1.000000000000000000 ) ) ;
#58 =( NAMED_UNIT ( * ) SI_UNIT ( $, .STERADIAN. ) SOLID_ANGLE_UNIT ( ) );
#59 = DIRECTION ( 'NONE',  ( -1.000000000000000000, 0.0000000000000000000, 0.0000000000000000000 ) ) ;
#60 = LENGTH_MEASURE_WITH_UNIT ( LENGTH_MEASURE( 0.02539999999999999897 ), #225 );
#61 = ADVANCED_BREP_SHAPE_REPRESENTATION ( 'Micro_RNCM-050-1', ( #248, #178 ), #228 ) ;
#62 = VERTEX_POINT ( 'NONE', #232 ) ;
#63 = CIRCLE ( 'NONE', #34, 0.003936999999999995191 ) ;
#64 = CARTESIAN_POINT ( 'NONE',  ( 0.0000000000000000000, 0.0000000000000000000, 1.968503999999999809 ) ) ;
#65 = DIRECTION ( 'NONE',  ( -1.000000000000000000, 0.0000000000000000000, 0.0000000000000000000 ) ) ;
#66 = FACE_OUTER_BOUND ( 'NONE', #2, .T. ) ;
#67 = LINE ( 'NONE', #83, #21 ) ;
#68 = CARTESIAN_POINT ( 'NONE',  ( -0.09842500000000001248, 0.0000000000000000000, 0.09448799999999960009 ) ) ;
#69 = VECTOR ( 'NONE', #240, 39.37007874015748854 ) ;
#70 = DIRECTION ( 'NONE',  ( -0.0000000000000000000, -0.0000000000000000000, -1.000000000000000000 ) ) ;
#71 = PRESENTATION_LAYER_ASSIGNMENT (  '', '', ( #210 ) ) ;
#72 = SURFACE_SIDE_STYLE ('',( #109 ) ) ;
#73 = UNCERTAINTY_MEASURE_WITH_UNIT (LENGTH_MEASURE( 1.000000000000000082E-05 ), #100, 'distance_accuracy_value', 'NONE');
#74 = VECTOR ( 'NONE', #84, 39.37007874015748854 ) ;
#75 = CYLINDRICAL_SURFACE ( 'NONE', #244, 0.09842500000000001248 ) ;
#76 = ORIENTED_EDGE ( 'NONE', *, *, #146, .T. ) ;
#77 = ORIENTED_EDGE ( 'NONE', *, *, #126, .F. ) ;
#78 = DIRECTION ( 'NONE',  ( 1.000000000000000000, 0.0000000000000000000, 0.0000000000000000000 ) ) ;
#79 = PLANE ( 'NONE',  #206 ) ;
#80 = EDGE_CURVE ( 'NONE', #149, #215, #198, .T. ) ;
#81 = AXIS2_PLACEMENT_3D ( 'NONE', #163, #237, #143 ) ;
#82 = DIRECTION ( 'NONE',  ( 1.000000000000000000, 0.0000000000000000000, 0.0000000000000000000 ) ) ;
#83 = CARTESIAN_POINT ( 'NONE',  ( 0.09842500000000001248, 1.205358612060782468E-17, 1.968503999999999809 ) ) ;
#84 = DIRECTION ( 'NONE',  ( -0.7071067811865490160, 8.659560562354951347E-17, 0.7071067811865459074 ) ) ;
#85 = PLANE ( 'NONE',  #174 ) ;
#86 = ORIENTED_EDGE ( 'NONE', *, *, #4, .F. ) ;
#87 = CONICAL_SURFACE ( 'NONE', #189, 0.08342499999999994365, 0.7853981633974420618 ) ;
#88 =( NAMED_UNIT ( * ) PLANE_ANGLE_UNIT ( ) SI_UNIT ( $, .RADIAN. ) );
#89 = LINE ( 'NONE', #186, #69 ) ;
#90 = MECHANICAL_DESIGN_GEOMETRIC_PRESENTATION_REPRESENTATION (  '', ( #210 ), #161 ) ;
#91 = FACE_OUTER_BOUND ( 'NONE', #245, .T. ) ;
#92 = SURFACE_SIDE_STYLE ('',( #130 ) ) ;
#93 = DIRECTION ( 'NONE',  ( 1.000000000000000000, 0.0000000000000000000, 0.0000000000000000000 ) ) ;
#94 = ORIENTED_EDGE ( 'NONE', *, *, #145, .F. ) ;
#95 = EDGE_CURVE ( 'NONE', #6, #62, #44, .T. ) ;
#96 = PRODUCT_DEFINITION_CONTEXT ( 'detailed design', #238, 'design' ) ;
#97 = CARTESIAN_POINT ( 'NONE',  ( 0.0000000000000000000, 0.0000000000000000000, 0.0000000000000000000 ) ) ;
#98 = CONICAL_SURFACE ( 'NONE', #81, 0.003936999999999995191, 0.7853981633974504994 ) ;
#99 = EDGE_CURVE ( 'NONE', #27, #133, #23, .T. ) ;
#100 =( CONVERSION_BASED_UNIT ( 'INCH', #128 ) LENGTH_UNIT ( ) NAMED_UNIT ( #153 ) );
#101 = CARTESIAN_POINT ( 'NONE',  ( 0.0000000000000000000, 0.0000000000000000000, 0.09448799999999960009 ) ) ;
#102 = CARTESIAN_POINT ( 'NONE',  ( 0.0000000000000000000, 0.0000000000000000000, 1.968503999999999809 ) ) ;
#103 = CARTESIAN_POINT ( 'NONE',  ( 0.0000000000000000000, 0.0000000000000000000, 1.968503999999999809 ) ) ;
#104 = DIRECTION ( 'NONE',  ( -0.0000000000000000000, -0.0000000000000000000, -1.000000000000000000 ) ) ;
#105 = ORIENTED_EDGE ( 'NONE', *, *, #108, .T. ) ;
#106 = CARTESIAN_POINT ( 'NONE',  ( -0.09842500000000001248, 0.0000000000000000000, 1.968503999999999809 ) ) ;
#107 = EDGE_LOOP ( 'NONE', ( #47, #155 ) ) ;
#108 = EDGE_CURVE ( 'NONE', #133, #28, #213, .T. ) ;
#109 = SURFACE_STYLE_FILL_AREA ( #12 ) ;
#110 = AXIS2_PLACEMENT_3D ( 'NONE', #101, #230, #24 ) ;
#111 = FILL_AREA_STYLE_COLOUR ( '', #50 ) ;
#112 = CIRCLE ( 'NONE', #30, 0.003936999999999995191 ) ;
#113 = CIRCLE ( 'NONE', #249, 0.08342499999999994365 ) ;
#114 = VECTOR ( 'NONE', #29, 39.37007874015748854 ) ;
#115 = STYLED_ITEM ( 'NONE', ( #170 ), #61 ) ;
#116 = ADVANCED_FACE ( 'NONE', ( #219 ), #22, .T. ) ;
#117 =( NAMED_UNIT ( * ) SI_UNIT ( $, .STERADIAN. ) SOLID_ANGLE_UNIT ( ) );
#118 = ORIENTED_EDGE ( 'NONE', *, *, #190, .T. ) ;
#119 = FILL_AREA_STYLE_COLOUR ( '', #214 ) ;
#120 = ORIENTED_EDGE ( 'NONE', *, *, #146, .F. ) ;
#121 = FACE_OUTER_BOUND ( 'NONE', #19, .T. ) ;
#122 = CARTESIAN_POINT ( 'NONE',  ( 0.003936999999999995191, 0.0000000000000000000, 0.0000000000000000000 ) ) ;
#123 = DIRECTION ( 'NONE',  ( -1.000000000000000000, 0.0000000000000000000, 0.0000000000000000000 ) ) ;
#124 = ORIENTED_EDGE ( 'NONE', *, *, #55, .T. ) ;
#125 = EDGE_CURVE ( 'NONE', #215, #149, #185, .T. ) ;
#126 = EDGE_CURVE ( 'NONE', #149, #133, #182, .T. ) ;
#127 = LINE ( 'NONE', #48, #114 ) ;
#128 = LENGTH_MEASURE_WITH_UNIT ( LENGTH_MEASURE( 0.02539999999999999897 ), #144 );
#129 = APPLICATION_PROTOCOL_DEFINITION ( 'draft international standard', 'automotive_design', 1998, #238 ) ;
#130 = SURFACE_STYLE_FILL_AREA ( #191 ) ;
#131 = PRODUCT_DEFINITION_SHAPE ( 'NONE', 'NONE',  #140 ) ;
#132 = ORIENTED_EDGE ( 'NONE', *, *, #145, .T. ) ;
#133 = VERTEX_POINT ( 'NONE', #68 ) ;
#134 = VECTOR ( 'NONE', #53, 39.37007874015748143 ) ;
#135 = DIRECTION ( 'NONE',  ( 1.000000000000000000, 0.0000000000000000000, 0.0000000000000000000 ) ) ;
#136 = DIRECTION ( 'NONE',  ( 0.0000000000000000000, 0.0000000000000000000, 1.000000000000000000 ) ) ;
#137 = EDGE_CURVE ( 'NONE', #62, #215, #127, .T. ) ;
#138 = CARTESIAN_POINT ( 'NONE',  ( 0.0000000000000000000, 0.0000000000000000000, 1.968503999999999809 ) ) ;
#139 = DIRECTION ( 'NONE',  ( -0.0000000000000000000, -0.0000000000000000000, -1.000000000000000000 ) ) ;
#140 = PRODUCT_DEFINITION ( 'UNKNOWN', '', #56, #96 ) ;
#141 =( NAMED_UNIT ( * ) SI_UNIT ( $, .STERADIAN. ) SOLID_ANGLE_UNIT ( ) );
#142 = LINE ( 'NONE', #25, #209 ) ;
#143 = DIRECTION ( 'NONE',  ( 1.000000000000000000, 0.0000000000000000000, 0.0000000000000000000 ) ) ;
#144 =( LENGTH_UNIT ( ) NAMED_UNIT ( * ) SI_UNIT ( $, .METRE. ) );
#145 = EDGE_CURVE ( 'NONE', #6, #149, #89, .T. ) ;
#146 = EDGE_CURVE ( 'NONE', #27, #40, #112, .T. ) ;
#147 =( NAMED_UNIT ( * ) PLANE_ANGLE_UNIT ( ) SI_UNIT ( $, .RADIAN. ) );
#148 = AXIS2_PLACEMENT_3D ( 'NONE', #1, #176, #82 ) ;
#149 = VERTEX_POINT ( 'NONE', #203 ) ;
#150 = EDGE_LOOP ( 'NONE', ( #239, #173, #234, #243 ) ) ;
#151 = CARTESIAN_POINT ( 'NONE',  ( 0.0000000000000000000, 0.0000000000000000000, 1.953503999999999685 ) ) ;
#152 = APPLICATION_PROTOCOL_DEFINITION ( 'draft international standard', 'automotive_design', 1998, #3 ) ;
#153 = DIMENSIONAL_EXPONENTS ( 1.000000000000000000, 0.0000000000000000000, 0.0000000000000000000, 0.0000000000000000000, 0.0000000000000000000, 0.0000000000000000000, 0.0000000000000000000 ) ;
#154 = ORIENTED_EDGE ( 'NONE', *, *, #125, .F. ) ;
#155 = ORIENTED_EDGE ( 'NONE', *, *, #4, .T. ) ;
#156 = ORIENTED_EDGE ( 'NONE', *, *, #108, .F. ) ;
#157 = ORIENTED_EDGE ( 'NONE', *, *, #80, .F. ) ;
#158 = DIRECTION ( 'NONE',  ( 0.0000000000000000000, 0.0000000000000000000, 1.000000000000000000 ) ) ;
#159 = DIRECTION ( 'NONE',  ( -1.000000000000000000, 0.0000000000000000000, 0.0000000000000000000 ) ) ;
#160 = EDGE_LOOP ( 'NONE', ( #120, #17, #105, #193 ) ) ;
#161 =( GEOMETRIC_REPRESENTATION_CONTEXT ( 3 ) GLOBAL_UNCERTAINTY_ASSIGNED_CONTEXT ( ( #13 ) ) GLOBAL_UNIT_ASSIGNED_CONTEXT ( ( #164, #88, #141 ) ) REPRESENTATION_CONTEXT ( 'NONE', 'WORKASPACE' ) );
#162 = PRESENTATION_LAYER_ASSIGNMENT (  '', '', ( #115 ) ) ;
#163 = CARTESIAN_POINT ( 'NONE',  ( 0.0000000000000000000, 0.0000000000000000000, 0.0000000000000000000 ) ) ;
#164 =( CONVERSION_BASED_UNIT ( 'INCH', #51 ) LENGTH_UNIT ( ) NAMED_UNIT ( #233 ) );
#165 = CARTESIAN_POINT ( 'NONE',  ( 0.0000000000000000000, 0.0000000000000000000, 0.0000000000000000000 ) ) ;
#166 = DIRECTION ( 'NONE',  ( 0.0000000000000000000, 0.0000000000000000000, 1.000000000000000000 ) ) ;
#167 = AXIS2_PLACEMENT_3D ( 'NONE', #32, #188, #172 ) ;
#168 = DIRECTION ( 'NONE',  ( 0.0000000000000000000, 0.0000000000000000000, 1.000000000000000000 ) ) ;
#169 = EDGE_LOOP ( 'NONE', ( #175, #52, #132, #154 ) ) ;
#170 = PRESENTATION_STYLE_ASSIGNMENT (( #226 ) ) ;
#171 = PRODUCT ( 'Micro_RNCM-050-1', 'Micro_RNCM-050-1', '', ( #197 ) ) ;
#172 = DIRECTION ( 'NONE',  ( -1.000000000000000000, 0.0000000000000000000, 0.0000000000000000000 ) ) ;
#173 = ORIENTED_EDGE ( 'NONE', *, *, #125, .T. ) ;
#174 = AXIS2_PLACEMENT_3D ( 'NONE', #102, #158, #235 ) ;
#175 = ORIENTED_EDGE ( 'NONE', *, *, #137, .F. ) ;
#176 = DIRECTION ( 'NONE',  ( 0.0000000000000000000, 0.0000000000000000000, -1.000000000000000000 ) ) ;
#177 = CARTESIAN_POINT ( 'NONE',  ( -0.003936999999999995191, 4.821434448243123477E-19, 0.0000000000000000000 ) ) ;
#178 = AXIS2_PLACEMENT_3D ( 'NONE', #97, #166, #78 ) ;
#179 = DIRECTION ( 'NONE',  ( -1.000000000000000000, 0.0000000000000000000, 0.0000000000000000000 ) ) ;
#180 = FACE_OUTER_BOUND ( 'NONE', #107, .T. ) ;
#181 = FACE_OUTER_BOUND ( 'NONE', #247, .T. ) ;
#182 = LINE ( 'NONE', #106, #134 ) ;
#183 = SURFACE_STYLE_USAGE ( .BOTH. , #72 ) ;
#184 = AXIS2_PLACEMENT_3D ( 'NONE', #103, #200, #199 ) ;
#185 = CIRCLE ( 'NONE', #224, 0.09842500000000001248 ) ;
#186 = CARTESIAN_POINT ( 'NONE',  ( -0.08342499999999994365, 0.0000000000000000000, 1.968503999999999809 ) ) ;
#187 =( LENGTH_UNIT ( ) NAMED_UNIT ( * ) SI_UNIT ( $, .METRE. ) );
#188 = DIRECTION ( 'NONE',  ( -0.0000000000000000000, -0.0000000000000000000, -1.000000000000000000 ) ) ;
#189 = AXIS2_PLACEMENT_3D ( 'NONE', #138, #15, #43 ) ;
#190 = EDGE_CURVE ( 'NONE', #40, #27, #63, .T. ) ;
#191 = FILL_AREA_STYLE ('',( #119 ) ) ;
#192 = FACE_OUTER_BOUND ( 'NONE', #160, .T. ) ;
#193 = ORIENTED_EDGE ( 'NONE', *, *, #54, .F. ) ;
#194 = ADVANCED_FACE ( 'NONE', ( #66 ), #87, .T. ) ;
#195 = MECHANICAL_DESIGN_GEOMETRIC_PRESENTATION_REPRESENTATION (  '', ( #115 ), #220 ) ;
#196 = ORIENTED_EDGE ( 'NONE', *, *, #99, .F. ) ;
#197 = PRODUCT_CONTEXT ( 'NONE', #3, 'mechanical' ) ;
#198 = CIRCLE ( 'NONE', #148, 0.09842500000000001248 ) ;
#199 = DIRECTION ( 'NONE',  ( 1.000000000000000000, 0.0000000000000000000, 0.0000000000000000000 ) ) ;
#200 = DIRECTION ( 'NONE',  ( 0.0000000000000000000, 0.0000000000000000000, 1.000000000000000000 ) ) ;
#201 = ADVANCED_FACE ( 'NONE', ( #121 ), #98, .T. ) ;
#202 = DIRECTION ( 'NONE',  ( 0.7071067811865490160, 0.0000000000000000000, 0.7071067811865459074 ) ) ;
#203 = CARTESIAN_POINT ( 'NONE',  ( -0.09842500000000001248, 0.0000000000000000000, 1.953503999999999685 ) ) ;
#204 = DIRECTION ( 'NONE',  ( 0.0000000000000000000, 0.0000000000000000000, -1.000000000000000000 ) ) ;
#205 = CARTESIAN_POINT ( 'NONE',  ( 0.0000000000000000000, 0.0000000000000000000, 1.968503999999999809 ) ) ;
#206 = AXIS2_PLACEMENT_3D ( 'NONE', #165, #241, #14 ) ;
#207 = ORIENTED_EDGE ( 'NONE', *, *, #80, .T. ) ;
#208 = DIRECTION ( 'NONE',  ( 0.0000000000000000000, 0.0000000000000000000, -1.000000000000000000 ) ) ;
#209 = VECTOR ( 'NONE', #202, 39.37007874015748854 ) ;
#210 = STYLED_ITEM ( 'NONE', ( #8 ), #248 ) ;
#211 = SHAPE_DEFINITION_REPRESENTATION ( #131, #61 ) ;
#212 = EDGE_CURVE ( 'NONE', #28, #133, #231, .T. ) ;
#213 = CIRCLE ( 'NONE', #110, 0.09842500000000001248 ) ;
#214 = COLOUR_RGB ( '',0.7921568627450980005, 0.8196078431372548767, 0.9333333333333333481 ) ;
#215 = VERTEX_POINT ( 'NONE', #11 ) ;
#216 = CARTESIAN_POINT ( 'NONE',  ( -0.08342499999999994365, 0.0000000000000000000, 1.968503999999999809 ) ) ;
#217 = ORIENTED_EDGE ( 'NONE', *, *, #54, .T. ) ;
#218 = DIMENSIONAL_EXPONENTS ( 1.000000000000000000, 0.0000000000000000000, 0.0000000000000000000, 0.0000000000000000000, 0.0000000000000000000, 0.0000000000000000000, 0.0000000000000000000 ) ;
#219 = FACE_OUTER_BOUND ( 'NONE', #169, .T. ) ;
#220 =( GEOMETRIC_REPRESENTATION_CONTEXT ( 3 ) GLOBAL_UNCERTAINTY_ASSIGNED_CONTEXT ( ( #35 ) ) GLOBAL_UNIT_ASSIGNED_CONTEXT ( ( #246, #147, #117 ) ) REPRESENTATION_CONTEXT ( 'NONE', 'WORKASPACE' ) );
#221 = ORIENTED_EDGE ( 'NONE', *, *, #137, .T. ) ;
#222 = DIRECTION ( 'NONE',  ( 1.000000000000000000, 0.0000000000000000000, 0.0000000000000000000 ) ) ;
#223 = CARTESIAN_POINT ( 'NONE',  ( 0.0000000000000000000, 0.0000000000000000000, 0.0000000000000000000 ) ) ;
#224 = AXIS2_PLACEMENT_3D ( 'NONE', #151, #208, #222 ) ;
#225 =( LENGTH_UNIT ( ) NAMED_UNIT ( * ) SI_UNIT ( $, .METRE. ) );
#226 = SURFACE_STYLE_USAGE ( .BOTH. , #92 ) ;
#227 = ADVANCED_FACE ( 'NONE', ( #91 ), #79, .F. ) ;
#228 =( GEOMETRIC_REPRESENTATION_CONTEXT ( 3 ) GLOBAL_UNCERTAINTY_ASSIGNED_CONTEXT ( ( #73 ) ) GLOBAL_UNIT_ASSIGNED_CONTEXT ( ( #100, #41, #58 ) ) REPRESENTATION_CONTEXT ( 'NONE', 'WORKASPACE' ) );
#229 = ADVANCED_FACE ( 'NONE', ( #242 ), #75, .T. ) ;
#230 = DIRECTION ( 'NONE',  ( -0.0000000000000000000, -0.0000000000000000000, -1.000000000000000000 ) ) ;
#231 = CIRCLE ( 'NONE', #167, 0.09842500000000001248 ) ;
#232 = CARTESIAN_POINT ( 'NONE',  ( 0.08342499999999994365, 1.113510102124730410E-17, 1.968503999999999809 ) ) ;
#233 = DIMENSIONAL_EXPONENTS ( 1.000000000000000000, 0.0000000000000000000, 0.0000000000000000000, 0.0000000000000000000, 0.0000000000000000000, 0.0000000000000000000, 0.0000000000000000000 ) ;
#234 = ORIENTED_EDGE ( 'NONE', *, *, #126, .T. ) ;
#235 = DIRECTION ( 'NONE',  ( 1.000000000000000000, 0.0000000000000000000, -0.0000000000000000000 ) ) ;
#236 = ADVANCED_FACE ( 'NONE', ( #192 ), #45, .T. ) ;
#237 = DIRECTION ( 'NONE',  ( 0.0000000000000000000, 0.0000000000000000000, 1.000000000000000000 ) ) ;
#238 = APPLICATION_CONTEXT ( 'automotive_design' ) ;
#239 = ORIENTED_EDGE ( 'NONE', *, *, #55, .F. ) ;
#240 = DIRECTION ( 'NONE',  ( -0.7071067811865430208, 0.0000000000000000000, -0.7071067811865517916 ) ) ;
#241 = DIRECTION ( 'NONE',  ( 0.0000000000000000000, 0.0000000000000000000, 1.000000000000000000 ) ) ;
#242 = FACE_OUTER_BOUND ( 'NONE', #150, .T. ) ;
#243 = ORIENTED_EDGE ( 'NONE', *, *, #212, .F. ) ;
#244 = AXIS2_PLACEMENT_3D ( 'NONE', #36, #57, #59 ) ;
#245 = EDGE_LOOP ( 'NONE', ( #118, #76 ) ) ;
#246 =( CONVERSION_BASED_UNIT ( 'INCH', #60 ) LENGTH_UNIT ( ) NAMED_UNIT ( #218 ) );
#247 = EDGE_LOOP ( 'NONE', ( #207, #124, #156, #77 ) ) ;
#248 = MANIFOLD_SOLID_BREP ( 'Cut-Revolve1', #9 ) ;
#249 = AXIS2_PLACEMENT_3D ( 'NONE', #64, #136, #135 ) ;
ENDSEC;
END-ISO-10303-21;
