ISO-10303-21;
HEADER;
FILE_DESCRIPTION (( 'STEP AP214' ),
    '1' );
FILE_NAME ('Micro_SBMM-060-348.STEP',
    '2021-09-02T17:13:36',
    ( '' ),
    ( '' ),
    'SwSTEP 2.0',
    'SolidWorks 2020',
    '' );
FILE_SCHEMA (( 'AUTOMOTIVE_DESIGN' ));
ENDSEC;

DATA;
#1 = EDGE_LOOP ( 'NONE', ( #4, #142 ) ) ;
#2 = LENGTH_MEASURE_WITH_UNIT ( LENGTH_MEASURE( 0.02539999999999999897 ), #320 );
#3 = AXIS2_PLACEMENT_3D ( 'NONE', #337, #153, #340 ) ;
#4 = ORIENTED_EDGE ( 'NONE', *, *, #289, .T. ) ;
#5 = DIRECTION ( 'NONE',  ( 1.000000000000000000, 1.224646799147353207E-16, -0.0000000000000000000 ) ) ;
#6 = EDGE_CURVE ( 'NONE', #277, #61, #72, .T. ) ;
#7 = ADVANCED_FACE ( 'NONE', ( #112 ), #37, .T. ) ;
#8 =( CONVERSION_BASED_UNIT ( 'INCH', #2 ) LENGTH_UNIT ( ) NAMED_UNIT ( #270 ) );
#9 = VERTEX_POINT ( 'NONE', #198 ) ;
#10 = CIRCLE ( 'NONE', #3, 0.07873999999999985178 ) ;
#11 = DIRECTION ( 'NONE',  ( -0.0000000000000000000, -0.0000000000000000000, -1.000000000000000000 ) ) ;
#12 = EDGE_CURVE ( 'NONE', #44, #107, #302, .T. ) ;
#13 = DIRECTION ( 'NONE',  ( -1.000000000000000000, 0.0000000000000000000, 0.0000000000000000000 ) ) ;
#14 = DIRECTION ( 'NONE',  ( -1.000000000000000000, 0.0000000000000000000, 0.0000000000000000000 ) ) ;
#15 = ORIENTED_EDGE ( 'NONE', *, *, #325, .F. ) ;
#16 = CIRCLE ( 'NONE', #134, 0.07873999999999985178 ) ;
#17 =( NAMED_UNIT ( * ) PLANE_ANGLE_UNIT ( ) SI_UNIT ( $, .RADIAN. ) );
#18 = DIRECTION ( 'NONE',  ( 0.0000000000000000000, 0.0000000000000000000, 1.000000000000000000 ) ) ;
#19 =( LENGTH_UNIT ( ) NAMED_UNIT ( * ) SI_UNIT ( $, .METRE. ) );
#20 = DIRECTION ( 'NONE',  ( 1.000000000000000000, 0.0000000000000000000, 0.0000000000000000000 ) ) ;
#21 = DIRECTION ( 'NONE',  ( -0.08304547985374029218, 1.017013810865390570E-17, 0.9965457582448795648 ) ) ;
#22 = EDGE_CURVE ( 'NONE', #9, #196, #185, .T. ) ;
#23 = CIRCLE ( 'NONE', #273, 0.1181100000000000344 ) ;
#24 = DIRECTION ( 'NONE',  ( -0.0000000000000000000, -0.0000000000000000000, -1.000000000000000000 ) ) ;
#25 = DIRECTION ( 'NONE',  ( -1.000000000000000000, 0.0000000000000000000, 0.0000000000000000000 ) ) ;
#26 = CARTESIAN_POINT ( 'NONE',  ( 0.0000000000000000000, 0.0000000000000000000, 3.922007999999999939 ) ) ;
#27 = VECTOR ( 'NONE', #21, 39.37007874015748854 ) ;
#28 = APPLICATION_CONTEXT ( 'automotive_design' ) ;
#29 = ADVANCED_BREP_SHAPE_REPRESENTATION ( 'Micro_SBMM-060-348', ( #195, #109 ), #211 ) ;
#30 = PRODUCT_DEFINITION_SHAPE ( 'NONE', 'NONE',  #282 ) ;
#31 = AXIS2_PLACEMENT_3D ( 'NONE', #183, #125, #151 ) ;
#32 = APPLICATION_PROTOCOL_DEFINITION ( 'draft international standard', 'automotive_design', 1998, #28 ) ;
#33 = ORIENTED_EDGE ( 'NONE', *, *, #130, .F. ) ;
#34 = LINE ( 'NONE', #193, #288 ) ;
#35 = UNCERTAINTY_MEASURE_WITH_UNIT (LENGTH_MEASURE( 1.000000000000000082E-05 ), #318, 'distance_accuracy_value', 'NONE');
#36 = ORIENTED_EDGE ( 'NONE', *, *, #106, .T. ) ;
#37 = CONICAL_SURFACE ( 'NONE', #119, 0.1031100000000005484, 0.7853981633974410625 ) ;
#38 = ORIENTED_EDGE ( 'NONE', *, *, #6, .F. ) ;
#39 = CARTESIAN_POINT ( 'NONE',  ( 0.0000000000000000000, 0.0000000000000000000, 1.732283000000000239 ) ) ;
#40 = DIRECTION ( 'NONE',  ( 0.08304547985374029218, 0.0000000000000000000, 0.9965457582448795648 ) ) ;
#41 = DIRECTION ( 'NONE',  ( 0.0000000000000000000, 0.0000000000000000000, -1.000000000000000000 ) ) ;
#42 = ORIENTED_EDGE ( 'NONE', *, *, #6, .T. ) ;
#43 = DIRECTION ( 'NONE',  ( -0.0000000000000000000, -0.0000000000000000000, -1.000000000000000000 ) ) ;
#44 = VERTEX_POINT ( 'NONE', #74 ) ;
#45 = EDGE_CURVE ( 'NONE', #107, #120, #23, .T. ) ;
#46 = VECTOR ( 'NONE', #11, 39.37007874015748143 ) ;
#47 = FACE_OUTER_BOUND ( 'NONE', #181, .T. ) ;
#48 = CARTESIAN_POINT ( 'NONE',  ( 0.0000000000000000000, 0.0000000000000000000, 3.922007999999999939 ) ) ;
#49 = DIRECTION ( 'NONE',  ( -0.0000000000000000000, -0.0000000000000000000, -1.000000000000000000 ) ) ;
#50 = EDGE_CURVE ( 'NONE', #264, #236, #180, .T. ) ;
#51 = CYLINDRICAL_SURFACE ( 'NONE', #105, 0.1181100000000000344 ) ;
#52 = ADVANCED_FACE ( 'NONE', ( #283 ), #330, .T. ) ;
#53 = CARTESIAN_POINT ( 'NONE',  ( 0.0000000000000000000, 0.0000000000000000000, 0.0000000000000000000 ) ) ;
#54 = CONICAL_SURFACE ( 'NONE', #317, 0.1031100000000005484, 0.7853981633974410625 ) ;
#55 = DIRECTION ( 'NONE',  ( -1.000000000000000000, 0.0000000000000000000, 0.0000000000000000000 ) ) ;
#56 = AXIS2_PLACEMENT_3D ( 'NONE', #338, #5, #239 ) ;
#57 = CARTESIAN_POINT ( 'NONE',  ( -0.1181100000000000344, 0.0000000000000000000, 3.922007999999999939 ) ) ;
#58 = DIRECTION ( 'NONE',  ( -0.0000000000000000000, -0.0000000000000000000, -1.000000000000000000 ) ) ;
#59 = ORIENTED_EDGE ( 'NONE', *, *, #50, .T. ) ;
#60 = ADVANCED_FACE ( 'NONE', ( #127 ), #182, .T. ) ;
#61 = VERTEX_POINT ( 'NONE', #336 ) ;
#62 = CIRCLE ( 'NONE', #205, 0.1181100000000000344 ) ;
#63 = EDGE_CURVE ( 'NONE', #236, #61, #307, .T. ) ;
#64 = ORIENTED_EDGE ( 'NONE', *, *, #71, .F. ) ;
#65 = CARTESIAN_POINT ( 'NONE',  ( 0.1181100000000000344, 1.446430334472939084E-17, 3.937007999999999619 ) ) ;
#66 = AXIS2_PLACEMENT_3D ( 'NONE', #174, #43, #152 ) ;
#67 = DIRECTION ( 'NONE',  ( 0.0000000000000000000, 0.0000000000000000000, -1.000000000000000000 ) ) ;
#68 = CYLINDRICAL_SURFACE ( 'NONE', #66, 0.1181100000000000344 ) ;
#69 = DIRECTION ( 'NONE',  ( 1.000000000000000000, 0.0000000000000000000, 0.0000000000000000000 ) ) ;
#70 = ADVANCED_FACE ( 'NONE', ( #101 ), #252, .T. ) ;
#71 = EDGE_CURVE ( 'NONE', #61, #227, #313, .T. ) ;
#72 = LINE ( 'NONE', #299, #46 ) ;
#73 = DIRECTION ( 'NONE',  ( 0.7071067811865422437, 8.659560562354868763E-17, -0.7071067811865526798 ) ) ;
#74 = CARTESIAN_POINT ( 'NONE',  ( 0.07873999999999985178, 0.0000000000000000000, 1.259842999999999824 ) ) ;
#75 = STYLED_ITEM ( 'NONE', ( #91 ), #195 ) ;
#76 = FILL_AREA_STYLE ('',( #171 ) ) ;
#77 = DIRECTION ( 'NONE',  ( -1.000000000000000000, 0.0000000000000000000, 0.0000000000000000000 ) ) ;
#78 = LINE ( 'NONE', #258, #234 ) ;
#79 = CARTESIAN_POINT ( 'NONE',  ( 0.0000000000000000000, 0.0000000000000000000, 0.2061439962741667686 ) ) ;
#80 = CARTESIAN_POINT ( 'NONE',  ( -0.1299209999999998422, 1.591073367920230651E-17, 1.874014999999997322 ) ) ;
#81 = EDGE_CURVE ( 'NONE', #44, #277, #10, .T. ) ;
#82 = AXIS2_PLACEMENT_3D ( 'NONE', #48, #184, #232 ) ;
#83 = PRODUCT_CONTEXT ( 'NONE', #28, 'mechanical' ) ;
#84 = EDGE_CURVE ( 'NONE', #277, #120, #257, .T. ) ;
#85 = SURFACE_SIDE_STYLE ('',( #215 ) ) ;
#86 = DIMENSIONAL_EXPONENTS ( 1.000000000000000000, 0.0000000000000000000, 0.0000000000000000000, 0.0000000000000000000, 0.0000000000000000000, 0.0000000000000000000, 0.0000000000000000000 ) ;
#87 = CIRCLE ( 'NONE', #56, 0.1181099999999999928 ) ;
#88 = ORIENTED_EDGE ( 'NONE', *, *, #12, .F. ) ;
#89 = DIRECTION ( 'NONE',  ( 0.0000000000000000000, 0.0000000000000000000, 1.000000000000000000 ) ) ;
#90 = ORIENTED_EDGE ( 'NONE', *, *, #81, .T. ) ;
#91 = PRESENTATION_STYLE_ASSIGNMENT (( #204 ) ) ;
#92 = ORIENTED_EDGE ( 'NONE', *, *, #213, .T. ) ;
#93 = FACE_OUTER_BOUND ( 'NONE', #305, .T. ) ;
#94 = AXIS2_PLACEMENT_3D ( 'NONE', #278, #220, #124 ) ;
#95 = EDGE_LOOP ( 'NONE', ( #117, #292, #168, #200 ) ) ;
#96 = AXIS2_PLACEMENT_3D ( 'NONE', #345, #89, #167 ) ;
#97 = ORIENTED_EDGE ( 'NONE', *, *, #140, .F. ) ;
#98 = FACE_OUTER_BOUND ( 'NONE', #95, .T. ) ;
#99 = ORIENTED_EDGE ( 'NONE', *, *, #106, .F. ) ;
#100 = SURFACE_STYLE_FILL_AREA ( #76 ) ;
#101 = FACE_OUTER_BOUND ( 'NONE', #247, .T. ) ;
#102 = CARTESIAN_POINT ( 'NONE',  ( 9.642868896486255427E-18, -0.07873999999999996280, 0.2061439962741667686 ) ) ;
#103 = CARTESIAN_POINT ( 'NONE',  ( 0.1181100000000000344, 0.0000000000000000000, 1.732283000000000239 ) ) ;
#104 = DIRECTION ( 'NONE',  ( -0.0000000000000000000, -0.0000000000000000000, -1.000000000000000000 ) ) ;
#105 = AXIS2_PLACEMENT_3D ( 'NONE', #310, #58, #55 ) ;
#106 = EDGE_CURVE ( 'NONE', #122, #280, #229, .T. ) ;
#107 = VERTEX_POINT ( 'NONE', #103 ) ;
#108 = MECHANICAL_DESIGN_GEOMETRIC_PRESENTATION_REPRESENTATION (  '', ( #75 ), #163 ) ;
#109 = AXIS2_PLACEMENT_3D ( 'NONE', #164, #242, #267 ) ;
#110 = ORIENTED_EDGE ( 'NONE', *, *, #344, .T. ) ;
#111 =( GEOMETRIC_REPRESENTATION_CONTEXT ( 3 ) GLOBAL_UNCERTAINTY_ASSIGNED_CONTEXT ( ( #35 ) ) GLOBAL_UNIT_ASSIGNED_CONTEXT ( ( #318, #160, #295 ) ) REPRESENTATION_CONTEXT ( 'NONE', 'WORKASPACE' ) );
#112 = FACE_OUTER_BOUND ( 'NONE', #251, .T. ) ;
#113 = DIRECTION ( 'NONE',  ( -0.0000000000000000000, -0.0000000000000000000, -1.000000000000000000 ) ) ;
#114 = ORIENTED_EDGE ( 'NONE', *, *, #63, .T. ) ;
#115 = ADVANCED_FACE ( 'NONE', ( #208 ), #285, .T. ) ;
#116 = UNCERTAINTY_MEASURE_WITH_UNIT (LENGTH_MEASURE( 1.000000000000000082E-05 ), #8, 'distance_accuracy_value', 'NONE');
#117 = ORIENTED_EDGE ( 'NONE', *, *, #165, .F. ) ;
#118 = CARTESIAN_POINT ( 'NONE',  ( 0.0000000000000000000, 0.0000000000000000000, 0.0000000000000000000 ) ) ;
#119 = AXIS2_PLACEMENT_3D ( 'NONE', #146, #67, #14 ) ;
#120 = VERTEX_POINT ( 'NONE', #287 ) ;
#121 = DIRECTION ( 'NONE',  ( -0.0000000000000000000, -0.0000000000000000000, -1.000000000000000000 ) ) ;
#122 = VERTEX_POINT ( 'NONE', #57 ) ;
#123 = APPLICATION_CONTEXT ( 'automotive_design' ) ;
#124 = DIRECTION ( 'NONE',  ( 0.0000000000000000000, 0.0000000000000000000, 1.000000000000000000 ) ) ;
#125 = DIRECTION ( 'NONE',  ( 1.000000000000000000, 0.0000000000000000000, 0.0000000000000000000 ) ) ;
#126 = ADVANCED_FACE ( 'NONE', ( #93 ), #308, .T. ) ;
#127 = FACE_OUTER_BOUND ( 'NONE', #137, .T. ) ;
#128 = VECTOR ( 'NONE', #73, 39.37007874015748854 ) ;
#129 = CARTESIAN_POINT ( 'NONE',  ( 0.0000000000000000000, 0.0000000000000000000, 1.874014999999997322 ) ) ;
#130 = EDGE_CURVE ( 'NONE', #227, #264, #286, .T. ) ;
#131 = AXIS2_PLACEMENT_3D ( 'NONE', #129, #256, #20 ) ;
#132 = FILL_AREA_STYLE_COLOUR ( '', #329 ) ;
#133 = FACE_OUTER_BOUND ( 'NONE', #1, .T. ) ;
#134 = AXIS2_PLACEMENT_3D ( 'NONE', #228, #121, #143 ) ;
#135 =( NAMED_UNIT ( * ) SI_UNIT ( $, .STERADIAN. ) SOLID_ANGLE_UNIT ( ) );
#136 = COLOUR_RGB ( '',0.7921568627450980005, 0.8196078431372548767, 0.9333333333333333481 ) ;
#137 = EDGE_LOOP ( 'NONE', ( #15, #114, #323, #224 ) ) ;
#138 = DIRECTION ( 'NONE',  ( -0.0000000000000000000, -0.0000000000000000000, -1.000000000000000000 ) ) ;
#139 = ADVANCED_FACE ( 'NONE', ( #98 ), #54, .T. ) ;
#140 = EDGE_CURVE ( 'NONE', #196, #122, #197, .T. ) ;
#141 = ORIENTED_EDGE ( 'NONE', *, *, #22, .F. ) ;
#142 = ORIENTED_EDGE ( 'NONE', *, *, #22, .T. ) ;
#143 = DIRECTION ( 'NONE',  ( -1.000000000000000000, 0.0000000000000000000, 0.0000000000000000000 ) ) ;
#144 = DIRECTION ( 'NONE',  ( 1.000000000000000000, 0.0000000000000000000, 0.0000000000000000000 ) ) ;
#145 = LINE ( 'NONE', #65, #170 ) ;
#146 = CARTESIAN_POINT ( 'NONE',  ( 0.0000000000000000000, 0.0000000000000000000, 3.937007999999999619 ) ) ;
#147 = DIRECTION ( 'NONE',  ( -0.0000000000000000000, -0.0000000000000000000, -1.000000000000000000 ) ) ;
#148 = ORIENTED_EDGE ( 'NONE', *, *, #50, .F. ) ;
#149 = VECTOR ( 'NONE', #40, 39.37007874015748854 ) ;
#150 = DIRECTION ( 'NONE',  ( -1.000000000000000000, 0.0000000000000000000, 0.0000000000000000000 ) ) ;
#151 = DIRECTION ( 'NONE',  ( 0.0000000000000000000, 1.000000000000000000, 0.0000000000000000000 ) ) ;
#152 = DIRECTION ( 'NONE',  ( -1.000000000000000000, 0.0000000000000000000, 0.0000000000000000000 ) ) ;
#153 = DIRECTION ( 'NONE',  ( -0.0000000000000000000, -0.0000000000000000000, -1.000000000000000000 ) ) ;
#154 = DIRECTION ( 'NONE',  ( 1.000000000000000000, 0.0000000000000000000, 0.0000000000000000000 ) ) ;
#155 = DIRECTION ( 'NONE',  ( -0.0000000000000000000, -0.0000000000000000000, -1.000000000000000000 ) ) ;
#156 = CIRCLE ( 'NONE', #94, 0.1181099999999999789 ) ;
#157 = DIRECTION ( 'NONE',  ( 1.000000000000000000, 0.0000000000000000000, 0.0000000000000000000 ) ) ;
#158 = DIRECTION ( 'NONE',  ( -0.0000000000000000000, -0.0000000000000000000, -1.000000000000000000 ) ) ;
#159 = AXIS2_PLACEMENT_3D ( 'NONE', #333, #147, #276 ) ;
#160 =( NAMED_UNIT ( * ) PLANE_ANGLE_UNIT ( ) SI_UNIT ( $, .RADIAN. ) );
#161 = ORIENTED_EDGE ( 'NONE', *, *, #178, .T. ) ;
#162 = ORIENTED_EDGE ( 'NONE', *, *, #130, .T. ) ;
#163 =( GEOMETRIC_REPRESENTATION_CONTEXT ( 3 ) GLOBAL_UNCERTAINTY_ASSIGNED_CONTEXT ( ( #172 ) ) GLOBAL_UNIT_ASSIGNED_CONTEXT ( ( #274, #17, #222 ) ) REPRESENTATION_CONTEXT ( 'NONE', 'WORKASPACE' ) );
#164 = CARTESIAN_POINT ( 'NONE',  ( 0.0000000000000000000, 0.0000000000000000000, 0.0000000000000000000 ) ) ;
#165 = EDGE_CURVE ( 'NONE', #9, #280, #301, .T. ) ;
#166 = ORIENTED_EDGE ( 'NONE', *, *, #213, .F. ) ;
#167 = DIRECTION ( 'NONE',  ( 1.000000000000000000, 0.0000000000000000000, -0.0000000000000000000 ) ) ;
#168 = ORIENTED_EDGE ( 'NONE', *, *, #140, .T. ) ;
#169 = ORIENTED_EDGE ( 'NONE', *, *, #165, .T. ) ;
#170 = VECTOR ( 'NONE', #281, 39.37007874015748143 ) ;
#171 = FILL_AREA_STYLE_COLOUR ( '', #136 ) ;
#172 = UNCERTAINTY_MEASURE_WITH_UNIT (LENGTH_MEASURE( 1.000000000000000082E-05 ), #274, 'distance_accuracy_value', 'NONE');
#173 = CARTESIAN_POINT ( 'NONE',  ( 0.1299209999999998422, 0.0000000000000000000, 1.874014999999997322 ) ) ;
#174 = CARTESIAN_POINT ( 'NONE',  ( 0.0000000000000000000, 0.0000000000000000000, 3.937007999999999619 ) ) ;
#175 = VERTEX_POINT ( 'NONE', #335 ) ;
#176 = CARTESIAN_POINT ( 'NONE',  ( -0.1031100000000005484, 0.0000000000000000000, 3.937007999999999619 ) ) ;
#177 = ORIENTED_EDGE ( 'NONE', *, *, #202, .F. ) ;
#178 = EDGE_CURVE ( 'NONE', #280, #107, #145, .T. ) ;
#179 = LENGTH_MEASURE_WITH_UNIT ( LENGTH_MEASURE( 0.02539999999999999897 ), #19 );
#180 = CIRCLE ( 'NONE', #210, 0.07873999999999996280 ) ;
#181 = EDGE_LOOP ( 'NONE', ( #194, #327, #110, #238 ) ) ;
#182 = SPHERICAL_SURFACE ( 'NONE', #31, 0.1181099999999999928 ) ;
#183 = CARTESIAN_POINT ( 'NONE',  ( 0.0000000000000000000, 0.0000000000000000000, 0.1181100000000000066 ) ) ;
#184 = DIRECTION ( 'NONE',  ( 0.0000000000000000000, 0.0000000000000000000, -1.000000000000000000 ) ) ;
#185 = CIRCLE ( 'NONE', #241, 0.1031100000000005484 ) ;
#186 = AXIS2_PLACEMENT_3D ( 'NONE', #118, #113, #13 ) ;
#187 = EDGE_CURVE ( 'NONE', #120, #107, #62, .T. ) ;
#188 = LENGTH_MEASURE_WITH_UNIT ( LENGTH_MEASURE( 0.02539999999999999897 ), #316 );
#189 = ADVANCED_FACE ( 'NONE', ( #253 ), #68, .T. ) ;
#190 = AXIS2_PLACEMENT_3D ( 'NONE', #341, #207, #154 ) ;
#191 = SHAPE_DEFINITION_REPRESENTATION ( #30, #29 ) ;
#192 = DIMENSIONAL_EXPONENTS ( 1.000000000000000000, 0.0000000000000000000, 0.0000000000000000000, 0.0000000000000000000, 0.0000000000000000000, 0.0000000000000000000, 0.0000000000000000000 ) ;
#193 = CARTESIAN_POINT ( 'NONE',  ( -0.1181100000000000344, 0.0000000000000000000, 3.937007999999999619 ) ) ;
#194 = ORIENTED_EDGE ( 'NONE', *, *, #178, .F. ) ;
#195 = MANIFOLD_SOLID_BREP ( 'Cut-Revolve3', #294 ) ;
#196 = VERTEX_POINT ( 'NONE', #176 ) ;
#197 = LINE ( 'NONE', #199, #240 ) ;
#198 = CARTESIAN_POINT ( 'NONE',  ( 0.1031100000000005484, 1.354581824536890879E-17, 3.937007999999999619 ) ) ;
#199 = CARTESIAN_POINT ( 'NONE',  ( -0.1031100000000005484, 0.0000000000000000000, 3.937007999999999619 ) ) ;
#200 = ORIENTED_EDGE ( 'NONE', *, *, #271, .F. ) ;
#201 = DIRECTION ( 'NONE',  ( 0.0000000000000000000, 0.0000000000000000000, 1.000000000000000000 ) ) ;
#202 = EDGE_CURVE ( 'NONE', #227, #175, #156, .T. ) ;
#203 = ORIENTED_EDGE ( 'NONE', *, *, #45, .T. ) ;
#204 = SURFACE_STYLE_USAGE ( .BOTH. , #250 ) ;
#205 = AXIS2_PLACEMENT_3D ( 'NONE', #39, #201, #255 ) ;
#206 = DIRECTION ( 'NONE',  ( 1.000000000000000000, 0.0000000000000000000, 0.0000000000000000000 ) ) ;
#207 = DIRECTION ( 'NONE',  ( 0.0000000000000000000, 0.0000000000000000000, 1.000000000000000000 ) ) ;
#208 = FACE_OUTER_BOUND ( 'NONE', #304, .T. ) ;
#209 = CARTESIAN_POINT ( 'NONE',  ( 0.0000000000000000000, 0.0000000000000000000, 0.2061439962741667686 ) ) ;
#210 = AXIS2_PLACEMENT_3D ( 'NONE', #209, #104, #77 ) ;
#211 =( GEOMETRIC_REPRESENTATION_CONTEXT ( 3 ) GLOBAL_UNCERTAINTY_ASSIGNED_CONTEXT ( ( #116 ) ) GLOBAL_UNIT_ASSIGNED_CONTEXT ( ( #8, #269, #135 ) ) REPRESENTATION_CONTEXT ( 'NONE', 'WORKASPACE' ) );
#212 = SURFACE_STYLE_USAGE ( .BOTH. , #85 ) ;
#213 = EDGE_CURVE ( 'NONE', #277, #44, #16, .T. ) ;
#214 = AXIS2_PLACEMENT_3D ( 'NONE', #53, #155, #260 ) ;
#215 = SURFACE_STYLE_FILL_AREA ( #291 ) ;
#216 = MECHANICAL_DESIGN_GEOMETRIC_PRESENTATION_REPRESENTATION (  '', ( #230 ), #111 ) ;
#217 = CARTESIAN_POINT ( 'NONE',  ( 0.0000000000000000000, 0.0000000000000000000, 1.732283000000000239 ) ) ;
#218 = PRODUCT_RELATED_PRODUCT_CATEGORY ( 'part', '', ( #261 ) ) ;
#219 = ORIENTED_EDGE ( 'NONE', *, *, #12, .T. ) ;
#220 = DIRECTION ( 'NONE',  ( -1.000000000000000000, 0.0000000000000000000, 0.0000000000000000000 ) ) ;
#221 = ORIENTED_EDGE ( 'NONE', *, *, #81, .F. ) ;
#222 =( NAMED_UNIT ( * ) SI_UNIT ( $, .STERADIAN. ) SOLID_ANGLE_UNIT ( ) );
#223 = ADVANCED_FACE ( 'NONE', ( #226 ), #326, .T. ) ;
#224 = ORIENTED_EDGE ( 'NONE', *, *, #202, .T. ) ;
#225 = ADVANCED_FACE ( 'NONE', ( #47 ), #51, .T. ) ;
#226 = FACE_OUTER_BOUND ( 'NONE', #319, .T. ) ;
#227 = VERTEX_POINT ( 'NONE', #290 ) ;
#228 = CARTESIAN_POINT ( 'NONE',  ( 0.0000000000000000000, 0.0000000000000000000, 1.259842999999999824 ) ) ;
#229 = CIRCLE ( 'NONE', #82, 0.1181100000000000344 ) ;
#230 = STYLED_ITEM ( 'NONE', ( #296 ), #29 ) ;
#231 = DIRECTION ( 'NONE',  ( 0.0000000000000000000, 0.0000000000000000000, 1.000000000000000000 ) ) ;
#232 = DIRECTION ( 'NONE',  ( 1.000000000000000000, 0.0000000000000000000, 0.0000000000000000000 ) ) ;
#233 = DIRECTION ( 'NONE',  ( 0.0000000000000000000, 1.000000000000000000, 0.0000000000000000000 ) ) ;
#234 = VECTOR ( 'NONE', #24, 39.37007874015748143 ) ;
#235 = CARTESIAN_POINT ( 'NONE',  ( -0.07873999999999985178, 1.205358612060781697E-17, 1.259842999999999824 ) ) ;
#236 = VERTEX_POINT ( 'NONE', #102 ) ;
#237 = PLANE ( 'NONE',  #96 ) ;
#238 = ORIENTED_EDGE ( 'NONE', *, *, #187, .T. ) ;
#239 = DIRECTION ( 'NONE',  ( -1.224646799147353207E-16, 1.000000000000000000, 0.0000000000000000000 ) ) ;
#240 = VECTOR ( 'NONE', #298, 39.37007874015748854 ) ;
#241 = AXIS2_PLACEMENT_3D ( 'NONE', #254, #18, #144 ) ;
#242 = DIRECTION ( 'NONE',  ( 0.0000000000000000000, 0.0000000000000000000, 1.000000000000000000 ) ) ;
#243 = PRODUCT_DEFINITION_CONTEXT ( 'detailed design', #123, 'design' ) ;
#244 = ORIENTED_EDGE ( 'NONE', *, *, #306, .T. ) ;
#245 = AXIS2_PLACEMENT_3D ( 'NONE', #248, #284, #233 ) ;
#246 = PRESENTATION_LAYER_ASSIGNMENT (  '', '', ( #230 ) ) ;
#247 = EDGE_LOOP ( 'NONE', ( #166, #321, #315, #88 ) ) ;
#248 = CARTESIAN_POINT ( 'NONE',  ( 0.0000000000000000000, 0.0000000000000000000, 0.1181100000000000066 ) ) ;
#249 = DIRECTION ( 'NONE',  ( 0.0000000000000000000, 0.0000000000000000000, 1.000000000000000000 ) ) ;
#250 = SURFACE_SIDE_STYLE ('',( #100 ) ) ;
#251 = EDGE_LOOP ( 'NONE', ( #141, #169, #99, #97 ) ) ;
#252 = CONICAL_SURFACE ( 'NONE', #322, 0.1299209999999998422, 0.08314123188844155243 ) ;
#253 = FACE_OUTER_BOUND ( 'NONE', #279, .T. ) ;
#254 = CARTESIAN_POINT ( 'NONE',  ( 0.0000000000000000000, 0.0000000000000000000, 3.937007999999999619 ) ) ;
#255 = DIRECTION ( 'NONE',  ( 1.000000000000000000, 0.0000000000000000000, 0.0000000000000000000 ) ) ;
#256 = DIRECTION ( 'NONE',  ( 0.0000000000000000000, 0.0000000000000000000, 1.000000000000000000 ) ) ;
#257 = LINE ( 'NONE', #80, #27 ) ;
#258 = CARTESIAN_POINT ( 'NONE',  ( 0.07873999999999992117, 9.642868896486249264E-18, 0.0000000000000000000 ) ) ;
#259 = PRESENTATION_LAYER_ASSIGNMENT (  '', '', ( #75 ) ) ;
#260 = DIRECTION ( 'NONE',  ( -1.000000000000000000, 0.0000000000000000000, 0.0000000000000000000 ) ) ;
#261 = PRODUCT ( 'Micro_SBMM-060-348', 'Micro_SBMM-060-348', '', ( #83 ) ) ;
#262 = CARTESIAN_POINT ( 'NONE',  ( 0.07873999999999996280, 9.642868896486255427E-18, 0.2061439962741667686 ) ) ;
#263 = APPLICATION_PROTOCOL_DEFINITION ( 'draft international standard', 'automotive_design', 1998, #123 ) ;
#264 = VERTEX_POINT ( 'NONE', #262 ) ;
#265 = CIRCLE ( 'NONE', #342, 0.1181100000000000344 ) ;
#266 = PRODUCT_DEFINITION_FORMATION_WITH_SPECIFIED_SOURCE ( 'ANY', '', #261, .NOT_KNOWN. ) ;
#267 = DIRECTION ( 'NONE',  ( 1.000000000000000000, 0.0000000000000000000, 0.0000000000000000000 ) ) ;
#268 = EDGE_LOOP ( 'NONE', ( #272, #221, #219, #332 ) ) ;
#269 =( NAMED_UNIT ( * ) PLANE_ANGLE_UNIT ( ) SI_UNIT ( $, .RADIAN. ) );
#270 = DIMENSIONAL_EXPONENTS ( 1.000000000000000000, 0.0000000000000000000, 0.0000000000000000000, 0.0000000000000000000, 0.0000000000000000000, 0.0000000000000000000, 0.0000000000000000000 ) ;
#271 = EDGE_CURVE ( 'NONE', #280, #122, #265, .T. ) ;
#272 = ORIENTED_EDGE ( 'NONE', *, *, #84, .F. ) ;
#273 = AXIS2_PLACEMENT_3D ( 'NONE', #217, #249, #69 ) ;
#274 =( CONVERSION_BASED_UNIT ( 'INCH', #179 ) LENGTH_UNIT ( ) NAMED_UNIT ( #192 ) );
#275 = ORIENTED_EDGE ( 'NONE', *, *, #63, .F. ) ;
#276 = DIRECTION ( 'NONE',  ( -1.000000000000000000, 0.0000000000000000000, 0.0000000000000000000 ) ) ;
#277 = VERTEX_POINT ( 'NONE', #235 ) ;
#278 = CARTESIAN_POINT ( 'NONE',  ( 0.0000000000000000000, 0.0000000000000000000, 0.1181100000000000066 ) ) ;
#279 = EDGE_LOOP ( 'NONE', ( #36, #161, #203, #334 ) ) ;
#280 = VERTEX_POINT ( 'NONE', #343 ) ;
#281 = DIRECTION ( 'NONE',  ( -0.0000000000000000000, -0.0000000000000000000, -1.000000000000000000 ) ) ;
#282 = PRODUCT_DEFINITION ( 'UNKNOWN', '', #266, #243 ) ;
#283 = FACE_OUTER_BOUND ( 'NONE', #268, .T. ) ;
#284 = DIRECTION ( 'NONE',  ( 1.000000000000000000, 0.0000000000000000000, 0.0000000000000000000 ) ) ;
#285 = CYLINDRICAL_SURFACE ( 'NONE', #214, 0.07873999999999992117 ) ;
#286 = CIRCLE ( 'NONE', #159, 0.07873999999999996280 ) ;
#287 = CARTESIAN_POINT ( 'NONE',  ( -0.1181100000000000344, 1.446430334472939393E-17, 1.732283000000000239 ) ) ;
#288 = VECTOR ( 'NONE', #138, 39.37007874015748143 ) ;
#289 = EDGE_CURVE ( 'NONE', #196, #9, #293, .T. ) ;
#290 = CARTESIAN_POINT ( 'NONE',  ( 0.0000000000000000000, 0.07873999999999996280, 0.2061439962741667686 ) ) ;
#291 = FILL_AREA_STYLE ('',( #132 ) ) ;
#292 = ORIENTED_EDGE ( 'NONE', *, *, #289, .F. ) ;
#293 = CIRCLE ( 'NONE', #190, 0.1031100000000005484 ) ;
#294 = CLOSED_SHELL ( 'NONE', ( #7, #189, #126, #70, #223, #60, #52, #115, #225, #339, #139 ) ) ;
#295 =( NAMED_UNIT ( * ) SI_UNIT ( $, .STERADIAN. ) SOLID_ANGLE_UNIT ( ) );
#296 = PRESENTATION_STYLE_ASSIGNMENT (( #212 ) ) ;
#297 = ORIENTED_EDGE ( 'NONE', *, *, #325, .T. ) ;
#298 = DIRECTION ( 'NONE',  ( -0.7071067811865422437, 0.0000000000000000000, -0.7071067811865526798 ) ) ;
#299 = CARTESIAN_POINT ( 'NONE',  ( -0.07873999999999992117, 0.0000000000000000000, 0.0000000000000000000 ) ) ;
#300 = AXIS2_PLACEMENT_3D ( 'NONE', #312, #49, #309 ) ;
#301 = LINE ( 'NONE', #331, #128 ) ;
#302 = LINE ( 'NONE', #173, #149 ) ;
#303 = CARTESIAN_POINT ( 'NONE',  ( 0.0000000000000000000, 0.0000000000000000000, 3.937007999999999619 ) ) ;
#304 = EDGE_LOOP ( 'NONE', ( #324, #90, #42, #275, #148 ) ) ;
#305 = EDGE_LOOP ( 'NONE', ( #92, #244, #33, #64, #38 ) ) ;
#306 = EDGE_CURVE ( 'NONE', #44, #264, #78, .T. ) ;
#307 = CIRCLE ( 'NONE', #328, 0.07873999999999996280 ) ;
#308 = CYLINDRICAL_SURFACE ( 'NONE', #186, 0.07873999999999992117 ) ;
#309 = DIRECTION ( 'NONE',  ( -1.000000000000000000, 0.0000000000000000000, 0.0000000000000000000 ) ) ;
#310 = CARTESIAN_POINT ( 'NONE',  ( 0.0000000000000000000, 0.0000000000000000000, 3.937007999999999619 ) ) ;
#311 = CARTESIAN_POINT ( 'NONE',  ( 0.0000000000000000000, 0.0000000000000000000, 1.874014999999997322 ) ) ;
#312 = CARTESIAN_POINT ( 'NONE',  ( 0.0000000000000000000, 0.0000000000000000000, 0.2061439962741667686 ) ) ;
#313 = CIRCLE ( 'NONE', #300, 0.07873999999999996280 ) ;
#314 = DIRECTION ( 'NONE',  ( 0.0000000000000000000, 0.0000000000000000000, -1.000000000000000000 ) ) ;
#315 = ORIENTED_EDGE ( 'NONE', *, *, #45, .F. ) ;
#316 =( LENGTH_UNIT ( ) NAMED_UNIT ( * ) SI_UNIT ( $, .METRE. ) );
#317 = AXIS2_PLACEMENT_3D ( 'NONE', #303, #41, #150 ) ;
#318 =( CONVERSION_BASED_UNIT ( 'INCH', #188 ) LENGTH_UNIT ( ) NAMED_UNIT ( #86 ) );
#319 = EDGE_LOOP ( 'NONE', ( #162, #59, #297, #177 ) ) ;
#320 =( LENGTH_UNIT ( ) NAMED_UNIT ( * ) SI_UNIT ( $, .METRE. ) );
#321 = ORIENTED_EDGE ( 'NONE', *, *, #84, .T. ) ;
#322 = AXIS2_PLACEMENT_3D ( 'NONE', #311, #231, #206 ) ;
#323 = ORIENTED_EDGE ( 'NONE', *, *, #71, .T. ) ;
#324 = ORIENTED_EDGE ( 'NONE', *, *, #306, .F. ) ;
#325 = EDGE_CURVE ( 'NONE', #236, #175, #87, .T. ) ;
#326 = SPHERICAL_SURFACE ( 'NONE', #245, 0.1181099999999999928 ) ;
#327 = ORIENTED_EDGE ( 'NONE', *, *, #271, .T. ) ;
#328 = AXIS2_PLACEMENT_3D ( 'NONE', #79, #158, #25 ) ;
#329 = COLOUR_RGB ( '',0.7921568627450980005, 0.8196078431372548767, 0.9333333333333333481 ) ;
#330 = CONICAL_SURFACE ( 'NONE', #131, 0.1299209999999998422, 0.08314123188844155243 ) ;
#331 = CARTESIAN_POINT ( 'NONE',  ( 0.1031100000000005484, 1.262733314600842673E-17, 3.937007999999999619 ) ) ;
#332 = ORIENTED_EDGE ( 'NONE', *, *, #187, .F. ) ;
#333 = CARTESIAN_POINT ( 'NONE',  ( 0.0000000000000000000, 0.0000000000000000000, 0.2061439962741667686 ) ) ;
#334 = ORIENTED_EDGE ( 'NONE', *, *, #344, .F. ) ;
#335 = CARTESIAN_POINT ( 'NONE',  ( 0.0000000000000000000, 7.232151672364693882E-18, 1.707404996040164512E-17 ) ) ;
#336 = CARTESIAN_POINT ( 'NONE',  ( -0.07873999999999996280, 0.0000000000000000000, 0.2061439962741667686 ) ) ;
#337 = CARTESIAN_POINT ( 'NONE',  ( 0.0000000000000000000, 0.0000000000000000000, 1.259842999999999824 ) ) ;
#338 = CARTESIAN_POINT ( 'NONE',  ( 0.0000000000000000000, 0.0000000000000000000, 0.1181100000000000066 ) ) ;
#339 = ADVANCED_FACE ( 'NONE', ( #133 ), #237, .T. ) ;
#340 = DIRECTION ( 'NONE',  ( -1.000000000000000000, 0.0000000000000000000, 0.0000000000000000000 ) ) ;
#341 = CARTESIAN_POINT ( 'NONE',  ( 0.0000000000000000000, 0.0000000000000000000, 3.937007999999999619 ) ) ;
#342 = AXIS2_PLACEMENT_3D ( 'NONE', #26, #314, #157 ) ;
#343 = CARTESIAN_POINT ( 'NONE',  ( 0.1181100000000000344, 1.446430334472939084E-17, 3.922007999999999939 ) ) ;
#344 = EDGE_CURVE ( 'NONE', #122, #120, #34, .T. ) ;
#345 = CARTESIAN_POINT ( 'NONE',  ( 0.0000000000000000000, 0.0000000000000000000, 3.937007999999999619 ) ) ;
ENDSEC;
END-ISO-10303-21;
