ISO-10303-21;
HEADER;
FILE_DESCRIPTION (( 'STEP AP214' ),
    '1' );
FILE_NAME ('Micro_SEM-109-03.STEP',
    '2021-09-02T01:18:36',
    ( '' ),
    ( '' ),
    'SwSTEP 2.0',
    'SolidWorks 2020',
    '' );
FILE_SCHEMA (( 'AUTOMOTIVE_DESIGN' ));
ENDSEC;

DATA;
#1 = CARTESIAN_POINT ( 'NONE',  ( -0.06249999999999997224, 0.0000000000000000000, 0.2325462173085509621 ) ) ;
#2 = PRODUCT_DEFINITION_FORMATION_WITH_SPECIFIED_SOURCE ( 'ANY', '', #15, .NOT_KNOWN. ) ;
#3 = DIRECTION ( 'NONE',  ( 1.000000000000000000, 0.0000000000000000000, 0.0000000000000000000 ) ) ;
#4 = DIRECTION ( 'NONE',  ( 0.0000000000000000000, 0.0000000000000000000, -1.000000000000000000 ) ) ;
#5 = MECHANICAL_DESIGN_GEOMETRIC_PRESENTATION_REPRESENTATION (  '', ( #221 ), #213 ) ;
#6 = CONICAL_SURFACE ( 'NONE', #186, 0.05464530000000000776, 0.1745329251994339192 ) ;
#7 = DIRECTION ( 'NONE',  ( -1.224646799147353454E-16, -0.0000000000000000000, -1.000000000000000000 ) ) ;
#8 = DIRECTION ( 'NONE',  ( 0.0000000000000000000, 0.0000000000000000000, 1.000000000000000000 ) ) ;
#9 =( GEOMETRIC_REPRESENTATION_CONTEXT ( 3 ) GLOBAL_UNCERTAINTY_ASSIGNED_CONTEXT ( ( #106 ) ) GLOBAL_UNIT_ASSIGNED_CONTEXT ( ( #135, #159, #109 ) ) REPRESENTATION_CONTEXT ( 'NONE', 'WORKASPACE' ) );
#10 = SURFACE_SIDE_STYLE ('',( #31 ) ) ;
#11 = DIMENSIONAL_EXPONENTS ( 1.000000000000000000, 0.0000000000000000000, 0.0000000000000000000, 0.0000000000000000000, 0.0000000000000000000, 0.0000000000000000000, 0.0000000000000000000 ) ;
#12 = CARTESIAN_POINT ( 'NONE',  ( 0.0000000000000000000, 0.0000000000000000000, 0.0000000000000000000 ) ) ;
#13 = ORIENTED_EDGE ( 'NONE', *, *, #83, .F. ) ;
#14 = AXIS2_PLACEMENT_3D ( 'NONE', #128, #4, #105 ) ;
#15 = PRODUCT ( 'Micro_SEM-109-03', 'Micro_SEM-109-03', '', ( #264 ) ) ;
#16 = LINE ( 'NONE', #254, #115 ) ;
#17 = ORIENTED_EDGE ( 'NONE', *, *, #74, .F. ) ;
#18 = ADVANCED_FACE ( 'NONE', ( #125 ), #184, .T. ) ;
#19 = CARTESIAN_POINT ( 'NONE',  ( 0.05464530000000002857, 0.0000000000000000000, 0.1880000000000000282 ) ) ;
#20 = ORIENTED_EDGE ( 'NONE', *, *, #138, .T. ) ;
#21 = DIRECTION ( 'NONE',  ( 1.000000000000000000, 0.0000000000000000000, 0.0000000000000000000 ) ) ;
#22 = AXIS2_PLACEMENT_3D ( 'NONE', #119, #174, #233 ) ;
#23 = CIRCLE ( 'NONE', #56, 0.05464529999999999388 ) ;
#24 = ORIENTED_EDGE ( 'NONE', *, *, #138, .F. ) ;
#25 = PLANE ( 'NONE',  #287 ) ;
#26 = CARTESIAN_POINT ( 'NONE',  ( 2.847869806807417895E-17, 0.0000000000000000000, 0.2325462173085509621 ) ) ;
#27 = FACE_OUTER_BOUND ( 'NONE', #166, .T. ) ;
#28 = PRODUCT_RELATED_PRODUCT_CATEGORY ( 'part', '', ( #15 ) ) ;
#29 = CIRCLE ( 'NONE', #59, 0.05464530000000000776 ) ;
#30 =( NAMED_UNIT ( * ) PLANE_ANGLE_UNIT ( ) SI_UNIT ( $, .RADIAN. ) );
#31 = SURFACE_STYLE_FILL_AREA ( #263 ) ;
#32 = CIRCLE ( 'NONE', #67, 0.05464529999999999388 ) ;
#33 = CARTESIAN_POINT ( 'NONE',  ( 2.302335982397024786E-17, 0.0000000000000000000, 0.1880000000000000282 ) ) ;
#34 = ADVANCED_FACE ( 'NONE', ( #235 ), #224, .T. ) ;
#35 = CARTESIAN_POINT ( 'NONE',  ( -0.05464529999999998000, 7.173080834007822861E-18, 0.1880000000000000282 ) ) ;
#36 = PRESENTATION_LAYER_ASSIGNMENT (  '', '', ( #221 ) ) ;
#37 = VECTOR ( 'NONE', #216, 39.37007874015748143 ) ;
#38 =( CONVERSION_BASED_UNIT ( 'INCH', #298 ) LENGTH_UNIT ( ) NAMED_UNIT ( #189 ) );
#39 = ORIENTED_EDGE ( 'NONE', *, *, #183, .F. ) ;
#40 = FILL_AREA_STYLE ('',( #251 ) ) ;
#41 = AXIS2_PLACEMENT_3D ( 'NONE', #52, #45, #212 ) ;
#42 = FACE_OUTER_BOUND ( 'NONE', #91, .T. ) ;
#43 = SURFACE_STYLE_USAGE ( .BOTH. , #271 ) ;
#44 = EDGE_CURVE ( 'NONE', #51, #192, #269, .T. ) ;
#45 = DIRECTION ( 'NONE',  ( 0.0000000000000000000, 0.0000000000000000000, -1.000000000000000000 ) ) ;
#46 = ORIENTED_EDGE ( 'NONE', *, *, #187, .F. ) ;
#47 = CARTESIAN_POINT ( 'NONE',  ( -0.05464530000000000776, 0.0000000000000000000, 6.692119173344688177E-18 ) ) ;
#48 = ORIENTED_EDGE ( 'NONE', *, *, #265, .F. ) ;
#49 = COLOUR_RGB ( '',0.7921568627450980005, 0.8196078431372548767, 0.9333333333333333481 ) ;
#50 = CARTESIAN_POINT ( 'NONE',  ( -0.04750000000000064587, 0.0000000000000000000, 1.500000000000000222 ) ) ;
#51 = VERTEX_POINT ( 'NONE', #35 ) ;
#52 = CARTESIAN_POINT ( 'NONE',  ( 0.0000000000000000000, 0.0000000000000000000, 1.485000000000000764 ) ) ;
#53 = DIRECTION ( 'NONE',  ( 1.224646799147353454E-16, 0.0000000000000000000, 1.000000000000000000 ) ) ;
#54 = APPLICATION_PROTOCOL_DEFINITION ( 'draft international standard', 'automotive_design', 1998, #205 ) ;
#55 = AXIS2_PLACEMENT_3D ( 'NONE', #12, #90, #117 ) ;
#56 = AXIS2_PLACEMENT_3D ( 'NONE', #274, #230, #124 ) ;
#57 = DIRECTION ( 'NONE',  ( -1.000000000000000000, 0.0000000000000000000, 1.224646799147353454E-16 ) ) ;
#58 = SHAPE_DEFINITION_REPRESENTATION ( #82, #156 ) ;
#59 = AXIS2_PLACEMENT_3D ( 'NONE', #231, #201, #273 ) ;
#60 = CARTESIAN_POINT ( 'NONE',  ( 0.0000000000000000000, 0.0000000000000000000, 1.500000000000000222 ) ) ;
#61 = EDGE_CURVE ( 'NONE', #262, #279, #226, .T. ) ;
#62 = ORIENTED_EDGE ( 'NONE', *, *, #232, .T. ) ;
#63 = DIRECTION ( 'NONE',  ( 0.7071067811865456854, 8.659560562354911904E-17, -0.7071067811865493491 ) ) ;
#64 = DIRECTION ( 'NONE',  ( -1.000000000000000000, 0.0000000000000000000, 1.224646799147353700E-16 ) ) ;
#65 = VERTEX_POINT ( 'NONE', #114 ) ;
#66 = MANIFOLD_SOLID_BREP ( 'Cut-Revolve1', #272 ) ;
#67 = AXIS2_PLACEMENT_3D ( 'NONE', #252, #282, #64 ) ;
#68 = DIRECTION ( 'NONE',  ( 0.1736481776669314137, 0.0000000000000000000, 0.9848077530122077983 ) ) ;
#69 = ORIENTED_EDGE ( 'NONE', *, *, #148, .T. ) ;
#70 =( NAMED_UNIT ( * ) PLANE_ANGLE_UNIT ( ) SI_UNIT ( $, .RADIAN. ) );
#71 = EDGE_LOOP ( 'NONE', ( #259, #107, #69, #165 ) ) ;
#72 = CARTESIAN_POINT ( 'NONE',  ( 0.0000000000000000000, 0.0000000000000000000, 1.500000000000000222 ) ) ;
#73 = DIRECTION ( 'NONE',  ( -0.1736481776669312194, 2.126576849575783625E-17, 0.9848077530122080203 ) ) ;
#74 = EDGE_CURVE ( 'NONE', #51, #262, #290, .T. ) ;
#75 = DIRECTION ( 'NONE',  ( -1.224646799147353454E-16, -0.0000000000000000000, -1.000000000000000000 ) ) ;
#76 = ORIENTED_EDGE ( 'NONE', *, *, #155, .F. ) ;
#77 = CARTESIAN_POINT ( 'NONE',  ( 0.04750000000000064587, 6.735557395310482421E-18, 1.500000000000000222 ) ) ;
#78 = AXIS2_PLACEMENT_3D ( 'NONE', #60, #179, #85 ) ;
#79 = SURFACE_STYLE_USAGE ( .BOTH. , #10 ) ;
#80 = ORIENTED_EDGE ( 'NONE', *, *, #74, .T. ) ;
#81 = DIRECTION ( 'NONE',  ( 1.000000000000000000, 0.0000000000000000000, 0.0000000000000000000 ) ) ;
#82 = PRODUCT_DEFINITION_SHAPE ( 'NONE', 'NONE',  #292 ) ;
#83 = EDGE_CURVE ( 'NONE', #229, #239, #163, .T. ) ;
#84 = FACE_OUTER_BOUND ( 'NONE', #210, .T. ) ;
#85 = DIRECTION ( 'NONE',  ( -1.000000000000000000, 0.0000000000000000000, 0.0000000000000000000 ) ) ;
#86 =( GEOMETRIC_REPRESENTATION_CONTEXT ( 3 ) GLOBAL_UNCERTAINTY_ASSIGNED_CONTEXT ( ( #234 ) ) GLOBAL_UNIT_ASSIGNED_CONTEXT ( ( #217, #30, #181 ) ) REPRESENTATION_CONTEXT ( 'NONE', 'WORKASPACE' ) );
#87 = EDGE_CURVE ( 'NONE', #204, #239, #199, .T. ) ;
#88 = CIRCLE ( 'NONE', #276, 0.04750000000000064587 ) ;
#89 = DIMENSIONAL_EXPONENTS ( 1.000000000000000000, 0.0000000000000000000, 0.0000000000000000000, 0.0000000000000000000, 0.0000000000000000000, 0.0000000000000000000, 0.0000000000000000000 ) ;
#90 = DIRECTION ( 'NONE',  ( -1.224646799147353454E-16, -0.0000000000000000000, -1.000000000000000000 ) ) ;
#91 = EDGE_LOOP ( 'NONE', ( #241, #142, #130, #293 ) ) ;
#92 = VECTOR ( 'NONE', #168, 39.37007874015748143 ) ;
#93 = ORIENTED_EDGE ( 'NONE', *, *, #187, .T. ) ;
#94 = EDGE_LOOP ( 'NONE', ( #113, #143, #20, #195 ) ) ;
#95 = ADVANCED_FACE ( 'NONE', ( #84 ), #151, .T. ) ;
#96 = DIRECTION ( 'NONE',  ( 1.000000000000000000, 0.0000000000000000000, 0.0000000000000000000 ) ) ;
#97 = SURFACE_STYLE_FILL_AREA ( #40 ) ;
#98 = LINE ( 'NONE', #154, #92 ) ;
#99 = VECTOR ( 'NONE', #228, 39.37007874015748143 ) ;
#100 = CARTESIAN_POINT ( 'NONE',  ( 0.06250000000000002776, 7.654042494670959086E-18, 0.2325462173085509621 ) ) ;
#101 = DIRECTION ( 'NONE',  ( -1.000000000000000000, 0.0000000000000000000, 0.0000000000000000000 ) ) ;
#102 =( LENGTH_UNIT ( ) NAMED_UNIT ( * ) SI_UNIT ( $, .METRE. ) );
#103 = CARTESIAN_POINT ( 'NONE',  ( 0.0000000000000000000, 0.0000000000000000000, 1.500000000000000222 ) ) ;
#104 = CARTESIAN_POINT ( 'NONE',  ( -0.05464529999999998000, 6.692119173344686636E-18, 0.1880000000000000282 ) ) ;
#105 = DIRECTION ( 'NONE',  ( -1.000000000000000000, 0.0000000000000000000, 0.0000000000000000000 ) ) ;
#106 = UNCERTAINTY_MEASURE_WITH_UNIT (LENGTH_MEASURE( 1.000000000000000082E-05 ), #135, 'distance_accuracy_value', 'NONE');
#107 = ORIENTED_EDGE ( 'NONE', *, *, #223, .T. ) ;
#108 = STYLED_ITEM ( 'NONE', ( #134 ), #156 ) ;
#109 =( NAMED_UNIT ( * ) SI_UNIT ( $, .STERADIAN. ) SOLID_ANGLE_UNIT ( ) );
#110 = ADVANCED_FACE ( 'NONE', ( #291 ), #267, .T. ) ;
#111 = ORIENTED_EDGE ( 'NONE', *, *, #265, .T. ) ;
#112 = LENGTH_MEASURE_WITH_UNIT ( LENGTH_MEASURE( 0.02539999999999999897 ), #242 );
#113 = ORIENTED_EDGE ( 'NONE', *, *, #140, .F. ) ;
#114 = CARTESIAN_POINT ( 'NONE',  ( -0.05464529999999999388, 0.0000000000000000000, 1.338423834668937481E-17 ) ) ;
#115 = VECTOR ( 'NONE', #75, 39.37007874015748143 ) ;
#116 = ADVANCED_FACE ( 'NONE', ( #27 ), #133, .F. ) ;
#117 = DIRECTION ( 'NONE',  ( -1.000000000000000000, 0.0000000000000000000, 1.224646799147353454E-16 ) ) ;
#118 = CARTESIAN_POINT ( 'NONE',  ( 0.0000000000000000000, 0.0000000000000000000, 0.0000000000000000000 ) ) ;
#119 = CARTESIAN_POINT ( 'NONE',  ( 0.0000000000000000000, 0.0000000000000000000, 1.485000000000000764 ) ) ;
#120 = AXIS2_PLACEMENT_3D ( 'NONE', #33, #209, #266 ) ;
#121 = COLOUR_RGB ( '',0.7921568627450980005, 0.8196078431372548767, 0.9333333333333333481 ) ;
#122 = ORIENTED_EDGE ( 'NONE', *, *, #148, .F. ) ;
#123 = CARTESIAN_POINT ( 'NONE',  ( -0.06250000000000000000, 0.0000000000000000000, 1.500000000000000222 ) ) ;
#124 = DIRECTION ( 'NONE',  ( -1.000000000000000000, 0.0000000000000000000, 1.224646799147353700E-16 ) ) ;
#125 = FACE_OUTER_BOUND ( 'NONE', #180, .T. ) ;
#126 = VECTOR ( 'NONE', #73, 39.37007874015747433 ) ;
#127 = CIRCLE ( 'NONE', #157, 0.06250000000000000000 ) ;
#128 = CARTESIAN_POINT ( 'NONE',  ( 0.0000000000000000000, 0.0000000000000000000, 1.500000000000000222 ) ) ;
#129 = PRODUCT_DEFINITION_CONTEXT ( 'detailed design', #205, 'design' ) ;
#130 = ORIENTED_EDGE ( 'NONE', *, *, #155, .T. ) ;
#131 = CARTESIAN_POINT ( 'NONE',  ( 0.06250000000000000000, 7.654042494670956004E-18, 1.500000000000000222 ) ) ;
#132 = DIRECTION ( 'NONE',  ( -1.224646799147353454E-16, -0.0000000000000000000, -1.000000000000000000 ) ) ;
#133 = PLANE ( 'NONE',  #222 ) ;
#134 = PRESENTATION_STYLE_ASSIGNMENT (( #79 ) ) ;
#135 =( CONVERSION_BASED_UNIT ( 'INCH', #112 ) LENGTH_UNIT ( ) NAMED_UNIT ( #11 ) );
#136 = ADVANCED_FACE ( 'NONE', ( #278 ), #139, .T. ) ;
#137 = APPLICATION_PROTOCOL_DEFINITION ( 'draft international standard', 'automotive_design', 1998, #190 ) ;
#138 = EDGE_CURVE ( 'NONE', #51, #65, #145, .T. ) ;
#139 = CYLINDRICAL_SURFACE ( 'NONE', #161, 0.05464530000000000776 ) ;
#140 = EDGE_CURVE ( 'NONE', #192, #169, #16, .T. ) ;
#141 = AXIS2_PLACEMENT_3D ( 'NONE', #72, #173, #202 ) ;
#142 = ORIENTED_EDGE ( 'NONE', *, *, #220, .F. ) ;
#143 = ORIENTED_EDGE ( 'NONE', *, *, #183, .T. ) ;
#144 = EDGE_CURVE ( 'NONE', #192, #279, #198, .T. ) ;
#145 = LINE ( 'NONE', #47, #99 ) ;
#146 = PRESENTATION_STYLE_ASSIGNMENT (( #43 ) ) ;
#147 = DIRECTION ( 'NONE',  ( 1.224646799147353454E-16, 0.0000000000000000000, 1.000000000000000000 ) ) ;
#148 = EDGE_CURVE ( 'NONE', #229, #262, #280, .T. ) ;
#149 = DIRECTION ( 'NONE',  ( 0.0000000000000000000, 0.0000000000000000000, 1.000000000000000000 ) ) ;
#150 = CARTESIAN_POINT ( 'NONE',  ( 2.302335982397024786E-17, 0.0000000000000000000, 0.1880000000000000282 ) ) ;
#151 = CONICAL_SURFACE ( 'NONE', #240, 0.05464530000000000776, 0.1745329251994339192 ) ;
#152 = CARTESIAN_POINT ( 'NONE',  ( 0.05464530000000002857, 0.0000000000000000000, 0.1880000000000000282 ) ) ;
#153 = ORIENTED_EDGE ( 'NONE', *, *, #144, .T. ) ;
#154 = CARTESIAN_POINT ( 'NONE',  ( -0.04750000000000064587, 0.0000000000000000000, 1.500000000000000222 ) ) ;
#155 = EDGE_CURVE ( 'NONE', #215, #229, #98, .T. ) ;
#156 = ADVANCED_BREP_SHAPE_REPRESENTATION ( 'Micro_SEM-109-03', ( #66, #245 ), #9 ) ;
#157 = AXIS2_PLACEMENT_3D ( 'NONE', #26, #132, #3 ) ;
#158 = ORIENTED_EDGE ( 'NONE', *, *, #61, .F. ) ;
#159 =( NAMED_UNIT ( * ) PLANE_ANGLE_UNIT ( ) SI_UNIT ( $, .RADIAN. ) );
#160 = AXIS2_PLACEMENT_3D ( 'NONE', #288, #162, #225 ) ;
#161 = AXIS2_PLACEMENT_3D ( 'NONE', #118, #7, #57 ) ;
#162 = DIRECTION ( 'NONE',  ( -1.224646799147353454E-16, -0.0000000000000000000, -1.000000000000000000 ) ) ;
#163 = CIRCLE ( 'NONE', #22, 0.06250000000000000000 ) ;
#164 = PRESENTATION_LAYER_ASSIGNMENT (  '', '', ( #108 ) ) ;
#165 = ORIENTED_EDGE ( 'NONE', *, *, #248, .F. ) ;
#166 = EDGE_LOOP ( 'NONE', ( #93, #62 ) ) ;
#167 = EDGE_LOOP ( 'NONE', ( #295, #203, #46, #24 ) ) ;
#168 = DIRECTION ( 'NONE',  ( -0.7071067811865456854, 0.0000000000000000000, -0.7071067811865493491 ) ) ;
#169 = VERTEX_POINT ( 'NONE', #176 ) ;
#170 = DIRECTION ( 'NONE',  ( 1.000000000000000000, 0.0000000000000000000, -0.0000000000000000000 ) ) ;
#171 = ADVANCED_FACE ( 'NONE', ( #42 ), #256, .T. ) ;
#172 = EDGE_LOOP ( 'NONE', ( #246, #111 ) ) ;
#173 = DIRECTION ( 'NONE',  ( -0.0000000000000000000, -0.0000000000000000000, -1.000000000000000000 ) ) ;
#174 = DIRECTION ( 'NONE',  ( 0.0000000000000000000, 0.0000000000000000000, -1.000000000000000000 ) ) ;
#175 = ORIENTED_EDGE ( 'NONE', *, *, #87, .T. ) ;
#176 = CARTESIAN_POINT ( 'NONE',  ( 0.05464529999999999388, 6.692119173344685866E-18, 9.478001694819074349E-34 ) ) ;
#177 = AXIS2_PLACEMENT_3D ( 'NONE', #103, #297, #96 ) ;
#178 = FACE_OUTER_BOUND ( 'NONE', #284, .T. ) ;
#179 = DIRECTION ( 'NONE',  ( -0.0000000000000000000, -0.0000000000000000000, -1.000000000000000000 ) ) ;
#180 = EDGE_LOOP ( 'NONE', ( #48, #175, #13, #76 ) ) ;
#181 =( NAMED_UNIT ( * ) SI_UNIT ( $, .STERADIAN. ) SOLID_ANGLE_UNIT ( ) );
#182 = CARTESIAN_POINT ( 'NONE',  ( 0.0000000000000000000, 0.0000000000000000000, 0.0000000000000000000 ) ) ;
#183 = EDGE_CURVE ( 'NONE', #192, #51, #29, .T. ) ;
#184 = CONICAL_SURFACE ( 'NONE', #260, 0.04750000000000064587, 0.7853981633974457255 ) ;
#185 = LENGTH_MEASURE_WITH_UNIT ( LENGTH_MEASURE( 0.02539999999999999897 ), #261 );
#186 = AXIS2_PLACEMENT_3D ( 'NONE', #211, #147, #299 ) ;
#187 = EDGE_CURVE ( 'NONE', #65, #169, #32, .T. ) ;
#188 = ADVANCED_FACE ( 'NONE', ( #249 ), #25, .T. ) ;
#189 = DIMENSIONAL_EXPONENTS ( 1.000000000000000000, 0.0000000000000000000, 0.0000000000000000000, 0.0000000000000000000, 0.0000000000000000000, 0.0000000000000000000, 0.0000000000000000000 ) ;
#190 = APPLICATION_CONTEXT ( 'automotive_design' ) ;
#191 = ORIENTED_EDGE ( 'NONE', *, *, #83, .T. ) ;
#192 = VERTEX_POINT ( 'NONE', #19 ) ;
#193 = CYLINDRICAL_SURFACE ( 'NONE', #141, 0.06250000000000000000 ) ;
#194 = DIRECTION ( 'NONE',  ( -0.0000000000000000000, -0.0000000000000000000, -1.000000000000000000 ) ) ;
#195 = ORIENTED_EDGE ( 'NONE', *, *, #232, .F. ) ;
#196 = CIRCLE ( 'NONE', #41, 0.06250000000000000000 ) ;
#197 = DIRECTION ( 'NONE',  ( 0.0000000000000000000, 0.0000000000000000000, 1.000000000000000000 ) ) ;
#198 = LINE ( 'NONE', #152, #294 ) ;
#199 = LINE ( 'NONE', #247, #207 ) ;
#200 = UNCERTAINTY_MEASURE_WITH_UNIT (LENGTH_MEASURE( 1.000000000000000082E-05 ), #38, 'distance_accuracy_value', 'NONE');
#201 = DIRECTION ( 'NONE',  ( -1.224646799147353454E-16, -0.0000000000000000000, -1.000000000000000000 ) ) ;
#202 = DIRECTION ( 'NONE',  ( -1.000000000000000000, 0.0000000000000000000, 0.0000000000000000000 ) ) ;
#203 = ORIENTED_EDGE ( 'NONE', *, *, #140, .T. ) ;
#204 = VERTEX_POINT ( 'NONE', #77 ) ;
#205 = APPLICATION_CONTEXT ( 'automotive_design' ) ;
#206 = ADVANCED_FACE ( 'NONE', ( #178 ), #6, .T. ) ;
#207 = VECTOR ( 'NONE', #63, 39.37007874015748143 ) ;
#208 = VECTOR ( 'NONE', #194, 39.37007874015748143 ) ;
#209 = DIRECTION ( 'NONE',  ( -1.224646799147353454E-16, -0.0000000000000000000, -1.000000000000000000 ) ) ;
#210 = EDGE_LOOP ( 'NONE', ( #17, #39, #153, #257 ) ) ;
#211 = CARTESIAN_POINT ( 'NONE',  ( 2.302335982397024786E-17, 0.0000000000000000000, 0.1880000000000000282 ) ) ;
#212 = DIRECTION ( 'NONE',  ( 1.000000000000000000, 0.0000000000000000000, 0.0000000000000000000 ) ) ;
#213 =( GEOMETRIC_REPRESENTATION_CONTEXT ( 3 ) GLOBAL_UNCERTAINTY_ASSIGNED_CONTEXT ( ( #200 ) ) GLOBAL_UNIT_ASSIGNED_CONTEXT ( ( #38, #70, #296 ) ) REPRESENTATION_CONTEXT ( 'NONE', 'WORKASPACE' ) );
#214 = CARTESIAN_POINT ( 'NONE',  ( -0.06250000000000000000, 0.0000000000000000000, 1.485000000000000764 ) ) ;
#215 = VERTEX_POINT ( 'NONE', #50 ) ;
#216 = DIRECTION ( 'NONE',  ( -0.0000000000000000000, -0.0000000000000000000, -1.000000000000000000 ) ) ;
#217 =( CONVERSION_BASED_UNIT ( 'INCH', #185 ) LENGTH_UNIT ( ) NAMED_UNIT ( #89 ) );
#218 = EDGE_LOOP ( 'NONE', ( #191, #227, #158, #122 ) ) ;
#219 = CARTESIAN_POINT ( 'NONE',  ( 0.0000000000000000000, 0.0000000000000000000, 0.0000000000000000000 ) ) ;
#220 = EDGE_CURVE ( 'NONE', #215, #204, #88, .T. ) ;
#221 = STYLED_ITEM ( 'NONE', ( #146 ), #66 ) ;
#222 = AXIS2_PLACEMENT_3D ( 'NONE', #182, #238, #286 ) ;
#223 = EDGE_CURVE ( 'NONE', #239, #229, #196, .T. ) ;
#224 = CYLINDRICAL_SURFACE ( 'NONE', #55, 0.05464530000000000776 ) ;
#225 = DIRECTION ( 'NONE',  ( 1.000000000000000000, 0.0000000000000000000, 0.0000000000000000000 ) ) ;
#226 = CIRCLE ( 'NONE', #160, 0.06250000000000000000 ) ;
#227 = ORIENTED_EDGE ( 'NONE', *, *, #244, .T. ) ;
#228 = DIRECTION ( 'NONE',  ( -1.224646799147353454E-16, -0.0000000000000000000, -1.000000000000000000 ) ) ;
#229 = VERTEX_POINT ( 'NONE', #214 ) ;
#230 = DIRECTION ( 'NONE',  ( -1.224646799147353454E-16, -0.0000000000000000000, -1.000000000000000000 ) ) ;
#231 = CARTESIAN_POINT ( 'NONE',  ( 2.302335982397024786E-17, 0.0000000000000000000, 0.1880000000000000282 ) ) ;
#232 = EDGE_CURVE ( 'NONE', #169, #65, #23, .T. ) ;
#233 = DIRECTION ( 'NONE',  ( 1.000000000000000000, 0.0000000000000000000, 0.0000000000000000000 ) ) ;
#234 = UNCERTAINTY_MEASURE_WITH_UNIT (LENGTH_MEASURE( 1.000000000000000082E-05 ), #217, 'distance_accuracy_value', 'NONE');
#235 = FACE_OUTER_BOUND ( 'NONE', #167, .T. ) ;
#236 = CARTESIAN_POINT ( 'NONE',  ( 0.06250000000000000000, 7.654042494670956004E-18, 1.485000000000000764 ) ) ;
#237 = LINE ( 'NONE', #131, #37 ) ;
#238 = DIRECTION ( 'NONE',  ( 0.0000000000000000000, 0.0000000000000000000, 1.000000000000000000 ) ) ;
#239 = VERTEX_POINT ( 'NONE', #236 ) ;
#240 = AXIS2_PLACEMENT_3D ( 'NONE', #150, #53, #81 ) ;
#241 = ORIENTED_EDGE ( 'NONE', *, *, #87, .F. ) ;
#242 =( LENGTH_UNIT ( ) NAMED_UNIT ( * ) SI_UNIT ( $, .METRE. ) );
#243 = CIRCLE ( 'NONE', #177, 0.04750000000000064587 ) ;
#244 = EDGE_CURVE ( 'NONE', #239, #279, #237, .T. ) ;
#245 = AXIS2_PLACEMENT_3D ( 'NONE', #219, #8, #285 ) ;
#246 = ORIENTED_EDGE ( 'NONE', *, *, #220, .T. ) ;
#247 = CARTESIAN_POINT ( 'NONE',  ( 0.04750000000000064587, 5.817072295950006528E-18, 1.500000000000000222 ) ) ;
#248 = EDGE_CURVE ( 'NONE', #279, #262, #127, .T. ) ;
#249 = FACE_OUTER_BOUND ( 'NONE', #172, .T. ) ;
#250 = MECHANICAL_DESIGN_GEOMETRIC_PRESENTATION_REPRESENTATION (  '', ( #108 ), #86 ) ;
#251 = FILL_AREA_STYLE_COLOUR ( '', #49 ) ;
#252 = CARTESIAN_POINT ( 'NONE',  ( 8.195482325149204388E-34, 0.0000000000000000000, 6.692119173344687407E-18 ) ) ;
#253 = ORIENTED_EDGE ( 'NONE', *, *, #144, .F. ) ;
#254 = CARTESIAN_POINT ( 'NONE',  ( 0.05464530000000000776, 6.692119173344686636E-18, -6.692119173344688177E-18 ) ) ;
#255 = CARTESIAN_POINT ( 'NONE',  ( 0.0000000000000000000, 0.0000000000000000000, 1.500000000000000222 ) ) ;
#256 = CONICAL_SURFACE ( 'NONE', #14, 0.04750000000000064587, 0.7853981633974457255 ) ;
#257 = ORIENTED_EDGE ( 'NONE', *, *, #248, .T. ) ;
#258 = CARTESIAN_POINT ( 'NONE',  ( 0.0000000000000000000, 0.0000000000000000000, 1.500000000000000222 ) ) ;
#259 = ORIENTED_EDGE ( 'NONE', *, *, #244, .F. ) ;
#260 = AXIS2_PLACEMENT_3D ( 'NONE', #270, #268, #101 ) ;
#261 =( LENGTH_UNIT ( ) NAMED_UNIT ( * ) SI_UNIT ( $, .METRE. ) );
#262 = VERTEX_POINT ( 'NONE', #1 ) ;
#263 = FILL_AREA_STYLE ('',( #283 ) ) ;
#264 = PRODUCT_CONTEXT ( 'NONE', #190, 'mechanical' ) ;
#265 = EDGE_CURVE ( 'NONE', #204, #215, #243, .T. ) ;
#266 = DIRECTION ( 'NONE',  ( -1.000000000000000000, 0.0000000000000000000, 0.0000000000000000000 ) ) ;
#267 = CYLINDRICAL_SURFACE ( 'NONE', #78, 0.06250000000000000000 ) ;
#268 = DIRECTION ( 'NONE',  ( 0.0000000000000000000, 0.0000000000000000000, -1.000000000000000000 ) ) ;
#269 = CIRCLE ( 'NONE', #120, 0.05464530000000000776 ) ;
#270 = CARTESIAN_POINT ( 'NONE',  ( 0.0000000000000000000, 0.0000000000000000000, 1.500000000000000222 ) ) ;
#271 = SURFACE_SIDE_STYLE ('',( #97 ) ) ;
#272 = CLOSED_SHELL ( 'NONE', ( #34, #206, #18, #289, #110, #188, #171, #95, #136, #116 ) ) ;
#273 = DIRECTION ( 'NONE',  ( -1.000000000000000000, 0.0000000000000000000, 0.0000000000000000000 ) ) ;
#274 = CARTESIAN_POINT ( 'NONE',  ( 8.195482325149204388E-34, 0.0000000000000000000, 6.692119173344687407E-18 ) ) ;
#275 = ORIENTED_EDGE ( 'NONE', *, *, #44, .F. ) ;
#276 = AXIS2_PLACEMENT_3D ( 'NONE', #258, #149, #21 ) ;
#277 = FACE_OUTER_BOUND ( 'NONE', #218, .T. ) ;
#278 = FACE_OUTER_BOUND ( 'NONE', #94, .T. ) ;
#279 = VERTEX_POINT ( 'NONE', #100 ) ;
#280 = LINE ( 'NONE', #123, #208 ) ;
#281 = ORIENTED_EDGE ( 'NONE', *, *, #61, .T. ) ;
#282 = DIRECTION ( 'NONE',  ( -1.224646799147353454E-16, -0.0000000000000000000, -1.000000000000000000 ) ) ;
#283 = FILL_AREA_STYLE_COLOUR ( '', #121 ) ;
#284 = EDGE_LOOP ( 'NONE', ( #275, #80, #281, #253 ) ) ;
#285 = DIRECTION ( 'NONE',  ( 1.000000000000000000, 0.0000000000000000000, 0.0000000000000000000 ) ) ;
#286 = DIRECTION ( 'NONE',  ( 1.000000000000000000, 0.0000000000000000000, -0.0000000000000000000 ) ) ;
#287 = AXIS2_PLACEMENT_3D ( 'NONE', #255, #197, #170 ) ;
#288 = CARTESIAN_POINT ( 'NONE',  ( 2.847869806807417895E-17, 0.0000000000000000000, 0.2325462173085509621 ) ) ;
#289 = ADVANCED_FACE ( 'NONE', ( #277 ), #193, .T. ) ;
#290 = LINE ( 'NONE', #104, #126 ) ;
#291 = FACE_OUTER_BOUND ( 'NONE', #71, .T. ) ;
#292 = PRODUCT_DEFINITION ( 'UNKNOWN', '', #2, #129 ) ;
#293 = ORIENTED_EDGE ( 'NONE', *, *, #223, .F. ) ;
#294 = VECTOR ( 'NONE', #68, 39.37007874015748143 ) ;
#295 = ORIENTED_EDGE ( 'NONE', *, *, #44, .T. ) ;
#296 =( NAMED_UNIT ( * ) SI_UNIT ( $, .STERADIAN. ) SOLID_ANGLE_UNIT ( ) );
#297 = DIRECTION ( 'NONE',  ( 0.0000000000000000000, 0.0000000000000000000, 1.000000000000000000 ) ) ;
#298 = LENGTH_MEASURE_WITH_UNIT ( LENGTH_MEASURE( 0.02539999999999999897 ), #102 );
#299 = DIRECTION ( 'NONE',  ( 1.000000000000000000, 0.0000000000000000000, 0.0000000000000000000 ) ) ;
ENDSEC;
END-ISO-10303-21;
