ISO-10303-21;
HEADER;
FILE_DESCRIPTION (( 'STEP AP214' ),
    '1' );
FILE_NAME ('Micro_SFPM-060-50.STEP',
    '2021-09-02T07:26:03',
    ( '' ),
    ( '' ),
    'SwSTEP 2.0',
    'SolidWorks 2020',
    '' );
FILE_SCHEMA (( 'AUTOMOTIVE_DESIGN' ));
ENDSEC;

DATA;
#1 =( LENGTH_UNIT ( ) NAMED_UNIT ( * ) SI_UNIT ( $, .METRE. ) );
#2 = PRODUCT ( 'Micro_SFPM-060-50', 'Micro_SFPM-060-50', '', ( #235 ) ) ;
#3 = ORIENTED_EDGE ( 'NONE', *, *, #115, .F. ) ;
#4 = ADVANCED_FACE ( 'NONE', ( #164 ), #191, .T. ) ;
#5 = ORIENTED_EDGE ( 'NONE', *, *, #200, .T. ) ;
#6 = EDGE_LOOP ( 'NONE', ( #23, #252, #135, #215 ) ) ;
#7 = ORIENTED_EDGE ( 'NONE', *, *, #158, .T. ) ;
#8 = DIRECTION ( 'NONE',  ( -1.224646799147353207E-16, -0.0000000000000000000, -1.000000000000000000 ) ) ;
#9 = VECTOR ( 'NONE', #291, 39.37007874015748143 ) ;
#10 = PRODUCT_DEFINITION_CONTEXT ( 'detailed design', #156, 'design' ) ;
#11 = CARTESIAN_POINT ( 'NONE',  ( 0.1179918899999999882, 1.444983904138465938E-17, 0.0000000000000000000 ) ) ;
#12 = PRODUCT_RELATED_PRODUCT_CATEGORY ( 'part', '', ( #2 ) ) ;
#13 = DIRECTION ( 'NONE',  ( 1.000000000000000000, 0.0000000000000000000, 0.0000000000000000000 ) ) ;
#14 = AXIS2_PLACEMENT_3D ( 'NONE', #241, #107, #176 ) ;
#15 = SURFACE_SIDE_STYLE ('',( #127 ) ) ;
#16 = ADVANCED_FACE ( 'NONE', ( #268 ), #60, .T. ) ;
#17 = EDGE_CURVE ( 'NONE', #194, #231, #256, .T. ) ;
#18 = CLOSED_SHELL ( 'NONE', ( #277, #251, #209, #16, #246, #230, #4, #40, #140, #73 ) ) ;
#19 = VERTEX_POINT ( 'NONE', #210 ) ;
#20 = EDGE_CURVE ( 'NONE', #19, #101, #96, .T. ) ;
#21 =( NAMED_UNIT ( * ) SI_UNIT ( $, .STERADIAN. ) SOLID_ANGLE_UNIT ( ) );
#22 = CARTESIAN_POINT ( 'NONE',  ( 0.0000000000000000000, 0.0000000000000000000, 2.937756000000000256 ) ) ;
#23 = ORIENTED_EDGE ( 'NONE', *, *, #59, .F. ) ;
#24 = CARTESIAN_POINT ( 'NONE',  ( -0.1574804999999997734, 0.0000000000000000000, 1.601904035974972773 ) ) ;
#25 = APPLICATION_PROTOCOL_DEFINITION ( 'draft international standard', 'automotive_design', 1998, #184 ) ;
#26 = DIRECTION ( 'NONE',  ( 0.0000000000000000000, 0.0000000000000000000, -1.000000000000000000 ) ) ;
#27 = CARTESIAN_POINT ( 'NONE',  ( 0.1179918900000001686, 0.0000000000000000000, 1.377952999999999983 ) ) ;
#28 = UNCERTAINTY_MEASURE_WITH_UNIT (LENGTH_MEASURE( 1.000000000000000082E-05 ), #94, 'distance_accuracy_value', 'NONE');
#29 = CARTESIAN_POINT ( 'NONE',  ( 0.0000000000000000000, 0.0000000000000000000, 0.0000000000000000000 ) ) ;
#30 = EDGE_CURVE ( 'NONE', #19, #120, #54, .T. ) ;
#31 = ORIENTED_EDGE ( 'NONE', *, *, #190, .F. ) ;
#32 = LINE ( 'NONE', #173, #69 ) ;
#33 = PRODUCT_DEFINITION_SHAPE ( 'NONE', 'NONE',  #106 ) ;
#34 = ORIENTED_EDGE ( 'NONE', *, *, #59, .T. ) ;
#35 = ORIENTED_EDGE ( 'NONE', *, *, #200, .F. ) ;
#36 = DIRECTION ( 'NONE',  ( 0.0000000000000000000, 0.0000000000000000000, 1.000000000000000000 ) ) ;
#37 = LINE ( 'NONE', #292, #144 ) ;
#38 = DIRECTION ( 'NONE',  ( -1.000000000000000000, 0.0000000000000000000, 1.224646799147353454E-16 ) ) ;
#39 =( GEOMETRIC_REPRESENTATION_CONTEXT ( 3 ) GLOBAL_UNCERTAINTY_ASSIGNED_CONTEXT ( ( #125 ) ) GLOBAL_UNIT_ASSIGNED_CONTEXT ( ( #49, #278, #72 ) ) REPRESENTATION_CONTEXT ( 'NONE', 'WORKASPACE' ) );
#40 = ADVANCED_FACE ( 'NONE', ( #212 ), #90, .T. ) ;
#41 =( LENGTH_UNIT ( ) NAMED_UNIT ( * ) SI_UNIT ( $, .METRE. ) );
#42 = SURFACE_STYLE_USAGE ( .BOTH. , #15 ) ;
#43 = EDGE_CURVE ( 'NONE', #231, #194, #74, .T. ) ;
#44 = ORIENTED_EDGE ( 'NONE', *, *, #178, .F. ) ;
#45 = FILL_AREA_STYLE_COLOUR ( '', #57 ) ;
#46 = EDGE_CURVE ( 'NONE', #120, #283, #232, .T. ) ;
#47 = DIRECTION ( 'NONE',  ( -0.0000000000000000000, -0.0000000000000000000, -1.000000000000000000 ) ) ;
#48 = EDGE_LOOP ( 'NONE', ( #31, #236, #52, #3 ) ) ;
#49 =( CONVERSION_BASED_UNIT ( 'INCH', #68 ) LENGTH_UNIT ( ) NAMED_UNIT ( #254 ) );
#50 = SURFACE_SIDE_STYLE ('',( #253 ) ) ;
#51 = FACE_OUTER_BOUND ( 'NONE', #80, .T. ) ;
#52 = ORIENTED_EDGE ( 'NONE', *, *, #17, .F. ) ;
#53 = PRESENTATION_STYLE_ASSIGNMENT (( #255 ) ) ;
#54 = LINE ( 'NONE', #27, #207 ) ;
#55 = CARTESIAN_POINT ( 'NONE',  ( -0.1424804999999998989, 0.0000000000000000000, 2.952755999999999936 ) ) ;
#56 = ORIENTED_EDGE ( 'NONE', *, *, #46, .F. ) ;
#57 = COLOUR_RGB ( '',0.7921568627450980005, 0.8196078431372548767, 0.9333333333333333481 ) ;
#58 = DIRECTION ( 'NONE',  ( -0.0000000000000000000, -0.0000000000000000000, -1.000000000000000000 ) ) ;
#59 = EDGE_CURVE ( 'NONE', #104, #283, #32, .T. ) ;
#60 = CYLINDRICAL_SURFACE ( 'NONE', #149, 0.1574804999999999955 ) ;
#61 = CARTESIAN_POINT ( 'NONE',  ( 1.687505730825492758E-16, 0.0000000000000000000, 1.377952999999999983 ) ) ;
#62 = DIRECTION ( 'NONE',  ( 1.224646799147353207E-16, 0.0000000000000000000, 1.000000000000000000 ) ) ;
#63 = DIRECTION ( 'NONE',  ( -1.000000000000000000, 0.0000000000000000000, 1.224646799147353454E-16 ) ) ;
#64 = DIRECTION ( 'NONE',  ( -1.000000000000000000, 0.0000000000000000000, 0.0000000000000000000 ) ) ;
#65 = CARTESIAN_POINT ( 'NONE',  ( 1.687505730825492758E-16, 0.0000000000000000000, 1.377952999999999983 ) ) ;
#66 = LENGTH_MEASURE_WITH_UNIT ( LENGTH_MEASURE( 0.02539999999999999897 ), #41 );
#67 =( CONVERSION_BASED_UNIT ( 'INCH', #66 ) LENGTH_UNIT ( ) NAMED_UNIT ( #188 ) );
#68 = LENGTH_MEASURE_WITH_UNIT ( LENGTH_MEASURE( 0.02539999999999999897 ), #249 );
#69 = VECTOR ( 'NONE', #100, 39.37007874015747433 ) ;
#70 = AXIS2_PLACEMENT_3D ( 'NONE', #275, #150, #38 ) ;
#71 = VERTEX_POINT ( 'NONE', #171 ) ;
#72 =( NAMED_UNIT ( * ) SI_UNIT ( $, .STERADIAN. ) SOLID_ANGLE_UNIT ( ) );
#73 = ADVANCED_FACE ( 'NONE', ( #196 ), #103, .F. ) ;
#74 = CIRCLE ( 'NONE', #281, 0.1574804999999999955 ) ;
#75 = ORIENTED_EDGE ( 'NONE', *, *, #95, .T. ) ;
#76 = STYLED_ITEM ( 'NONE', ( #53 ), #93 ) ;
#77 = CARTESIAN_POINT ( 'NONE',  ( 0.1179918899999999882, 1.444983904138465938E-17, -1.444983904138465938E-17 ) ) ;
#78 = EDGE_CURVE ( 'NONE', #19, #104, #143, .T. ) ;
#79 = ORIENTED_EDGE ( 'NONE', *, *, #195, .F. ) ;
#80 = EDGE_LOOP ( 'NONE', ( #260, #34, #7, #203 ) ) ;
#81 = CIRCLE ( 'NONE', #109, 0.1179918899999999882 ) ;
#82 = CARTESIAN_POINT ( 'NONE',  ( 0.0000000000000000000, 0.0000000000000000000, 2.952755999999999936 ) ) ;
#83 = CARTESIAN_POINT ( 'NONE',  ( 0.0000000000000000000, 0.0000000000000000000, 2.952755999999999936 ) ) ;
#84 = AXIS2_PLACEMENT_3D ( 'NONE', #82, #258, #238 ) ;
#85 =( GEOMETRIC_REPRESENTATION_CONTEXT ( 3 ) GLOBAL_UNCERTAINTY_ASSIGNED_CONTEXT ( ( #262 ) ) GLOBAL_UNIT_ASSIGNED_CONTEXT ( ( #67, #198, #131 ) ) REPRESENTATION_CONTEXT ( 'NONE', 'WORKASPACE' ) );
#86 = FACE_OUTER_BOUND ( 'NONE', #214, .T. ) ;
#87 = CARTESIAN_POINT ( 'NONE',  ( 0.0000000000000000000, 0.0000000000000000000, 2.952755999999999936 ) ) ;
#88 = DIRECTION ( 'NONE',  ( 1.000000000000000000, 0.0000000000000000000, 0.0000000000000000000 ) ) ;
#89 = CYLINDRICAL_SURFACE ( 'NONE', #180, 0.1179918899999999882 ) ;
#90 = CONICAL_SURFACE ( 'NONE', #116, 0.1179918899999999882, 0.1745329251994338915 ) ;
#91 = AXIS2_PLACEMENT_3D ( 'NONE', #201, #294, #88 ) ;
#92 = LINE ( 'NONE', #157, #208 ) ;
#93 = ADVANCED_BREP_SHAPE_REPRESENTATION ( 'Micro_SFPM-060-50', ( #152, #216 ), #39 ) ;
#94 =( CONVERSION_BASED_UNIT ( 'INCH', #299 ) LENGTH_UNIT ( ) NAMED_UNIT ( #99 ) );
#95 = EDGE_CURVE ( 'NONE', #71, #295, #128, .T. ) ;
#96 = LINE ( 'NONE', #77, #211 ) ;
#97 = CIRCLE ( 'NONE', #197, 0.1179918899999999882 ) ;
#98 = EDGE_LOOP ( 'NONE', ( #145, #170 ) ) ;
#99 = DIMENSIONAL_EXPONENTS ( 1.000000000000000000, 0.0000000000000000000, 0.0000000000000000000, 0.0000000000000000000, 0.0000000000000000000, 0.0000000000000000000, 0.0000000000000000000 ) ;
#100 = DIRECTION ( 'NONE',  ( -0.1736481776669311916, 2.126576849575783316E-17, 0.9848077530122080203 ) ) ;
#101 = VERTEX_POINT ( 'NONE', #11 ) ;
#102 = ORIENTED_EDGE ( 'NONE', *, *, #43, .F. ) ;
#103 = PLANE ( 'NONE',  #108 ) ;
#104 = VERTEX_POINT ( 'NONE', #105 ) ;
#105 = CARTESIAN_POINT ( 'NONE',  ( -0.1179918899999998216, 1.686781903334856829E-17, 1.377952999999999983 ) ) ;
#106 = PRODUCT_DEFINITION ( 'UNKNOWN', '', #228, #10 ) ;
#107 = DIRECTION ( 'NONE',  ( 0.0000000000000000000, 0.0000000000000000000, 1.000000000000000000 ) ) ;
#108 = AXIS2_PLACEMENT_3D ( 'NONE', #29, #271, #267 ) ;
#109 = AXIS2_PLACEMENT_3D ( 'NONE', #181, #223, #110 ) ;
#110 = DIRECTION ( 'NONE',  ( -1.000000000000000000, 0.0000000000000000000, 1.224646799147353454E-16 ) ) ;
#111 = DIRECTION ( 'NONE',  ( -1.224646799147353207E-16, -0.0000000000000000000, -1.000000000000000000 ) ) ;
#112 = AXIS2_PLACEMENT_3D ( 'NONE', #296, #47, #298 ) ;
#113 = LINE ( 'NONE', #151, #129 ) ;
#114 = DIRECTION ( 'NONE',  ( 1.224646799147353207E-16, 0.0000000000000000000, 1.000000000000000000 ) ) ;
#115 = EDGE_CURVE ( 'NONE', #71, #194, #263, .T. ) ;
#116 = AXIS2_PLACEMENT_3D ( 'NONE', #270, #62, #250 ) ;
#117 = DIRECTION ( 'NONE',  ( 1.000000000000000000, 0.0000000000000000000, 0.0000000000000000000 ) ) ;
#118 = FILL_AREA_STYLE ('',( #161 ) ) ;
#119 = AXIS2_PLACEMENT_3D ( 'NONE', #133, #114, #138 ) ;
#120 = VERTEX_POINT ( 'NONE', #244 ) ;
#121 = CIRCLE ( 'NONE', #233, 0.1179918899999999882 ) ;
#122 = ORIENTED_EDGE ( 'NONE', *, *, #17, .T. ) ;
#123 = EDGE_LOOP ( 'NONE', ( #217, #193, #136, #56 ) ) ;
#124 = ORIENTED_EDGE ( 'NONE', *, *, #20, .F. ) ;
#125 = UNCERTAINTY_MEASURE_WITH_UNIT (LENGTH_MEASURE( 1.000000000000000082E-05 ), #49, 'distance_accuracy_value', 'NONE');
#126 = DIRECTION ( 'NONE',  ( -0.7071067811865563435, 0.0000000000000000000, -0.7071067811865386910 ) ) ;
#127 = SURFACE_STYLE_FILL_AREA ( #132 ) ;
#128 = CIRCLE ( 'NONE', #297, 0.1424804999999998989 ) ;
#129 = VECTOR ( 'NONE', #276, 39.37007874015748143 ) ;
#130 = CYLINDRICAL_SURFACE ( 'NONE', #70, 0.1179918899999999882 ) ;
#131 =( NAMED_UNIT ( * ) SI_UNIT ( $, .STERADIAN. ) SOLID_ANGLE_UNIT ( ) );
#132 = FILL_AREA_STYLE ('',( #45 ) ) ;
#133 = CARTESIAN_POINT ( 'NONE',  ( 1.687505730825492758E-16, 0.0000000000000000000, 1.377952999999999983 ) ) ;
#134 = EDGE_CURVE ( 'NONE', #104, #19, #97, .T. ) ;
#135 = ORIENTED_EDGE ( 'NONE', *, *, #30, .T. ) ;
#136 = ORIENTED_EDGE ( 'NONE', *, *, #178, .T. ) ;
#137 = AXIS2_PLACEMENT_3D ( 'NONE', #83, #174, #64 ) ;
#138 = DIRECTION ( 'NONE',  ( 1.000000000000000000, 0.0000000000000000000, 0.0000000000000000000 ) ) ;
#139 = ORIENTED_EDGE ( 'NONE', *, *, #190, .T. ) ;
#140 = ADVANCED_FACE ( 'NONE', ( #242 ), #130, .T. ) ;
#141 = DIRECTION ( 'NONE',  ( 0.1736481776669313859, 0.0000000000000000000, 0.9848077530122077983 ) ) ;
#142 = DIRECTION ( 'NONE',  ( 1.000000000000000000, 0.0000000000000000000, 0.0000000000000000000 ) ) ;
#143 = CIRCLE ( 'NONE', #182, 0.1179918899999999882 ) ;
#144 = VECTOR ( 'NONE', #219, 39.37007874015748143 ) ;
#145 = ORIENTED_EDGE ( 'NONE', *, *, #154, .T. ) ;
#146 = APPLICATION_PROTOCOL_DEFINITION ( 'draft international standard', 'automotive_design', 1998, #156 ) ;
#147 = ORIENTED_EDGE ( 'NONE', *, *, #115, .T. ) ;
#148 = DIRECTION ( 'NONE',  ( -1.000000000000000000, 0.0000000000000000000, 0.0000000000000000000 ) ) ;
#149 = AXIS2_PLACEMENT_3D ( 'NONE', #266, #58, #148 ) ;
#150 = DIRECTION ( 'NONE',  ( -1.224646799147353207E-16, -0.0000000000000000000, -1.000000000000000000 ) ) ;
#151 = CARTESIAN_POINT ( 'NONE',  ( 0.1424804999999998989, 1.744882882659143297E-17, 2.952755999999999936 ) ) ;
#152 = MANIFOLD_SOLID_BREP ( 'Cut-Revolve1', #18 ) ;
#153 = PRESENTATION_LAYER_ASSIGNMENT (  '', '', ( #76 ) ) ;
#154 = EDGE_CURVE ( 'NONE', #284, #101, #121, .T. ) ;
#155 = CARTESIAN_POINT ( 'NONE',  ( -0.1179918899999999882, 0.0000000000000000000, 1.444983904138465938E-17 ) ) ;
#156 = APPLICATION_CONTEXT ( 'automotive_design' ) ;
#157 = CARTESIAN_POINT ( 'NONE',  ( 0.1574804999999999955, 1.928579902531247412E-17, 2.952755999999999936 ) ) ;
#158 = EDGE_CURVE ( 'NONE', #283, #120, #202, .T. ) ;
#159 = DIRECTION ( 'NONE',  ( -1.224646799147353207E-16, -0.0000000000000000000, -1.000000000000000000 ) ) ;
#160 = ORIENTED_EDGE ( 'NONE', *, *, #247, .T. ) ;
#161 = FILL_AREA_STYLE_COLOUR ( '', #286 ) ;
#162 = DIRECTION ( 'NONE',  ( -1.000000000000000000, 0.0000000000000000000, 1.224646799147353454E-16 ) ) ;
#163 = STYLED_ITEM ( 'NONE', ( #274 ), #152 ) ;
#164 = FACE_OUTER_BOUND ( 'NONE', #224, .T. ) ;
#165 = DIRECTION ( 'NONE',  ( -1.224646799147353207E-16, -0.0000000000000000000, -1.000000000000000000 ) ) ;
#166 = CARTESIAN_POINT ( 'NONE',  ( 0.0000000000000000000, 0.0000000000000000000, 0.0000000000000000000 ) ) ;
#167 = DIRECTION ( 'NONE',  ( -1.000000000000000000, 0.0000000000000000000, 0.0000000000000000000 ) ) ;
#168 = ORIENTED_EDGE ( 'NONE', *, *, #158, .F. ) ;
#169 = VECTOR ( 'NONE', #126, 39.37007874015748143 ) ;
#170 = ORIENTED_EDGE ( 'NONE', *, *, #175, .T. ) ;
#171 = CARTESIAN_POINT ( 'NONE',  ( -0.1424804999999998989, 0.0000000000000000000, 2.952755999999999936 ) ) ;
#172 = EDGE_LOOP ( 'NONE', ( #122, #160, #168, #44 ) ) ;
#173 = CARTESIAN_POINT ( 'NONE',  ( -0.1179918899999998216, 1.444983904138465938E-17, 1.377952999999999983 ) ) ;
#174 = DIRECTION ( 'NONE',  ( 0.0000000000000000000, 0.0000000000000000000, -1.000000000000000000 ) ) ;
#175 = EDGE_CURVE ( 'NONE', #101, #284, #81, .T. ) ;
#176 = DIRECTION ( 'NONE',  ( 1.000000000000000000, 0.0000000000000000000, -0.0000000000000000000 ) ) ;
#177 = CARTESIAN_POINT ( 'NONE',  ( 0.1574804999999999955, 1.928579902531247412E-17, 2.937756000000000256 ) ) ;
#178 = EDGE_CURVE ( 'NONE', #194, #283, #37, .T. ) ;
#179 = CARTESIAN_POINT ( 'NONE',  ( -0.1574804999999999955, 0.0000000000000000000, 2.937756000000000256 ) ) ;
#180 = AXIS2_PLACEMENT_3D ( 'NONE', #259, #159, #162 ) ;
#181 = CARTESIAN_POINT ( 'NONE',  ( 1.769594913022618037E-33, 0.0000000000000000000, 1.444983904138465938E-17 ) ) ;
#182 = AXIS2_PLACEMENT_3D ( 'NONE', #61, #288, #167 ) ;
#183 =( NAMED_UNIT ( * ) PLANE_ANGLE_UNIT ( ) SI_UNIT ( $, .RADIAN. ) );
#184 = APPLICATION_CONTEXT ( 'automotive_design' ) ;
#185 = AXIS2_PLACEMENT_3D ( 'NONE', #229, #26, #117 ) ;
#186 = ORIENTED_EDGE ( 'NONE', *, *, #20, .T. ) ;
#187 = DIRECTION ( 'NONE',  ( 0.0000000000000000000, 0.0000000000000000000, 1.000000000000000000 ) ) ;
#188 = DIMENSIONAL_EXPONENTS ( 1.000000000000000000, 0.0000000000000000000, 0.0000000000000000000, 0.0000000000000000000, 0.0000000000000000000, 0.0000000000000000000, 0.0000000000000000000 ) ;
#189 = EDGE_LOOP ( 'NONE', ( #124, #264, #5, #282 ) ) ;
#190 = EDGE_CURVE ( 'NONE', #295, #71, #265, .T. ) ;
#191 = CONICAL_SURFACE ( 'NONE', #84, 0.1424804999999998989, 0.7853981633974608245 ) ;
#192 = AXIS2_PLACEMENT_3D ( 'NONE', #87, #199, #13 ) ;
#193 = ORIENTED_EDGE ( 'NONE', *, *, #43, .T. ) ;
#194 = VERTEX_POINT ( 'NONE', #179 ) ;
#195 = EDGE_CURVE ( 'NONE', #295, #231, #113, .T. ) ;
#196 = FACE_OUTER_BOUND ( 'NONE', #98, .T. ) ;
#197 = AXIS2_PLACEMENT_3D ( 'NONE', #65, #243, #222 ) ;
#198 =( NAMED_UNIT ( * ) PLANE_ANGLE_UNIT ( ) SI_UNIT ( $, .RADIAN. ) );
#199 = DIRECTION ( 'NONE',  ( 0.0000000000000000000, 0.0000000000000000000, 1.000000000000000000 ) ) ;
#200 = EDGE_CURVE ( 'NONE', #104, #284, #290, .T. ) ;
#201 = CARTESIAN_POINT ( 'NONE',  ( 1.961766650197976958E-16, 0.0000000000000000000, 1.601904035974972773 ) ) ;
#202 = CIRCLE ( 'NONE', #91, 0.1574804999999999955 ) ;
#203 = ORIENTED_EDGE ( 'NONE', *, *, #30, .F. ) ;
#204 = FACE_OUTER_BOUND ( 'NONE', #48, .T. ) ;
#205 = CYLINDRICAL_SURFACE ( 'NONE', #112, 0.1574804999999999955 ) ;
#206 = FACE_OUTER_BOUND ( 'NONE', #123, .T. ) ;
#207 = VECTOR ( 'NONE', #141, 39.37007874015748143 ) ;
#208 = VECTOR ( 'NONE', #227, 39.37007874015748143 ) ;
#209 = ADVANCED_FACE ( 'NONE', ( #204 ), #272, .T. ) ;
#210 = CARTESIAN_POINT ( 'NONE',  ( 0.1179918900000001686, 0.0000000000000000000, 1.377952999999999983 ) ) ;
#211 = VECTOR ( 'NONE', #165, 39.37007874015748143 ) ;
#212 = FACE_OUTER_BOUND ( 'NONE', #6, .T. ) ;
#213 = DIRECTION ( 'NONE',  ( 0.0000000000000000000, 0.0000000000000000000, -1.000000000000000000 ) ) ;
#214 = EDGE_LOOP ( 'NONE', ( #75, #139 ) ) ;
#215 = ORIENTED_EDGE ( 'NONE', *, *, #46, .T. ) ;
#216 = AXIS2_PLACEMENT_3D ( 'NONE', #166, #187, #261 ) ;
#217 = ORIENTED_EDGE ( 'NONE', *, *, #247, .F. ) ;
#218 = DIRECTION ( 'NONE',  ( 1.000000000000000000, 0.0000000000000000000, 0.0000000000000000000 ) ) ;
#219 = DIRECTION ( 'NONE',  ( -0.0000000000000000000, -0.0000000000000000000, -1.000000000000000000 ) ) ;
#220 = CONICAL_SURFACE ( 'NONE', #119, 0.1179918899999999882, 0.1745329251994338915 ) ;
#221 = CARTESIAN_POINT ( 'NONE',  ( 1.769594913022618037E-33, 0.0000000000000000000, 1.444983904138465938E-17 ) ) ;
#222 = DIRECTION ( 'NONE',  ( -1.000000000000000000, 0.0000000000000000000, 0.0000000000000000000 ) ) ;
#223 = DIRECTION ( 'NONE',  ( -1.224646799147353207E-16, -0.0000000000000000000, -1.000000000000000000 ) ) ;
#224 = EDGE_LOOP ( 'NONE', ( #79, #245, #147, #102 ) ) ;
#225 = FACE_OUTER_BOUND ( 'NONE', #287, .T. ) ;
#226 = ORIENTED_EDGE ( 'NONE', *, *, #134, .T. ) ;
#227 = DIRECTION ( 'NONE',  ( -0.0000000000000000000, -0.0000000000000000000, -1.000000000000000000 ) ) ;
#228 = PRODUCT_DEFINITION_FORMATION_WITH_SPECIFIED_SOURCE ( 'ANY', '', #2, .NOT_KNOWN. ) ;
#229 = CARTESIAN_POINT ( 'NONE',  ( 0.0000000000000000000, 0.0000000000000000000, 2.937756000000000256 ) ) ;
#230 = ADVANCED_FACE ( 'NONE', ( #86 ), #273, .T. ) ;
#231 = VERTEX_POINT ( 'NONE', #177 ) ;
#232 = CIRCLE ( 'NONE', #289, 0.1574804999999999955 ) ;
#233 = AXIS2_PLACEMENT_3D ( 'NONE', #221, #111, #63 ) ;
#234 = ORIENTED_EDGE ( 'NONE', *, *, #154, .F. ) ;
#235 = PRODUCT_CONTEXT ( 'NONE', #184, 'mechanical' ) ;
#236 = ORIENTED_EDGE ( 'NONE', *, *, #195, .T. ) ;
#237 = CARTESIAN_POINT ( 'NONE',  ( 1.961766650197976958E-16, 0.0000000000000000000, 1.601904035974972773 ) ) ;
#238 = DIRECTION ( 'NONE',  ( -1.000000000000000000, 0.0000000000000000000, 0.0000000000000000000 ) ) ;
#239 = DIRECTION ( 'NONE',  ( 1.000000000000000000, 0.0000000000000000000, 0.0000000000000000000 ) ) ;
#240 = MECHANICAL_DESIGN_GEOMETRIC_PRESENTATION_REPRESENTATION (  '', ( #163 ), #85 ) ;
#241 = CARTESIAN_POINT ( 'NONE',  ( 0.0000000000000000000, 0.0000000000000000000, 2.952755999999999936 ) ) ;
#242 = FACE_OUTER_BOUND ( 'NONE', #189, .T. ) ;
#243 = DIRECTION ( 'NONE',  ( -1.224646799147353207E-16, -0.0000000000000000000, -1.000000000000000000 ) ) ;
#244 = CARTESIAN_POINT ( 'NONE',  ( 0.1574805000000001898, 1.928579902531250185E-17, 1.601904035974972773 ) ) ;
#245 = ORIENTED_EDGE ( 'NONE', *, *, #95, .F. ) ;
#246 = ADVANCED_FACE ( 'NONE', ( #206 ), #205, .T. ) ;
#247 = EDGE_CURVE ( 'NONE', #231, #120, #92, .T. ) ;
#248 = PRESENTATION_LAYER_ASSIGNMENT (  '', '', ( #163 ) ) ;
#249 =( LENGTH_UNIT ( ) NAMED_UNIT ( * ) SI_UNIT ( $, .METRE. ) );
#250 = DIRECTION ( 'NONE',  ( 1.000000000000000000, 0.0000000000000000000, 0.0000000000000000000 ) ) ;
#251 = ADVANCED_FACE ( 'NONE', ( #51 ), #220, .T. ) ;
#252 = ORIENTED_EDGE ( 'NONE', *, *, #78, .F. ) ;
#253 = SURFACE_STYLE_FILL_AREA ( #118 ) ;
#254 = DIMENSIONAL_EXPONENTS ( 1.000000000000000000, 0.0000000000000000000, 0.0000000000000000000, 0.0000000000000000000, 0.0000000000000000000, 0.0000000000000000000, 0.0000000000000000000 ) ;
#255 = SURFACE_STYLE_USAGE ( .BOTH. , #50 ) ;
#256 = CIRCLE ( 'NONE', #185, 0.1574804999999999955 ) ;
#257 = MECHANICAL_DESIGN_GEOMETRIC_PRESENTATION_REPRESENTATION (  '', ( #76 ), #293 ) ;
#258 = DIRECTION ( 'NONE',  ( 0.0000000000000000000, 0.0000000000000000000, -1.000000000000000000 ) ) ;
#259 = CARTESIAN_POINT ( 'NONE',  ( 0.0000000000000000000, 0.0000000000000000000, 0.0000000000000000000 ) ) ;
#260 = ORIENTED_EDGE ( 'NONE', *, *, #134, .F. ) ;
#261 = DIRECTION ( 'NONE',  ( 1.000000000000000000, 0.0000000000000000000, 0.0000000000000000000 ) ) ;
#262 = UNCERTAINTY_MEASURE_WITH_UNIT (LENGTH_MEASURE( 1.000000000000000082E-05 ), #67, 'distance_accuracy_value', 'NONE');
#263 = LINE ( 'NONE', #55, #169 ) ;
#264 = ORIENTED_EDGE ( 'NONE', *, *, #78, .T. ) ;
#265 = CIRCLE ( 'NONE', #192, 0.1424804999999998989 ) ;
#266 = CARTESIAN_POINT ( 'NONE',  ( 0.0000000000000000000, 0.0000000000000000000, 2.952755999999999936 ) ) ;
#267 = DIRECTION ( 'NONE',  ( 1.000000000000000000, 0.0000000000000000000, -0.0000000000000000000 ) ) ;
#268 = FACE_OUTER_BOUND ( 'NONE', #172, .T. ) ;
#269 = CARTESIAN_POINT ( 'NONE',  ( 0.0000000000000000000, 0.0000000000000000000, 2.952755999999999936 ) ) ;
#270 = CARTESIAN_POINT ( 'NONE',  ( 1.687505730825492758E-16, 0.0000000000000000000, 1.377952999999999983 ) ) ;
#271 = DIRECTION ( 'NONE',  ( 0.0000000000000000000, 0.0000000000000000000, 1.000000000000000000 ) ) ;
#272 = CONICAL_SURFACE ( 'NONE', #137, 0.1424804999999998989, 0.7853981633974608245 ) ;
#273 = PLANE ( 'NONE',  #14 ) ;
#274 = PRESENTATION_STYLE_ASSIGNMENT (( #42 ) ) ;
#275 = CARTESIAN_POINT ( 'NONE',  ( 0.0000000000000000000, 0.0000000000000000000, 0.0000000000000000000 ) ) ;
#276 = DIRECTION ( 'NONE',  ( 0.7071067811865563435, 8.659560562355041327E-17, -0.7071067811865386910 ) ) ;
#277 = ADVANCED_FACE ( 'NONE', ( #225 ), #89, .T. ) ;
#278 =( NAMED_UNIT ( * ) PLANE_ANGLE_UNIT ( ) SI_UNIT ( $, .RADIAN. ) );
#279 = CARTESIAN_POINT ( 'NONE',  ( -0.1179918899999999882, 0.0000000000000000000, 2.889967808276931875E-17 ) ) ;
#280 = CARTESIAN_POINT ( 'NONE',  ( 0.1424804999999998989, 1.836731392595195200E-17, 2.952755999999999936 ) ) ;
#281 = AXIS2_PLACEMENT_3D ( 'NONE', #22, #213, #142 ) ;
#282 = ORIENTED_EDGE ( 'NONE', *, *, #175, .F. ) ;
#283 = VERTEX_POINT ( 'NONE', #24 ) ;
#284 = VERTEX_POINT ( 'NONE', #279 ) ;
#285 = SHAPE_DEFINITION_REPRESENTATION ( #33, #93 ) ;
#286 = COLOUR_RGB ( '',0.7921568627450980005, 0.8196078431372548767, 0.9333333333333333481 ) ;
#287 = EDGE_LOOP ( 'NONE', ( #226, #186, #234, #35 ) ) ;
#288 = DIRECTION ( 'NONE',  ( -1.224646799147353207E-16, -0.0000000000000000000, -1.000000000000000000 ) ) ;
#289 = AXIS2_PLACEMENT_3D ( 'NONE', #237, #8, #239 ) ;
#290 = LINE ( 'NONE', #155, #9 ) ;
#291 = DIRECTION ( 'NONE',  ( -1.224646799147353207E-16, -0.0000000000000000000, -1.000000000000000000 ) ) ;
#292 = CARTESIAN_POINT ( 'NONE',  ( -0.1574804999999999955, 0.0000000000000000000, 2.952755999999999936 ) ) ;
#293 =( GEOMETRIC_REPRESENTATION_CONTEXT ( 3 ) GLOBAL_UNCERTAINTY_ASSIGNED_CONTEXT ( ( #28 ) ) GLOBAL_UNIT_ASSIGNED_CONTEXT ( ( #94, #183, #21 ) ) REPRESENTATION_CONTEXT ( 'NONE', 'WORKASPACE' ) );
#294 = DIRECTION ( 'NONE',  ( -1.224646799147353207E-16, -0.0000000000000000000, -1.000000000000000000 ) ) ;
#295 = VERTEX_POINT ( 'NONE', #280 ) ;
#296 = CARTESIAN_POINT ( 'NONE',  ( 0.0000000000000000000, 0.0000000000000000000, 2.952755999999999936 ) ) ;
#297 = AXIS2_PLACEMENT_3D ( 'NONE', #269, #36, #218 ) ;
#298 = DIRECTION ( 'NONE',  ( -1.000000000000000000, 0.0000000000000000000, 0.0000000000000000000 ) ) ;
#299 = LENGTH_MEASURE_WITH_UNIT ( LENGTH_MEASURE( 0.02539999999999999897 ), #1 );
ENDSEC;
END-ISO-10303-21;
