ISO-10303-21;
HEADER;
FILE_DESCRIPTION (( 'STEP AP214' ),
    '1' );
FILE_NAME ('86028.STEP',
    '2023-06-30T23:58:30',
    ( '' ),
    ( '' ),
    'SwSTEP 2.0',
    'SolidWorks 2023',
    '' );
FILE_SCHEMA (( 'AUTOMOTIVE_DESIGN' ));
ENDSEC;

DATA;
#1 = LENGTH_MEASURE_WITH_UNIT ( LENGTH_MEASURE( 0.02539999999999999897 ), #81 );
#2 = DIRECTION ( 'NONE',  ( 0.000000000000000000, 0.000000000000000000, -1.000000000000000000 ) ) ;
#3 = FILL_AREA_STYLE_COLOUR ( '', #97 ) ;
#4 =( NAMED_UNIT ( * ) SI_UNIT ( $, .STERADIAN. ) SOLID_ANGLE_UNIT ( ) );
#5 = AXIS2_PLACEMENT_3D ( 'NONE', #180, #174, #59 ) ;
#6 = FILL_AREA_STYLE_COLOUR ( '', #209 ) ;
#7 = EDGE_CURVE ( 'NONE', #247, #369, #252, .T. ) ;
#8 = PRESENTATION_STYLE_ASSIGNMENT (( #349 ) ) ;
#9 = CYLINDRICAL_SURFACE ( 'NONE', #63, 0.4999999999999998335 ) ;
#10 = AXIS2_PLACEMENT_3D ( 'NONE', #183, #239, #66 ) ;
#11 = AXIS2_PLACEMENT_3D ( 'NONE', #83, #53, #233 ) ;
#12 = UNCERTAINTY_MEASURE_WITH_UNIT (LENGTH_MEASURE( 1.000000000000000082E-05 ), #288, 'distance_accuracy_value', 'NONE');
#13 = DIRECTION ( 'NONE',  ( 0.000000000000000000, 0.000000000000000000, -1.000000000000000000 ) ) ;
#14 = DIRECTION ( 'NONE',  ( -1.241749088029210128E-16, 1.000000000000000000, -0.000000000000000000 ) ) ;
#15 = ADVANCED_FACE ( 'NONE', ( #51 ), #348, .T. ) ;
#16 =( NAMED_UNIT ( * ) SI_UNIT ( $, .STERADIAN. ) SOLID_ANGLE_UNIT ( ) );
#17 = SURFACE_STYLE_USAGE ( .BOTH. , #281 ) ;
#18 = EDGE_LOOP ( 'NONE', ( #222, #26 ) ) ;
#19 = FILL_AREA_STYLE ('',( #238 ) ) ;
#20 = ORIENTED_EDGE ( 'NONE', *, *, #257, .T. ) ;
#21 = CIRCLE ( 'NONE', #32, 0.5000000000000000000 ) ;
#22 = ORIENTED_EDGE ( 'NONE', *, *, #7, .T. ) ;
#23 = DIRECTION ( 'NONE',  ( -0.000000000000000000, -1.000000000000000000, -0.000000000000000000 ) ) ;
#24 = DIRECTION ( 'NONE',  ( 0.000000000000000000, 0.000000000000000000, -1.000000000000000000 ) ) ;
#25 = VERTEX_POINT ( 'NONE', #144 ) ;
#26 = ORIENTED_EDGE ( 'NONE', *, *, #304, .F. ) ;
#27 = DIRECTION ( 'NONE',  ( 0.000000000000000000, 0.000000000000000000, -1.000000000000000000 ) ) ;
#28 = CARTESIAN_POINT ( 'NONE',  ( 0.000000000000000000, 0.5000000000000001110, 0.000000000000000000 ) ) ;
#29 = CARTESIAN_POINT ( 'NONE',  ( 0.4999999999999996114, 4.000000000000000000, 6.123233995736757408E-17 ) ) ;
#30 = CARTESIAN_POINT ( 'NONE',  ( -6.123233995736766036E-17, 0.5000000000000000000, 0.000000000000000000 ) ) ;
#31 = DIRECTION ( 'NONE',  ( -1.000000000000000000, 0.000000000000000000, 0.000000000000000000 ) ) ;
#32 = AXIS2_PLACEMENT_3D ( 'NONE', #187, #153, #308 ) ;
#33 = COLOUR_RGB ( '',1.000000000000000000, 0.000000000000000000, 0.000000000000000000 ) ;
#34 = CIRCLE ( 'NONE', #219, 0.4999999999999995004 ) ;
#35 = PRESENTATION_LAYER_ASSIGNMENT (  '', '', ( #235 ) ) ;
#36 =( LENGTH_UNIT ( ) NAMED_UNIT ( * ) SI_UNIT ( $, .METRE. ) );
#37 = EDGE_CURVE ( 'NONE', #128, #369, #118, .T. ) ;
#38 = DIRECTION ( 'NONE',  ( 0.000000000000000000, -0.000000000000000000, 1.000000000000000000 ) ) ;
#39 = PRESENTATION_LAYER_ASSIGNMENT (  '', '', ( #270 ) ) ;
#40 = FILL_AREA_STYLE_COLOUR ( '', #86 ) ;
#41 = DIRECTION ( 'NONE',  ( -0.000000000000000000, -1.000000000000000000, -0.000000000000000000 ) ) ;
#42 = DIRECTION ( 'NONE',  ( -1.241749088029210128E-16, 1.000000000000000000, -0.000000000000000000 ) ) ;
#43 = ORIENTED_EDGE ( 'NONE', *, *, #94, .T. ) ;
#44 = PRESENTATION_LAYER_ASSIGNMENT (  '', '', ( #367 ) ) ;
#45 = ORIENTED_EDGE ( 'NONE', *, *, #89, .F. ) ;
#46 = CIRCLE ( 'NONE', #352, 0.4999999999999991673 ) ;
#47 = DIRECTION ( 'NONE',  ( -0.000000000000000000, -1.000000000000000000, -0.000000000000000000 ) ) ;
#48 = EDGE_LOOP ( 'NONE', ( #311, #159, #316, #155, #101 ) ) ;
#49 = CARTESIAN_POINT ( 'NONE',  ( -0.4999999999999990563, 4.000000000000000000, 0.000000000000000000 ) ) ;
#50 = MECHANICAL_DESIGN_GEOMETRIC_PRESENTATION_REPRESENTATION (  '', ( #309 ), #278 ) ;
#51 = FACE_OUTER_BOUND ( 'NONE', #74, .T. ) ;
#52 = LINE ( 'NONE', #29, #271 ) ;
#53 = DIRECTION ( 'NONE',  ( 1.224646799147353207E-16, -0.000000000000000000, 1.000000000000000000 ) ) ;
#54 =( LENGTH_UNIT ( ) NAMED_UNIT ( * ) SI_UNIT ( $, .METRE. ) );
#55 = PRODUCT_RELATED_PRODUCT_CATEGORY ( 'part', '', ( #151 ) ) ;
#56 = CARTESIAN_POINT ( 'NONE',  ( 2.449293598294707400E-16, 4.000000000000000000, 0.000000000000000000 ) ) ;
#57 = LENGTH_MEASURE_WITH_UNIT ( LENGTH_MEASURE( 0.02539999999999999897 ), #323 );
#58 = ORIENTED_EDGE ( 'NONE', *, *, #89, .T. ) ;
#59 = DIRECTION ( 'NONE',  ( 1.000000000000000000, 0.000000000000000000, 0.000000000000000000 ) ) ;
#60 = PRODUCT_DEFINITION ( 'UNKNOWN', '', #176, #361 ) ;
#61 = SURFACE_STYLE_USAGE ( .BOTH. , #145 ) ;
#62 = SURFACE_STYLE_FILL_AREA ( #116 ) ;
#63 = AXIS2_PLACEMENT_3D ( 'NONE', #163, #249, #24 ) ;
#64 = CARTESIAN_POINT ( 'NONE',  ( -0.4999999999999985567, 1.250000000000000000, 0.000000000000000000 ) ) ;
#65 = APPLICATION_CONTEXT ( 'automotive_design' ) ;
#66 = DIRECTION ( 'NONE',  ( -1.000000000000000000, 0.000000000000000000, 0.000000000000000000 ) ) ;
#67 = ADVANCED_FACE ( 'NONE', ( #137 ), #138, .F. ) ;
#68 = CARTESIAN_POINT ( 'NONE',  ( 5.864103590375035437E-16, 1.250000000000000000, 0.000000000000000000 ) ) ;
#69 = DIRECTION ( 'NONE',  ( -1.000000000000000000, 0.000000000000000000, 0.000000000000000000 ) ) ;
#70 =( GEOMETRIC_REPRESENTATION_CONTEXT ( 3 ) GLOBAL_UNCERTAINTY_ASSIGNED_CONTEXT ( ( #234 ) ) GLOBAL_UNIT_ASSIGNED_CONTEXT ( ( #208, #216, #215 ) ) REPRESENTATION_CONTEXT ( 'NONE', 'WORKASPACE' ) );
#71 = MECHANICAL_DESIGN_GEOMETRIC_PRESENTATION_REPRESENTATION (  '', ( #279 ), #286 ) ;
#72 = APPLICATION_CONTEXT ( 'automotive_design' ) ;
#73 = VERTEX_POINT ( 'NONE', #171 ) ;
#74 = EDGE_LOOP ( 'NONE', ( #365, #106, #346, #217 ) ) ;
#75 = CIRCLE ( 'NONE', #344, 0.4999999999999997780 ) ;
#76 = ORIENTED_EDGE ( 'NONE', *, *, #261, .F. ) ;
#77 = FACE_OUTER_BOUND ( 'NONE', #313, .T. ) ;
#78 = EDGE_CURVE ( 'NONE', #134, #284, #34, .T. ) ;
#79 = ORIENTED_EDGE ( 'NONE', *, *, #355, .F. ) ;
#80 = CARTESIAN_POINT ( 'NONE',  ( 5.864103590375035437E-16, 1.250000000000000000, 0.000000000000000000 ) ) ;
#81 =( LENGTH_UNIT ( ) NAMED_UNIT ( * ) SI_UNIT ( $, .METRE. ) );
#82 = DIRECTION ( 'NONE',  ( 0.000000000000000000, 0.000000000000000000, -1.000000000000000000 ) ) ;
#83 = CARTESIAN_POINT ( 'NONE',  ( -6.123233995736766036E-17, 0.5000000000000000000, 0.000000000000000000 ) ) ;
#84 = PRESENTATION_STYLE_ASSIGNMENT (( #17 ) ) ;
#85 = FACE_OUTER_BOUND ( 'NONE', #372, .T. ) ;
#86 = COLOUR_RGB ( '',1.000000000000000000, 0.000000000000000000, 0.000000000000000000 ) ;
#87 = UNCERTAINTY_MEASURE_WITH_UNIT (LENGTH_MEASURE( 1.000000000000000082E-05 ), #291, 'distance_accuracy_value', 'NONE');
#88 = CARTESIAN_POINT ( 'NONE',  ( 0.000000000000000000, 0.000000000000000000, -0.4999999999999998335 ) ) ;
#89 = EDGE_CURVE ( 'NONE', #194, #224, #46, .T. ) ;
#90 = UNCERTAINTY_MEASURE_WITH_UNIT (LENGTH_MEASURE( 1.000000000000000082E-05 ), #232, 'distance_accuracy_value', 'NONE');
#91 = PRESENTATION_STYLE_ASSIGNMENT (( #305 ) ) ;
#92 = DIMENSIONAL_EXPONENTS ( 1.000000000000000000, 0.000000000000000000, 0.000000000000000000, 0.000000000000000000, 0.000000000000000000, 0.000000000000000000, 0.000000000000000000 ) ;
#93 = CIRCLE ( 'NONE', #192, 0.4999999999999997780 ) ;
#94 = EDGE_CURVE ( 'NONE', #247, #25, #267, .T. ) ;
#95 = VECTOR ( 'NONE', #114, 39.37007874015748143 ) ;
#96 = AXIS2_PLACEMENT_3D ( 'NONE', #221, #190, #193 ) ;
#97 = COLOUR_RGB ( '',1.000000000000000000, 0.000000000000000000, 0.000000000000000000 ) ;
#98 = PRODUCT_DEFINITION_SHAPE ( 'NONE', 'NONE',  #60 ) ;
#99 = ORIENTED_EDGE ( 'NONE', *, *, #132, .T. ) ;
#100 = CARTESIAN_POINT ( 'NONE',  ( 0.4999999999999998335, 1.250000000000000000, 6.123233995736758640E-17 ) ) ;
#101 = ORIENTED_EDGE ( 'NONE', *, *, #207, .F. ) ;
#102 =( NAMED_UNIT ( * ) PLANE_ANGLE_UNIT ( ) SI_UNIT ( $, .RADIAN. ) );
#103 = ORIENTED_EDGE ( 'NONE', *, *, #78, .F. ) ;
#104 = LINE ( 'NONE', #253, #315 ) ;
#105 = SURFACE_STYLE_FILL_AREA ( #371 ) ;
#106 = ORIENTED_EDGE ( 'NONE', *, *, #364, .T. ) ;
#107 = EDGE_LOOP ( 'NONE', ( #340, #58, #339, #103 ) ) ;
#108 =( CONVERSION_BASED_UNIT ( 'INCH', #225 ) LENGTH_UNIT ( ) NAMED_UNIT ( #338 ) );
#109 = SURFACE_SIDE_STYLE ('',( #298 ) ) ;
#110 = LINE ( 'NONE', #88, #95 ) ;
#111 = DIRECTION ( 'NONE',  ( 1.000000000000000000, 0.000000000000000000, 0.000000000000000000 ) ) ;
#112 = ADVANCED_BREP_SHAPE_REPRESENTATION ( '86028', ( #204, #212, #96 ), #140 ) ;
#113 = CARTESIAN_POINT ( 'NONE',  ( -6.123233995736766036E-17, 0.5000000000000000000, 0.000000000000000000 ) ) ;
#114 = DIRECTION ( 'NONE',  ( -0.000000000000000000, -1.000000000000000000, -0.000000000000000000 ) ) ;
#115 = ADVANCED_FACE ( 'NONE', ( #85 ), #167, .T. ) ;
#116 = FILL_AREA_STYLE ('',( #214 ) ) ;
#117 =( GEOMETRIC_REPRESENTATION_CONTEXT ( 3 ) GLOBAL_UNCERTAINTY_ASSIGNED_CONTEXT ( ( #147 ) ) GLOBAL_UNIT_ASSIGNED_CONTEXT ( ( #262, #268, #4 ) ) REPRESENTATION_CONTEXT ( 'NONE', 'WORKASPACE' ) );
#118 = CIRCLE ( 'NONE', #11, 0.5000000000000000000 ) ;
#119 = PRESENTATION_STYLE_ASSIGNMENT (( #366 ) ) ;
#120 = SURFACE_SIDE_STYLE ('',( #62 ) ) ;
#121 = EDGE_CURVE ( 'NONE', #224, #284, #266, .T. ) ;
#122 = CARTESIAN_POINT ( 'NONE',  ( 0.5000000000000000000, 0.5000000000000001110, 0.000000000000000000 ) ) ;
#123 = MECHANICAL_DESIGN_GEOMETRIC_PRESENTATION_REPRESENTATION (  '', ( #270 ), #70 ) ;
#124 = CIRCLE ( 'NONE', #331, 0.5000000000000000000 ) ;
#125 = CARTESIAN_POINT ( 'NONE',  ( 6.123233995736763571E-17, 1.250000000000000000, 0.4999999999999997780 ) ) ;
#126 = SURFACE_STYLE_FILL_AREA ( #19 ) ;
#127 = PRESENTATION_LAYER_ASSIGNMENT (  '', '', ( #309 ) ) ;
#128 = VERTEX_POINT ( 'NONE', #231 ) ;
#129 = CARTESIAN_POINT ( 'NONE',  ( 0.000000000000000000, 1.250000000000000000, -0.4999999999999997780 ) ) ;
#130 = PLANE ( 'NONE',  #263 ) ;
#131 = ORIENTED_EDGE ( 'NONE', *, *, #341, .F. ) ;
#132 = EDGE_CURVE ( 'NONE', #73, #247, #265, .T. ) ;
#133 = CARTESIAN_POINT ( 'NONE',  ( 0.4999999999999997780, 4.000000000000000000, 0.000000000000000000 ) ) ;
#134 = VERTEX_POINT ( 'NONE', #226 ) ;
#135 = FILL_AREA_STYLE ('',( #3 ) ) ;
#136 =( NAMED_UNIT ( * ) PLANE_ANGLE_UNIT ( ) SI_UNIT ( $, .RADIAN. ) );
#137 = FACE_OUTER_BOUND ( 'NONE', #189, .T. ) ;
#138 = PLANE ( 'NONE',  #345 ) ;
#139 =( GEOMETRIC_REPRESENTATION_CONTEXT ( 3 ) GLOBAL_UNCERTAINTY_ASSIGNED_CONTEXT ( ( #182 ) ) GLOBAL_UNIT_ASSIGNED_CONTEXT ( ( #300, #302, #16 ) ) REPRESENTATION_CONTEXT ( 'NONE', 'WORKASPACE' ) );
#140 =( GEOMETRIC_REPRESENTATION_CONTEXT ( 3 ) GLOBAL_UNCERTAINTY_ASSIGNED_CONTEXT ( ( #87 ) ) GLOBAL_UNIT_ASSIGNED_CONTEXT ( ( #291, #102, #256 ) ) REPRESENTATION_CONTEXT ( 'NONE', 'WORKASPACE' ) );
#141 = PRESENTATION_LAYER_ASSIGNMENT (  '', '', ( #142 ) ) ;
#142 = STYLED_ITEM ( 'NONE', ( #8 ), #115 ) ;
#143 =( NAMED_UNIT ( * ) SI_UNIT ( $, .STERADIAN. ) SOLID_ANGLE_UNIT ( ) );
#144 = CARTESIAN_POINT ( 'NONE',  ( 6.123233995736766036E-17, 0.5000000000000001110, 0.5000000000000000000 ) ) ;
#145 = SURFACE_SIDE_STYLE ('',( #203 ) ) ;
#146 = MECHANICAL_DESIGN_GEOMETRIC_PRESENTATION_REPRESENTATION (  '', ( #299 ), #334 ) ;
#147 = UNCERTAINTY_MEASURE_WITH_UNIT (LENGTH_MEASURE( 1.000000000000000082E-05 ), #262, 'distance_accuracy_value', 'NONE');
#148 =( NAMED_UNIT ( * ) PLANE_ANGLE_UNIT ( ) SI_UNIT ( $, .RADIAN. ) );
#149 =( LENGTH_UNIT ( ) NAMED_UNIT ( * ) SI_UNIT ( $, .METRE. ) );
#150 = FILL_AREA_STYLE_COLOUR ( '', #205 ) ;
#151 = PRODUCT ( '86028', '86028', '', ( #317 ) ) ;
#152 = MECHANICAL_DESIGN_GEOMETRIC_PRESENTATION_REPRESENTATION (  '', ( #235 ), #139 ) ;
#153 = DIRECTION ( 'NONE',  ( -0.000000000000000000, -1.000000000000000000, -0.000000000000000000 ) ) ;
#154 = CLOSED_SHELL ( 'NONE', ( #202, #328, #223, #162, #115 ) ) ;
#155 = ORIENTED_EDGE ( 'NONE', *, *, #132, .F. ) ;
#156 = FACE_OUTER_BOUND ( 'NONE', #48, .T. ) ;
#157 = ORIENTED_EDGE ( 'NONE', *, *, #78, .T. ) ;
#158 = CARTESIAN_POINT ( 'NONE',  ( 0.000000000000000000, 1.250000000000000000, 0.000000000000000000 ) ) ;
#159 = ORIENTED_EDGE ( 'NONE', *, *, #355, .T. ) ;
#160 =( LENGTH_UNIT ( ) NAMED_UNIT ( * ) SI_UNIT ( $, .METRE. ) );
#161 = AXIS2_PLACEMENT_3D ( 'NONE', #113, #200, #111 ) ;
#162 = ADVANCED_FACE ( 'NONE', ( #303 ), #9, .T. ) ;
#163 = CARTESIAN_POINT ( 'NONE',  ( 0.000000000000000000, 0.000000000000000000, 0.000000000000000000 ) ) ;
#164 = DIRECTION ( 'NONE',  ( -0.000000000000000000, -1.000000000000000000, -0.000000000000000000 ) ) ;
#165 = EDGE_LOOP ( 'NONE', ( #79, #290, #314, #131, #76 ) ) ;
#166 = CARTESIAN_POINT ( 'NONE',  ( 0.000000000000000000, 0.5000000000000001110, 0.000000000000000000 ) ) ;
#167 = SPHERICAL_SURFACE ( 'NONE', #161, 0.5000000000000000000 ) ;
#168 = AXIS2_PLACEMENT_3D ( 'NONE', #312, #14, #332 ) ;
#169 = DIRECTION ( 'NONE',  ( -1.000000000000000000, -1.241749088029210128E-16, 0.000000000000000000 ) ) ;
#170 = AXIS2_PLACEMENT_3D ( 'NONE', #56, #294, #31 ) ;
#171 = CARTESIAN_POINT ( 'NONE',  ( 0.000000000000000000, 0.5000000000000001110, -0.5000000000000000000 ) ) ;
#172 = FILL_AREA_STYLE_COLOUR ( '', #325 ) ;
#173 = DIRECTION ( 'NONE',  ( -1.241749088029210128E-16, 1.000000000000000000, 0.000000000000000000 ) ) ;
#174 = DIRECTION ( 'NONE',  ( 0.000000000000000000, 0.000000000000000000, 1.000000000000000000 ) ) ;
#175 = COLOUR_RGB ( '',1.000000000000000000, 0.000000000000000000, 0.000000000000000000 ) ;
#176 = PRODUCT_DEFINITION_FORMATION_WITH_SPECIFIED_SOURCE ( 'ANY', '', #151, .NOT_KNOWN. ) ;
#177 = DIRECTION ( 'NONE',  ( -1.241749088029210128E-16, 1.000000000000000000, -0.000000000000000000 ) ) ;
#178 = AXIS2_PLACEMENT_3D ( 'NONE', #28, #227, #320 ) ;
#179 = PRESENTATION_STYLE_ASSIGNMENT (( #61 ) ) ;
#180 = CARTESIAN_POINT ( 'NONE',  ( -6.123233995736766036E-17, 0.5000000000000000000, 0.000000000000000000 ) ) ;
#181 = AXIS2_PLACEMENT_3D ( 'NONE', #68, #42, #69 ) ;
#182 = UNCERTAINTY_MEASURE_WITH_UNIT (LENGTH_MEASURE( 1.000000000000000082E-05 ), #300, 'distance_accuracy_value', 'NONE');
#183 = CARTESIAN_POINT ( 'NONE',  ( 2.449293598294707400E-16, 4.000000000000000000, 0.000000000000000000 ) ) ;
#184 = DIRECTION ( 'NONE',  ( 0.000000000000000000, 0.000000000000000000, -1.000000000000000000 ) ) ;
#185 = LENGTH_MEASURE_WITH_UNIT ( LENGTH_MEASURE( 0.02539999999999999897 ), #335 );
#186 = PRESENTATION_LAYER_ASSIGNMENT (  '', '', ( #299 ) ) ;
#187 = CARTESIAN_POINT ( 'NONE',  ( 0.000000000000000000, 0.5000000000000001110, 0.000000000000000000 ) ) ;
#188 =( NAMED_UNIT ( * ) SI_UNIT ( $, .STERADIAN. ) SOLID_ANGLE_UNIT ( ) );
#189 = EDGE_LOOP ( 'NONE', ( #255, #45 ) ) ;
#190 = DIRECTION ( 'NONE',  ( 0.000000000000000000, 0.000000000000000000, 1.000000000000000000 ) ) ;
#191 =( NAMED_UNIT ( * ) PLANE_ANGLE_UNIT ( ) SI_UNIT ( $, .RADIAN. ) );
#192 = AXIS2_PLACEMENT_3D ( 'NONE', #158, #359, #13 ) ;
#193 = DIRECTION ( 'NONE',  ( 1.000000000000000000, 0.000000000000000000, 0.000000000000000000 ) ) ;
#194 = VERTEX_POINT ( 'NONE', #100 ) ;
#195 = PLANE ( 'NONE',  #210 ) ;
#196 = ORIENTED_EDGE ( 'NONE', *, *, #37, .F. ) ;
#197 = APPLICATION_PROTOCOL_DEFINITION ( 'draft international standard', 'automotive_design', 1998, #65 ) ;
#198 = DIRECTION ( 'NONE',  ( -1.000000000000000000, 0.000000000000000000, 0.000000000000000000 ) ) ;
#199 = DIRECTION ( 'NONE',  ( 1.000000000000000000, 1.241749088029210128E-16, 0.000000000000000000 ) ) ;
#200 = DIRECTION ( 'NONE',  ( 0.000000000000000000, 0.000000000000000000, 1.000000000000000000 ) ) ;
#201 = DIRECTION ( 'NONE',  ( -1.241749088029210128E-16, 1.000000000000000000, -0.000000000000000000 ) ) ;
#202 = ADVANCED_FACE ( 'NONE', ( #295 ), #358, .T. ) ;
#203 = SURFACE_STYLE_FILL_AREA ( #237 ) ;
#204 = MANIFOLD_SOLID_BREP ( 'Revolve - Cutting Edge', #154 ) ;
#205 = COLOUR_RGB ( '',1.000000000000000000, 0.000000000000000000, 0.000000000000000000 ) ;
#206 =( NAMED_UNIT ( * ) PLANE_ANGLE_UNIT ( ) SI_UNIT ( $, .RADIAN. ) );
#207 = EDGE_CURVE ( 'NONE', #343, #73, #110, .T. ) ;
#208 =( CONVERSION_BASED_UNIT ( 'INCH', #277 ) LENGTH_UNIT ( ) NAMED_UNIT ( #236 ) );
#209 = COLOUR_RGB ( '',0.7921568627450980005, 0.8196078431372548767, 0.9333333333333333481 ) ;
#210 = AXIS2_PLACEMENT_3D ( 'NONE', #133, #319, #199 ) ;
#211 = FACE_OUTER_BOUND ( 'NONE', #107, .T. ) ;
#212 = MANIFOLD_SOLID_BREP ( 'Revolve - Tool Body (Straight Shanked)', #245 ) ;
#213 = DIMENSIONAL_EXPONENTS ( 1.000000000000000000, 0.000000000000000000, 0.000000000000000000, 0.000000000000000000, 0.000000000000000000, 0.000000000000000000, 0.000000000000000000 ) ;
#214 = FILL_AREA_STYLE_COLOUR ( '', #175 ) ;
#215 =( NAMED_UNIT ( * ) SI_UNIT ( $, .STERADIAN. ) SOLID_ANGLE_UNIT ( ) );
#216 =( NAMED_UNIT ( * ) PLANE_ANGLE_UNIT ( ) SI_UNIT ( $, .RADIAN. ) );
#217 = ORIENTED_EDGE ( 'NONE', *, *, #121, .F. ) ;
#218 = PRESENTATION_LAYER_ASSIGNMENT (  '', '', ( #279 ) ) ;
#219 = AXIS2_PLACEMENT_3D ( 'NONE', #324, #201, #356 ) ;
#220 = ORIENTED_EDGE ( 'NONE', *, *, #341, .T. ) ;
#221 = CARTESIAN_POINT ( 'NONE',  ( 0.000000000000000000, 0.000000000000000000, 0.000000000000000000 ) ) ;
#222 = ORIENTED_EDGE ( 'NONE', *, *, #275, .F. ) ;
#223 = ADVANCED_FACE ( 'NONE', ( #363 ), #130, .T. ) ;
#224 = VERTEX_POINT ( 'NONE', #64 ) ;
#225 = LENGTH_MEASURE_WITH_UNIT ( LENGTH_MEASURE( 0.02539999999999999897 ), #160 );
#226 = CARTESIAN_POINT ( 'NONE',  ( 0.4999999999999998335, 4.000000000000000000, 6.123233995736758640E-17 ) ) ;
#227 = DIRECTION ( 'NONE',  ( -0.000000000000000000, -1.000000000000000000, -0.000000000000000000 ) ) ;
#228 = SURFACE_STYLE_USAGE ( .BOTH. , #353 ) ;
#229 = CARTESIAN_POINT ( 'NONE',  ( 0.000000000000000000, 0.5000000000000001110, 0.000000000000000000 ) ) ;
#230 = ADVANCED_FACE ( 'NONE', ( #211 ), #329, .T. ) ;
#231 = CARTESIAN_POINT ( 'NONE',  ( -0.5000000000000000000, 0.5000000000000001110, 6.123233995736764803E-17 ) ) ;
#232 =( CONVERSION_BASED_UNIT ( 'INCH', #321 ) LENGTH_UNIT ( ) NAMED_UNIT ( #240 ) );
#233 = DIRECTION ( 'NONE',  ( 1.000000000000000000, 0.000000000000000000, -1.224646799147353207E-16 ) ) ;
#234 = UNCERTAINTY_MEASURE_WITH_UNIT (LENGTH_MEASURE( 1.000000000000000082E-05 ), #208, 'distance_accuracy_value', 'NONE');
#235 = STYLED_ITEM ( 'NONE', ( #351 ), #212 ) ;
#236 = DIMENSIONAL_EXPONENTS ( 1.000000000000000000, 0.000000000000000000, 0.000000000000000000, 0.000000000000000000, 0.000000000000000000, 0.000000000000000000, 0.000000000000000000 ) ;
#237 = FILL_AREA_STYLE ('',( #6 ) ) ;
#238 = FILL_AREA_STYLE_COLOUR ( '', #33 ) ;
#239 = DIRECTION ( 'NONE',  ( -1.241749088029210128E-16, 1.000000000000000000, -0.000000000000000000 ) ) ;
#240 = DIMENSIONAL_EXPONENTS ( 1.000000000000000000, 0.000000000000000000, 0.000000000000000000, 0.000000000000000000, 0.000000000000000000, 0.000000000000000000, 0.000000000000000000 ) ;
#241 = CIRCLE ( 'NONE', #10, 0.4999999999999995004 ) ;
#242 = UNCERTAINTY_MEASURE_WITH_UNIT (LENGTH_MEASURE( 1.000000000000000082E-05 ), #269, 'distance_accuracy_value', 'NONE');
#243 = EDGE_CURVE ( 'NONE', #224, #194, #350, .T. ) ;
#244 = CARTESIAN_POINT ( 'NONE',  ( 0.000000000000000000, 1.250000000000000000, 0.000000000000000000 ) ) ;
#245 = CLOSED_SHELL ( 'NONE', ( #15, #67, #230, #362 ) ) ;
#246 = DIMENSIONAL_EXPONENTS ( 1.000000000000000000, 0.000000000000000000, 0.000000000000000000, 0.000000000000000000, 0.000000000000000000, 0.000000000000000000, 0.000000000000000000 ) ;
#247 = VERTEX_POINT ( 'NONE', #122 ) ;
#248 = DIRECTION ( 'NONE',  ( 0.000000000000000000, 1.000000000000000000, 0.000000000000000000 ) ) ;
#249 = DIRECTION ( 'NONE',  ( -0.000000000000000000, -1.000000000000000000, -0.000000000000000000 ) ) ;
#250 = EDGE_LOOP ( 'NONE', ( #318, #282, #336, #43 ) ) ;
#251 = MECHANICAL_DESIGN_GEOMETRIC_PRESENTATION_REPRESENTATION (  '', ( #142 ), #117 ) ;
#252 = CIRCLE ( 'NONE', #258, 0.5000000000000000000 ) ;
#253 = CARTESIAN_POINT ( 'NONE',  ( 6.123233995736764803E-17, 0.000000000000000000, 0.4999999999999998335 ) ) ;
#254 = DIRECTION ( 'NONE',  ( -1.241749088029210128E-16, 1.000000000000000000, -0.000000000000000000 ) ) ;
#255 = ORIENTED_EDGE ( 'NONE', *, *, #243, .F. ) ;
#256 =( NAMED_UNIT ( * ) SI_UNIT ( $, .STERADIAN. ) SOLID_ANGLE_UNIT ( ) );
#257 = EDGE_CURVE ( 'NONE', #284, #134, #241, .T. ) ;
#258 = AXIS2_PLACEMENT_3D ( 'NONE', #30, #82, #198 ) ;
#259 = CARTESIAN_POINT ( 'NONE',  ( 0.000000000000000000, 0.000000000000000000, 0.000000000000000000 ) ) ;
#260 = CARTESIAN_POINT ( 'NONE',  ( 5.864103590375035437E-16, 1.250000000000000000, 0.000000000000000000 ) ) ;
#261 = EDGE_CURVE ( 'NONE', #25, #128, #21, .T. ) ;
#262 =( CONVERSION_BASED_UNIT ( 'INCH', #1 ) LENGTH_UNIT ( ) NAMED_UNIT ( #213 ) );
#263 = AXIS2_PLACEMENT_3D ( 'NONE', #244, #248, #38 ) ;
#264 =( NAMED_UNIT ( * ) SI_UNIT ( $, .STERADIAN. ) SOLID_ANGLE_UNIT ( ) );
#265 = CIRCLE ( 'NONE', #342, 0.5000000000000000000 ) ;
#266 = LINE ( 'NONE', #49, #357 ) ;
#267 = CIRCLE ( 'NONE', #178, 0.5000000000000000000 ) ;
#268 =( NAMED_UNIT ( * ) PLANE_ANGLE_UNIT ( ) SI_UNIT ( $, .RADIAN. ) );
#269 =( CONVERSION_BASED_UNIT ( 'INCH', #327 ) LENGTH_UNIT ( ) NAMED_UNIT ( #92 ) );
#270 = STYLED_ITEM ( 'NONE', ( #91 ), #223 ) ;
#271 = VECTOR ( 'NONE', #254, 39.37007874015748143 ) ;
#272 = DIMENSIONAL_EXPONENTS ( 1.000000000000000000, 0.000000000000000000, 0.000000000000000000, 0.000000000000000000, 0.000000000000000000, 0.000000000000000000, 0.000000000000000000 ) ;
#273 = UNCERTAINTY_MEASURE_WITH_UNIT (LENGTH_MEASURE( 1.000000000000000082E-05 ), #108, 'distance_accuracy_value', 'NONE');
#274 = SURFACE_SIDE_STYLE ('',( #337 ) ) ;
#275 = EDGE_CURVE ( 'NONE', #343, #289, #93, .T. ) ;
#276 = DIMENSIONAL_EXPONENTS ( 1.000000000000000000, 0.000000000000000000, 0.000000000000000000, 0.000000000000000000, 0.000000000000000000, 0.000000000000000000, 0.000000000000000000 ) ;
#277 = LENGTH_MEASURE_WITH_UNIT ( LENGTH_MEASURE( 0.02539999999999999897 ), #149 );
#278 =( GEOMETRIC_REPRESENTATION_CONTEXT ( 3 ) GLOBAL_UNCERTAINTY_ASSIGNED_CONTEXT ( ( #242 ) ) GLOBAL_UNIT_ASSIGNED_CONTEXT ( ( #269, #148, #264 ) ) REPRESENTATION_CONTEXT ( 'NONE', 'WORKASPACE' ) );
#279 = STYLED_ITEM ( 'NONE', ( #119 ), #328 ) ;
#280 = CARTESIAN_POINT ( 'NONE',  ( -0.4999999999999992228, 4.000000000000000000, 0.000000000000000000 ) ) ;
#281 = SURFACE_SIDE_STYLE ('',( #105 ) ) ;
#282 = ORIENTED_EDGE ( 'NONE', *, *, #37, .T. ) ;
#283 = CYLINDRICAL_SURFACE ( 'NONE', #301, 0.4999999999999998335 ) ;
#284 = VERTEX_POINT ( 'NONE', #280 ) ;
#285 =( GEOMETRIC_REPRESENTATION_CONTEXT ( 3 ) GLOBAL_UNCERTAINTY_ASSIGNED_CONTEXT ( ( #12 ) ) GLOBAL_UNIT_ASSIGNED_CONTEXT ( ( #288, #191, #188 ) ) REPRESENTATION_CONTEXT ( 'NONE', 'WORKASPACE' ) );
#286 =( GEOMETRIC_REPRESENTATION_CONTEXT ( 3 ) GLOBAL_UNCERTAINTY_ASSIGNED_CONTEXT ( ( #273 ) ) GLOBAL_UNIT_ASSIGNED_CONTEXT ( ( #108, #136, #287 ) ) REPRESENTATION_CONTEXT ( 'NONE', 'WORKASPACE' ) );
#287 =( NAMED_UNIT ( * ) SI_UNIT ( $, .STERADIAN. ) SOLID_ANGLE_UNIT ( ) );
#288 =( CONVERSION_BASED_UNIT ( 'INCH', #185 ) LENGTH_UNIT ( ) NAMED_UNIT ( #272 ) );
#289 = VERTEX_POINT ( 'NONE', #125 ) ;
#290 = ORIENTED_EDGE ( 'NONE', *, *, #304, .T. ) ;
#291 =( CONVERSION_BASED_UNIT ( 'INCH', #373 ) LENGTH_UNIT ( ) NAMED_UNIT ( #246 ) );
#292 = DIRECTION ( 'NONE',  ( -1.241749088029210128E-16, 1.000000000000000000, -0.000000000000000000 ) ) ;
#293 = APPLICATION_PROTOCOL_DEFINITION ( 'draft international standard', 'automotive_design', 1998, #72 ) ;
#294 = DIRECTION ( 'NONE',  ( -1.241749088029210128E-16, 1.000000000000000000, -0.000000000000000000 ) ) ;
#295 = FACE_OUTER_BOUND ( 'NONE', #250, .T. ) ;
#296 = DIRECTION ( 'NONE',  ( -1.000000000000000000, 0.000000000000000000, 0.000000000000000000 ) ) ;
#297 = FILL_AREA_STYLE ('',( #172 ) ) ;
#298 = SURFACE_STYLE_FILL_AREA ( #135 ) ;
#299 = STYLED_ITEM ( 'NONE', ( #84 ), #202 ) ;
#300 =( CONVERSION_BASED_UNIT ( 'INCH', #57 ) LENGTH_UNIT ( ) NAMED_UNIT ( #276 ) );
#301 = AXIS2_PLACEMENT_3D ( 'NONE', #259, #47, #2 ) ;
#302 =( NAMED_UNIT ( * ) PLANE_ANGLE_UNIT ( ) SI_UNIT ( $, .RADIAN. ) );
#303 = FACE_OUTER_BOUND ( 'NONE', #165, .T. ) ;
#304 = EDGE_CURVE ( 'NONE', #289, #343, #75, .T. ) ;
#305 = SURFACE_STYLE_USAGE ( .BOTH. , #274 ) ;
#306 = PRESENTATION_STYLE_ASSIGNMENT (( #360 ) ) ;
#307 = SURFACE_SIDE_STYLE ('',( #126 ) ) ;
#308 = DIRECTION ( 'NONE',  ( 0.000000000000000000, 0.000000000000000000, -1.000000000000000000 ) ) ;
#309 = STYLED_ITEM ( 'NONE', ( #179 ), #204 ) ;
#310 = CARTESIAN_POINT ( 'NONE',  ( 0.000000000000000000, 1.250000000000000000, 0.000000000000000000 ) ) ;
#311 = ORIENTED_EDGE ( 'NONE', *, *, #275, .T. ) ;
#312 = CARTESIAN_POINT ( 'NONE',  ( 2.449293598294707400E-16, 4.000000000000000000, 0.000000000000000000 ) ) ;
#313 = EDGE_LOOP ( 'NONE', ( #20, #157 ) ) ;
#314 = ORIENTED_EDGE ( 'NONE', *, *, #207, .T. ) ;
#315 = VECTOR ( 'NONE', #164, 39.37007874015748143 ) ;
#316 = ORIENTED_EDGE ( 'NONE', *, *, #94, .F. ) ;
#317 = PRODUCT_CONTEXT ( 'NONE', #65, 'mechanical' ) ;
#318 = ORIENTED_EDGE ( 'NONE', *, *, #261, .T. ) ;
#319 = DIRECTION ( 'NONE',  ( 1.241749088029210128E-16, -1.000000000000000000, 0.000000000000000000 ) ) ;
#320 = DIRECTION ( 'NONE',  ( 0.000000000000000000, 0.000000000000000000, -1.000000000000000000 ) ) ;
#321 = LENGTH_MEASURE_WITH_UNIT ( LENGTH_MEASURE( 0.02539999999999999897 ), #54 );
#322 = DIRECTION ( 'NONE',  ( -0.000000000000000000, -1.000000000000000000, -0.000000000000000000 ) ) ;
#323 =( LENGTH_UNIT ( ) NAMED_UNIT ( * ) SI_UNIT ( $, .METRE. ) );
#324 = CARTESIAN_POINT ( 'NONE',  ( 2.449293598294707400E-16, 4.000000000000000000, 0.000000000000000000 ) ) ;
#325 = COLOUR_RGB ( '',0.7921568627450980005, 0.8196078431372548767, 0.9333333333333333481 ) ;
#326 = SURFACE_STYLE_FILL_AREA ( #297 ) ;
#327 = LENGTH_MEASURE_WITH_UNIT ( LENGTH_MEASURE( 0.02539999999999999897 ), #36 );
#328 = ADVANCED_FACE ( 'NONE', ( #156 ), #283, .T. ) ;
#329 = CYLINDRICAL_SURFACE ( 'NONE', #168, 0.4999999999999993339 ) ;
#330 = MECHANICAL_DESIGN_GEOMETRIC_PRESENTATION_REPRESENTATION (  '', ( #367 ), #285 ) ;
#331 = AXIS2_PLACEMENT_3D ( 'NONE', #166, #23, #27 ) ;
#332 = DIRECTION ( 'NONE',  ( -1.000000000000000000, 0.000000000000000000, 0.000000000000000000 ) ) ;
#333 = FILL_AREA_STYLE ('',( #150 ) ) ;
#334 =( GEOMETRIC_REPRESENTATION_CONTEXT ( 3 ) GLOBAL_UNCERTAINTY_ASSIGNED_CONTEXT ( ( #90 ) ) GLOBAL_UNIT_ASSIGNED_CONTEXT ( ( #232, #206, #143 ) ) REPRESENTATION_CONTEXT ( 'NONE', 'WORKASPACE' ) );
#335 =( LENGTH_UNIT ( ) NAMED_UNIT ( * ) SI_UNIT ( $, .METRE. ) );
#336 = ORIENTED_EDGE ( 'NONE', *, *, #7, .F. ) ;
#337 = SURFACE_STYLE_FILL_AREA ( #333 ) ;
#338 = DIMENSIONAL_EXPONENTS ( 1.000000000000000000, 0.000000000000000000, 0.000000000000000000, 0.000000000000000000, 0.000000000000000000, 0.000000000000000000, 0.000000000000000000 ) ;
#339 = ORIENTED_EDGE ( 'NONE', *, *, #121, .T. ) ;
#340 = ORIENTED_EDGE ( 'NONE', *, *, #364, .F. ) ;
#341 = EDGE_CURVE ( 'NONE', #128, #73, #124, .T. ) ;
#342 = AXIS2_PLACEMENT_3D ( 'NONE', #229, #322, #354 ) ;
#343 = VERTEX_POINT ( 'NONE', #129 ) ;
#344 = AXIS2_PLACEMENT_3D ( 'NONE', #310, #41, #184 ) ;
#345 = AXIS2_PLACEMENT_3D ( 'NONE', #80, #173, #169 ) ;
#346 = ORIENTED_EDGE ( 'NONE', *, *, #257, .F. ) ;
#347 =( LENGTH_UNIT ( ) NAMED_UNIT ( * ) SI_UNIT ( $, .METRE. ) );
#348 = CYLINDRICAL_SURFACE ( 'NONE', #170, 0.4999999999999993339 ) ;
#349 = SURFACE_STYLE_USAGE ( .BOTH. , #109 ) ;
#350 = CIRCLE ( 'NONE', #181, 0.4999999999999991673 ) ;
#351 = PRESENTATION_STYLE_ASSIGNMENT (( #228 ) ) ;
#352 = AXIS2_PLACEMENT_3D ( 'NONE', #260, #177, #296 ) ;
#353 = SURFACE_SIDE_STYLE ('',( #326 ) ) ;
#354 = DIRECTION ( 'NONE',  ( 0.000000000000000000, 0.000000000000000000, -1.000000000000000000 ) ) ;
#355 = EDGE_CURVE ( 'NONE', #289, #25, #104, .T. ) ;
#356 = DIRECTION ( 'NONE',  ( -1.000000000000000000, 0.000000000000000000, 0.000000000000000000 ) ) ;
#357 = VECTOR ( 'NONE', #292, 39.37007874015748143 ) ;
#358 = SPHERICAL_SURFACE ( 'NONE', #5, 0.5000000000000000000 ) ;
#359 = DIRECTION ( 'NONE',  ( -0.000000000000000000, -1.000000000000000000, -0.000000000000000000 ) ) ;
#360 = SURFACE_STYLE_USAGE ( .BOTH. , #120 ) ;
#361 = PRODUCT_DEFINITION_CONTEXT ( 'detailed design', #72, 'design' ) ;
#362 = ADVANCED_FACE ( 'NONE', ( #77 ), #195, .F. ) ;
#363 = FACE_OUTER_BOUND ( 'NONE', #18, .T. ) ;
#364 = EDGE_CURVE ( 'NONE', #194, #134, #52, .T. ) ;
#365 = ORIENTED_EDGE ( 'NONE', *, *, #243, .T. ) ;
#366 = SURFACE_STYLE_USAGE ( .BOTH. , #307 ) ;
#367 = STYLED_ITEM ( 'NONE', ( #306 ), #162 ) ;
#368 = SHAPE_DEFINITION_REPRESENTATION ( #98, #112 ) ;
#369 = VERTEX_POINT ( 'NONE', #370 ) ;
#370 = CARTESIAN_POINT ( 'NONE',  ( -3.061616997868383018E-17, 0.000000000000000000, 0.000000000000000000 ) ) ;
#371 = FILL_AREA_STYLE ('',( #40 ) ) ;
#372 = EDGE_LOOP ( 'NONE', ( #196, #220, #99, #22 ) ) ;
#373 = LENGTH_MEASURE_WITH_UNIT ( LENGTH_MEASURE( 0.02539999999999999897 ), #347 );
ENDSEC;
END-ISO-10303-21;
