ISO-10303-21;
HEADER;
FILE_DESCRIPTION (( 'STEP AP214' ),
    '1' );
FILE_NAME ('00675.STEP',
    '2023-06-22T14:13:56',
    ( '' ),
    ( '' ),
    'SwSTEP 2.0',
    'SolidWorks 2023',
    '' );
FILE_SCHEMA (( 'AUTOMOTIVE_DESIGN' ));
ENDSEC;

DATA;
#1 = CARTESIAN_POINT ( 'NONE',  ( 0.000000000000000000, 0.000000000000000000, 0.000000000000000000 ) ) ;
#2 = LINE ( 'NONE', #7, #27 ) ;
#3 = SURFACE_STYLE_FILL_AREA ( #237 ) ;
#4 = MECHANICAL_DESIGN_GEOMETRIC_PRESENTATION_REPRESENTATION (  '', ( #252 ), #175 ) ;
#5 = VERTEX_POINT ( 'NONE', #161 ) ;
#6 = UNCERTAINTY_MEASURE_WITH_UNIT (LENGTH_MEASURE( 1.000000000000000082E-05 ), #83, 'distance_accuracy_value', 'NONE');
#7 = CARTESIAN_POINT ( 'NONE',  ( 4.592425496802575451E-17, 0.000000000000000000, 0.3750000000000000555 ) ) ;
#8 = VERTEX_POINT ( 'NONE', #31 ) ;
#9 = ORIENTED_EDGE ( 'NONE', *, *, #204, .T. ) ;
#10 = CIRCLE ( 'NONE', #151, 0.3750000000000000555 ) ;
#11 = FILL_AREA_STYLE ('',( #152 ) ) ;
#12 = SURFACE_SIDE_STYLE ('',( #129 ) ) ;
#13 = MECHANICAL_DESIGN_GEOMETRIC_PRESENTATION_REPRESENTATION (  '', ( #101 ), #91 ) ;
#14 = VECTOR ( 'NONE', #217, 39.37007874015748143 ) ;
#15 = ADVANCED_FACE ( 'NONE', ( #246 ), #97, .T. ) ;
#16 =( NAMED_UNIT ( * ) PLANE_ANGLE_UNIT ( ) SI_UNIT ( $, .RADIAN. ) );
#17 = PRESENTATION_STYLE_ASSIGNMENT (( #134 ) ) ;
#18 = COLOUR_RGB ( '',0.7921568627450980005, 0.8196078431372548767, 0.9333333333333333481 ) ;
#19 =( CONVERSION_BASED_UNIT ( 'INCH', #126 ) LENGTH_UNIT ( ) NAMED_UNIT ( #284 ) );
#20 = DIRECTION ( 'NONE',  ( 0.000000000000000000, 0.000000000000000000, 1.000000000000000000 ) ) ;
#21 = AXIS2_PLACEMENT_3D ( 'NONE', #276, #229, #308 ) ;
#22 = PRODUCT ( '00675', '00675', '', ( #201 ) ) ;
#23 = FACE_OUTER_BOUND ( 'NONE', #219, .T. ) ;
#24 = ORIENTED_EDGE ( 'NONE', *, *, #290, .F. ) ;
#25 = ADVANCED_FACE ( 'NONE', ( #138 ), #150, .T. ) ;
#26 = FACE_OUTER_BOUND ( 'NONE', #96, .T. ) ;
#27 = VECTOR ( 'NONE', #55, 39.37007874015748143 ) ;
#28 =( CONVERSION_BASED_UNIT ( 'INCH', #72 ) LENGTH_UNIT ( ) NAMED_UNIT ( #46 ) );
#29 = UNCERTAINTY_MEASURE_WITH_UNIT (LENGTH_MEASURE( 1.000000000000000082E-05 ), #28, 'distance_accuracy_value', 'NONE');
#30 = PLANE ( 'NONE',  #181 ) ;
#31 = CARTESIAN_POINT ( 'NONE',  ( -0.3750000000000000555, 2.250000000000000444, 0.000000000000000000 ) ) ;
#32 =( CONVERSION_BASED_UNIT ( 'INCH', #117 ) LENGTH_UNIT ( ) NAMED_UNIT ( #89 ) );
#33 = ORIENTED_EDGE ( 'NONE', *, *, #263, .T. ) ;
#34 = DIRECTION ( 'NONE',  ( -4.453261087808557677E-17, 1.000000000000000000, -0.000000000000000000 ) ) ;
#35 = AXIS2_PLACEMENT_3D ( 'NONE', #1, #287, #179 ) ;
#36 = PRODUCT_RELATED_PRODUCT_CATEGORY ( 'part', '', ( #22 ) ) ;
#37 = SURFACE_STYLE_USAGE ( .BOTH. , #12 ) ;
#38 = AXIS2_PLACEMENT_3D ( 'NONE', #294, #186, #189 ) ;
#39 = FILL_AREA_STYLE_COLOUR ( '', #104 ) ;
#40 = DIMENSIONAL_EXPONENTS ( 1.000000000000000000, 0.000000000000000000, 0.000000000000000000, 0.000000000000000000, 0.000000000000000000, 0.000000000000000000, 0.000000000000000000 ) ;
#41 =( NAMED_UNIT ( * ) SI_UNIT ( $, .STERADIAN. ) SOLID_ANGLE_UNIT ( ) );
#42 = MECHANICAL_DESIGN_GEOMETRIC_PRESENTATION_REPRESENTATION (  '', ( #133 ), #220 ) ;
#43 = AXIS2_PLACEMENT_3D ( 'NONE', #121, #221, #307 ) ;
#44 = SURFACE_SIDE_STYLE ('',( #281 ) ) ;
#45 = DIRECTION ( 'NONE',  ( -4.453261087808557677E-17, 1.000000000000000000, -0.000000000000000000 ) ) ;
#46 = DIMENSIONAL_EXPONENTS ( 1.000000000000000000, 0.000000000000000000, 0.000000000000000000, 0.000000000000000000, 0.000000000000000000, 0.000000000000000000, 0.000000000000000000 ) ;
#47 = PRESENTATION_LAYER_ASSIGNMENT (  '', '', ( #127 ) ) ;
#48 = AXIS2_PLACEMENT_3D ( 'NONE', #253, #275, #173 ) ;
#49 = DIRECTION ( 'NONE',  ( -0.000000000000000000, -1.000000000000000000, -0.000000000000000000 ) ) ;
#50 =( CONVERSION_BASED_UNIT ( 'INCH', #114 ) LENGTH_UNIT ( ) NAMED_UNIT ( #40 ) );
#51 = EDGE_CURVE ( 'NONE', #212, #245, #196, .T. ) ;
#52 = DIRECTION ( 'NONE',  ( -0.000000000000000000, -1.000000000000000000, -0.000000000000000000 ) ) ;
#53 = ORIENTED_EDGE ( 'NONE', *, *, #132, .T. ) ;
#54 = VERTEX_POINT ( 'NONE', #77 ) ;
#55 = DIRECTION ( 'NONE',  ( -0.000000000000000000, -1.000000000000000000, -0.000000000000000000 ) ) ;
#56 = MECHANICAL_DESIGN_GEOMETRIC_PRESENTATION_REPRESENTATION (  '', ( #62 ), #267 ) ;
#57 = DIRECTION ( 'NONE',  ( -1.000000000000000000, 0.000000000000000000, 0.000000000000000000 ) ) ;
#58 = DIRECTION ( 'NONE',  ( -1.000000000000000000, 0.000000000000000000, 0.000000000000000000 ) ) ;
#59 = ORIENTED_EDGE ( 'NONE', *, *, #204, .F. ) ;
#60 = SURFACE_STYLE_USAGE ( .BOTH. , #122 ) ;
#61 =( CONVERSION_BASED_UNIT ( 'INCH', #170 ) LENGTH_UNIT ( ) NAMED_UNIT ( #257 ) );
#62 = STYLED_ITEM ( 'NONE', ( #251 ), #209 ) ;
#63 = ADVANCED_FACE ( 'NONE', ( #26 ), #78, .F. ) ;
#64 = DIRECTION ( 'NONE',  ( 0.000000000000000000, 0.000000000000000000, -1.000000000000000000 ) ) ;
#65 = CLOSED_SHELL ( 'NONE', ( #79, #158, #15, #63 ) ) ;
#66 = COLOUR_RGB ( '',1.000000000000000000, 0.000000000000000000, 0.000000000000000000 ) ;
#67 =( NAMED_UNIT ( * ) SI_UNIT ( $, .STERADIAN. ) SOLID_ANGLE_UNIT ( ) );
#68 = CARTESIAN_POINT ( 'NONE',  ( 0.000000000000000000, 0.000000000000000000, 0.000000000000000000 ) ) ;
#69 = AXIS2_PLACEMENT_3D ( 'NONE', #111, #167, #168 ) ;
#70 = PRODUCT_DEFINITION_FORMATION_WITH_SPECIFIED_SOURCE ( 'ANY', '', #22, .NOT_KNOWN. ) ;
#71 = DIRECTION ( 'NONE',  ( 0.000000000000000000, 0.000000000000000000, -1.000000000000000000 ) ) ;
#72 = LENGTH_MEASURE_WITH_UNIT ( LENGTH_MEASURE( 0.02539999999999999897 ), #261 );
#73 =( LENGTH_UNIT ( ) NAMED_UNIT ( * ) SI_UNIT ( $, .METRE. ) );
#74 = CARTESIAN_POINT ( 'NONE',  ( 1.516480271171051896E-32, 2.250000000000000444, 0.000000000000000000 ) ) ;
#75 = AXIS2_PLACEMENT_3D ( 'NONE', #74, #148, #247 ) ;
#76 = ORIENTED_EDGE ( 'NONE', *, *, #293, .F. ) ;
#77 = CARTESIAN_POINT ( 'NONE',  ( 4.592425496802575451E-17, 0.000000000000000000, 0.3750000000000000555 ) ) ;
#78 = PLANE ( 'NONE',  #69 ) ;
#79 = ADVANCED_FACE ( 'NONE', ( #259 ), #210, .T. ) ;
#80 = SURFACE_SIDE_STYLE ('',( #249 ) ) ;
#81 = PRESENTATION_LAYER_ASSIGNMENT (  '', '', ( #133 ) ) ;
#82 = MECHANICAL_DESIGN_GEOMETRIC_PRESENTATION_REPRESENTATION (  '', ( #283 ), #256 ) ;
#83 =( CONVERSION_BASED_UNIT ( 'INCH', #226 ) LENGTH_UNIT ( ) NAMED_UNIT ( #230 ) );
#84 = APPLICATION_PROTOCOL_DEFINITION ( 'draft international standard', 'automotive_design', 1998, #193 ) ;
#85 = EDGE_CURVE ( 'NONE', #5, #8, #265, .T. ) ;
#86 = CARTESIAN_POINT ( 'NONE',  ( 0.000000000000000000, 2.250000000000000000, -0.3750000000000000555 ) ) ;
#87 = PRESENTATION_LAYER_ASSIGNMENT (  '', '', ( #101 ) ) ;
#88 = PRODUCT_DEFINITION_SHAPE ( 'NONE', 'NONE',  #233 ) ;
#89 = DIMENSIONAL_EXPONENTS ( 1.000000000000000000, 0.000000000000000000, 0.000000000000000000, 0.000000000000000000, 0.000000000000000000, 0.000000000000000000, 0.000000000000000000 ) ;
#90 = VERTEX_POINT ( 'NONE', #156 ) ;
#91 =( GEOMETRIC_REPRESENTATION_CONTEXT ( 3 ) GLOBAL_UNCERTAINTY_ASSIGNED_CONTEXT ( ( #301 ) ) GLOBAL_UNIT_ASSIGNED_CONTEXT ( ( #50, #109, #207 ) ) REPRESENTATION_CONTEXT ( 'NONE', 'WORKASPACE' ) );
#92 = FACE_OUTER_BOUND ( 'NONE', #270, .T. ) ;
#93 = VERTEX_POINT ( 'NONE', #100 ) ;
#94 = DIRECTION ( 'NONE',  ( -0.000000000000000000, -1.000000000000000000, -0.000000000000000000 ) ) ;
#95 =( LENGTH_UNIT ( ) NAMED_UNIT ( * ) SI_UNIT ( $, .METRE. ) );
#96 = EDGE_LOOP ( 'NONE', ( #190, #33 ) ) ;
#97 = CYLINDRICAL_SURFACE ( 'NONE', #120, 0.3750000000000001110 ) ;
#98 = ORIENTED_EDGE ( 'NONE', *, *, #155, .T. ) ;
#99 = FILL_AREA_STYLE ('',( #244 ) ) ;
#100 = CARTESIAN_POINT ( 'NONE',  ( 0.000000000000000000, 0.000000000000000000, -0.3750000000000000555 ) ) ;
#101 = STYLED_ITEM ( 'NONE', ( #295 ), #183 ) ;
#102 = DIRECTION ( 'NONE',  ( -0.000000000000000000, -1.000000000000000000, -0.000000000000000000 ) ) ;
#103 =( LENGTH_UNIT ( ) NAMED_UNIT ( * ) SI_UNIT ( $, .METRE. ) );
#104 = COLOUR_RGB ( '',1.000000000000000000, 0.000000000000000000, 0.000000000000000000 ) ;
#105 = FILL_AREA_STYLE ('',( #130 ) ) ;
#106 =( LENGTH_UNIT ( ) NAMED_UNIT ( * ) SI_UNIT ( $, .METRE. ) );
#107 = CARTESIAN_POINT ( 'NONE',  ( -1.224646799147353207E-16, 5.000000000000000000, 0.000000000000000000 ) ) ;
#108 = MANIFOLD_SOLID_BREP ( 'Revolve - Tool Body (Straight Shanked)', #65 ) ;
#109 =( NAMED_UNIT ( * ) PLANE_ANGLE_UNIT ( ) SI_UNIT ( $, .RADIAN. ) );
#110 = UNCERTAINTY_MEASURE_WITH_UNIT (LENGTH_MEASURE( 1.000000000000000082E-05 ), #19, 'distance_accuracy_value', 'NONE');
#111 = CARTESIAN_POINT ( 'NONE',  ( 0.3750000000000000555, 5.000000000000000000, 0.000000000000000000 ) ) ;
#112 = COLOUR_RGB ( '',0.7921568627450980005, 0.8196078431372548767, 0.9333333333333333481 ) ;
#113 = AXIS2_PLACEMENT_3D ( 'NONE', #115, #300, #240 ) ;
#114 = LENGTH_MEASURE_WITH_UNIT ( LENGTH_MEASURE( 0.02539999999999999897 ), #73 );
#115 = CARTESIAN_POINT ( 'NONE',  ( 0.000000000000000000, 2.250000000000000000, 0.000000000000000000 ) ) ;
#116 = SURFACE_STYLE_USAGE ( .BOTH. , #238 ) ;
#117 = LENGTH_MEASURE_WITH_UNIT ( LENGTH_MEASURE( 0.02539999999999999897 ), #103 );
#118 = ORIENTED_EDGE ( 'NONE', *, *, #208, .F. ) ;
#119 = FILL_AREA_STYLE_COLOUR ( '', #205 ) ;
#120 = AXIS2_PLACEMENT_3D ( 'NONE', #213, #34, #57 ) ;
#121 = CARTESIAN_POINT ( 'NONE',  ( 0.000000000000000000, 0.000000000000000000, 0.000000000000000000 ) ) ;
#122 = SURFACE_SIDE_STYLE ('',( #3 ) ) ;
#123 = CARTESIAN_POINT ( 'NONE',  ( 4.592425496802575451E-17, 2.250000000000000000, 0.3750000000000000555 ) ) ;
#124 = SURFACE_SIDE_STYLE ('',( #194 ) ) ;
#125 = CARTESIAN_POINT ( 'NONE',  ( 0.000000000000000000, 0.000000000000000000, -0.3750000000000000555 ) ) ;
#126 = LENGTH_MEASURE_WITH_UNIT ( LENGTH_MEASURE( 0.02539999999999999897 ), #95 );
#127 = STYLED_ITEM ( 'NONE', ( #17 ), #108 ) ;
#128 = LINE ( 'NONE', #203, #153 ) ;
#129 = SURFACE_STYLE_FILL_AREA ( #154 ) ;
#130 = FILL_AREA_STYLE_COLOUR ( '', #112 ) ;
#131 = LENGTH_MEASURE_WITH_UNIT ( LENGTH_MEASURE( 0.02539999999999999897 ), #106 );
#132 = EDGE_CURVE ( 'NONE', #93, #54, #309, .T. ) ;
#133 = STYLED_ITEM ( 'NONE', ( #180 ), #25 ) ;
#134 = SURFACE_STYLE_USAGE ( .BOTH. , #44 ) ;
#135 = AXIS2_PLACEMENT_3D ( 'NONE', #68, #102, #64 ) ;
#136 = CARTESIAN_POINT ( 'NONE',  ( 0.000000000000000000, 2.250000000000000000, 0.000000000000000000 ) ) ;
#137 = CYLINDRICAL_SURFACE ( 'NONE', #35, 0.3750000000000000555 ) ;
#138 = FACE_OUTER_BOUND ( 'NONE', #145, .T. ) ;
#139 = DIRECTION ( 'NONE',  ( -4.453261087808557677E-17, 1.000000000000000000, 0.000000000000000000 ) ) ;
#140 = ORIENTED_EDGE ( 'NONE', *, *, #263, .F. ) ;
#141 =( NAMED_UNIT ( * ) PLANE_ANGLE_UNIT ( ) SI_UNIT ( $, .RADIAN. ) );
#142 = EDGE_CURVE ( 'NONE', #212, #54, #2, .T. ) ;
#143 = CIRCLE ( 'NONE', #21, 0.3750000000000001665 ) ;
#144 = DIRECTION ( 'NONE',  ( -1.000000000000000000, -4.453261087808557677E-17, 0.000000000000000000 ) ) ;
#145 = EDGE_LOOP ( 'NONE', ( #188, #262 ) ) ;
#146 = ORIENTED_EDGE ( 'NONE', *, *, #142, .F. ) ;
#147 = PLANE ( 'NONE',  #43 ) ;
#148 = DIRECTION ( 'NONE',  ( -4.453261087808557677E-17, 1.000000000000000000, -0.000000000000000000 ) ) ;
#149 = UNCERTAINTY_MEASURE_WITH_UNIT (LENGTH_MEASURE( 1.000000000000000082E-05 ), #32, 'distance_accuracy_value', 'NONE');
#150 = PLANE ( 'NONE',  #113 ) ;
#151 = AXIS2_PLACEMENT_3D ( 'NONE', #159, #268, #58 ) ;
#152 = FILL_AREA_STYLE_COLOUR ( '', #66 ) ;
#153 = VECTOR ( 'NONE', #305, 39.37007874015748143 ) ;
#154 = FILL_AREA_STYLE ('',( #39 ) ) ;
#155 = EDGE_CURVE ( 'NONE', #245, #212, #241, .T. ) ;
#156 = CARTESIAN_POINT ( 'NONE',  ( 0.3750000000000000555, 5.000000000000000000, 4.592425496802576684E-17 ) ) ;
#157 = PRESENTATION_LAYER_ASSIGNMENT (  '', '', ( #252 ) ) ;
#158 = ADVANCED_FACE ( 'NONE', ( #214 ), #30, .F. ) ;
#159 = CARTESIAN_POINT ( 'NONE',  ( 1.516480271171051896E-32, 2.250000000000000444, 0.000000000000000000 ) ) ;
#160 = ORIENTED_EDGE ( 'NONE', *, *, #278, .T. ) ;
#161 = CARTESIAN_POINT ( 'NONE',  ( 0.3750000000000000555, 2.250000000000000444, 4.592425496802576684E-17 ) ) ;
#162 = LINE ( 'NONE', #285, #202 ) ;
#163 = EDGE_LOOP ( 'NONE', ( #118, #239 ) ) ;
#164 = COLOUR_RGB ( '',1.000000000000000000, 0.000000000000000000, 0.000000000000000000 ) ;
#165 = AXIS2_PLACEMENT_3D ( 'NONE', #231, #20, #277 ) ;
#166 = DIRECTION ( 'NONE',  ( -4.453261087808557677E-17, 1.000000000000000000, -0.000000000000000000 ) ) ;
#167 = DIRECTION ( 'NONE',  ( 4.453261087808557677E-17, -1.000000000000000000, 0.000000000000000000 ) ) ;
#168 = DIRECTION ( 'NONE',  ( 1.000000000000000000, 4.453261087808557677E-17, 0.000000000000000000 ) ) ;
#169 = UNCERTAINTY_MEASURE_WITH_UNIT (LENGTH_MEASURE( 1.000000000000000082E-05 ), #61, 'distance_accuracy_value', 'NONE');
#170 = LENGTH_MEASURE_WITH_UNIT ( LENGTH_MEASURE( 0.02539999999999999897 ), #272 );
#171 = PRESENTATION_STYLE_ASSIGNMENT (( #37 ) ) ;
#172 = SHAPE_DEFINITION_REPRESENTATION ( #88, #182 ) ;
#173 = DIRECTION ( 'NONE',  ( 0.000000000000000000, 0.000000000000000000, -1.000000000000000000 ) ) ;
#174 = DIRECTION ( 'NONE',  ( -1.000000000000000000, 0.000000000000000000, 0.000000000000000000 ) ) ;
#175 =( GEOMETRIC_REPRESENTATION_CONTEXT ( 3 ) GLOBAL_UNCERTAINTY_ASSIGNED_CONTEXT ( ( #6 ) ) GLOBAL_UNIT_ASSIGNED_CONTEXT ( ( #83, #16, #200 ) ) REPRESENTATION_CONTEXT ( 'NONE', 'WORKASPACE' ) );
#176 = DIMENSIONAL_EXPONENTS ( 1.000000000000000000, 0.000000000000000000, 0.000000000000000000, 0.000000000000000000, 0.000000000000000000, 0.000000000000000000, 0.000000000000000000 ) ;
#177 =( NAMED_UNIT ( * ) PLANE_ANGLE_UNIT ( ) SI_UNIT ( $, .RADIAN. ) );
#178 = CIRCLE ( 'NONE', #304, 0.3750000000000001665 ) ;
#179 = DIRECTION ( 'NONE',  ( 0.000000000000000000, 0.000000000000000000, -1.000000000000000000 ) ) ;
#180 = PRESENTATION_STYLE_ASSIGNMENT (( #60 ) ) ;
#181 = AXIS2_PLACEMENT_3D ( 'NONE', #260, #139, #144 ) ;
#182 = ADVANCED_BREP_SHAPE_REPRESENTATION ( '00675', ( #209, #108, #165 ), #223 ) ;
#183 = ADVANCED_FACE ( 'NONE', ( #92 ), #137, .T. ) ;
#184 = FILL_AREA_STYLE_COLOUR ( '', #164 ) ;
#185 = ORIENTED_EDGE ( 'NONE', *, *, #293, .T. ) ;
#186 = DIRECTION ( 'NONE',  ( -4.453261087808557677E-17, 1.000000000000000000, -0.000000000000000000 ) ) ;
#187 =( NAMED_UNIT ( * ) SI_UNIT ( $, .STERADIAN. ) SOLID_ANGLE_UNIT ( ) );
#188 = ORIENTED_EDGE ( 'NONE', *, *, #155, .F. ) ;
#189 = DIRECTION ( 'NONE',  ( -1.000000000000000000, 0.000000000000000000, 0.000000000000000000 ) ) ;
#190 = ORIENTED_EDGE ( 'NONE', *, *, #266, .T. ) ;
#191 = AXIS2_PLACEMENT_3D ( 'NONE', #195, #49, #291 ) ;
#192 = ORIENTED_EDGE ( 'NONE', *, *, #266, .F. ) ;
#193 = APPLICATION_CONTEXT ( 'automotive_design' ) ;
#194 = SURFACE_STYLE_FILL_AREA ( #11 ) ;
#195 = CARTESIAN_POINT ( 'NONE',  ( 0.000000000000000000, 0.000000000000000000, 0.000000000000000000 ) ) ;
#196 = CIRCLE ( 'NONE', #255, 0.3750000000000000555 ) ;
#197 = PRESENTATION_STYLE_ASSIGNMENT (( #302 ) ) ;
#198 =( LENGTH_UNIT ( ) NAMED_UNIT ( * ) SI_UNIT ( $, .METRE. ) );
#199 = SURFACE_STYLE_USAGE ( .BOTH. , #80 ) ;
#200 =( NAMED_UNIT ( * ) SI_UNIT ( $, .STERADIAN. ) SOLID_ANGLE_UNIT ( ) );
#201 = PRODUCT_CONTEXT ( 'NONE', #193, 'mechanical' ) ;
#202 = VECTOR ( 'NONE', #166, 39.37007874015748143 ) ;
#203 = CARTESIAN_POINT ( 'NONE',  ( 0.3749999999999999445, 5.000000000000000000, 4.592425496802576068E-17 ) ) ;
#204 = EDGE_CURVE ( 'NONE', #8, #299, #162, .T. ) ;
#205 = COLOUR_RGB ( '',1.000000000000000000, 0.000000000000000000, 0.000000000000000000 ) ;
#206 = APPLICATION_CONTEXT ( 'automotive_design' ) ;
#207 =( NAMED_UNIT ( * ) SI_UNIT ( $, .STERADIAN. ) SOLID_ANGLE_UNIT ( ) );
#208 = EDGE_CURVE ( 'NONE', #8, #5, #10, .T. ) ;
#209 = MANIFOLD_SOLID_BREP ( 'Revolve - Cutting Edge', #211 ) ;
#210 = CYLINDRICAL_SURFACE ( 'NONE', #38, 0.3750000000000001110 ) ;
#211 = CLOSED_SHELL ( 'NONE', ( #183, #25, #280, #232 ) ) ;
#212 = VERTEX_POINT ( 'NONE', #123 ) ;
#213 = CARTESIAN_POINT ( 'NONE',  ( -1.224646799147353207E-16, 5.000000000000000000, 0.000000000000000000 ) ) ;
#214 = FACE_OUTER_BOUND ( 'NONE', #163, .T. ) ;
#215 = ORIENTED_EDGE ( 'NONE', *, *, #132, .F. ) ;
#216 = EDGE_LOOP ( 'NONE', ( #218, #288, #192, #59 ) ) ;
#217 = DIRECTION ( 'NONE',  ( -0.000000000000000000, -1.000000000000000000, -0.000000000000000000 ) ) ;
#218 = ORIENTED_EDGE ( 'NONE', *, *, #208, .T. ) ;
#219 = EDGE_LOOP ( 'NONE', ( #146, #243, #160, #76 ) ) ;
#220 =( GEOMETRIC_REPRESENTATION_CONTEXT ( 3 ) GLOBAL_UNCERTAINTY_ASSIGNED_CONTEXT ( ( #29 ) ) GLOBAL_UNIT_ASSIGNED_CONTEXT ( ( #28, #141, #264 ) ) REPRESENTATION_CONTEXT ( 'NONE', 'WORKASPACE' ) );
#221 = DIRECTION ( 'NONE',  ( 0.000000000000000000, -1.000000000000000000, -0.000000000000000000 ) ) ;
#222 = FACE_OUTER_BOUND ( 'NONE', #292, .T. ) ;
#223 =( GEOMETRIC_REPRESENTATION_CONTEXT ( 3 ) GLOBAL_UNCERTAINTY_ASSIGNED_CONTEXT ( ( #271 ) ) GLOBAL_UNIT_ASSIGNED_CONTEXT ( ( #227, #228, #67 ) ) REPRESENTATION_CONTEXT ( 'NONE', 'WORKASPACE' ) );
#224 =( NAMED_UNIT ( * ) PLANE_ANGLE_UNIT ( ) SI_UNIT ( $, .RADIAN. ) );
#225 = CARTESIAN_POINT ( 'NONE',  ( -0.3750000000000002776, 5.000000000000000000, 0.000000000000000000 ) ) ;
#226 = LENGTH_MEASURE_WITH_UNIT ( LENGTH_MEASURE( 0.02539999999999999897 ), #198 );
#227 =( CONVERSION_BASED_UNIT ( 'INCH', #131 ) LENGTH_UNIT ( ) NAMED_UNIT ( #176 ) );
#228 =( NAMED_UNIT ( * ) PLANE_ANGLE_UNIT ( ) SI_UNIT ( $, .RADIAN. ) );
#229 = DIRECTION ( 'NONE',  ( -4.453261087808557677E-17, 1.000000000000000000, -0.000000000000000000 ) ) ;
#230 = DIMENSIONAL_EXPONENTS ( 1.000000000000000000, 0.000000000000000000, 0.000000000000000000, 0.000000000000000000, 0.000000000000000000, 0.000000000000000000, 0.000000000000000000 ) ;
#231 = CARTESIAN_POINT ( 'NONE',  ( 0.000000000000000000, 0.000000000000000000, 0.000000000000000000 ) ) ;
#232 = ADVANCED_FACE ( 'NONE', ( #222 ), #147, .T. ) ;
#233 = PRODUCT_DEFINITION ( 'UNKNOWN', '', #70, #235 ) ;
#234 =( NAMED_UNIT ( * ) PLANE_ANGLE_UNIT ( ) SI_UNIT ( $, .RADIAN. ) );
#235 = PRODUCT_DEFINITION_CONTEXT ( 'detailed design', #206, 'design' ) ;
#236 = ORIENTED_EDGE ( 'NONE', *, *, #142, .T. ) ;
#237 = FILL_AREA_STYLE ('',( #119 ) ) ;
#238 = SURFACE_SIDE_STYLE ('',( #258 ) ) ;
#239 = ORIENTED_EDGE ( 'NONE', *, *, #85, .F. ) ;
#240 = DIRECTION ( 'NONE',  ( 0.000000000000000000, -0.000000000000000000, 1.000000000000000000 ) ) ;
#241 = CIRCLE ( 'NONE', #282, 0.3750000000000000555 ) ;
#242 = ORIENTED_EDGE ( 'NONE', *, *, #85, .T. ) ;
#243 = ORIENTED_EDGE ( 'NONE', *, *, #51, .T. ) ;
#244 = FILL_AREA_STYLE_COLOUR ( '', #18 ) ;
#245 = VERTEX_POINT ( 'NONE', #86 ) ;
#246 = FACE_OUTER_BOUND ( 'NONE', #289, .T. ) ;
#247 = DIRECTION ( 'NONE',  ( -1.000000000000000000, 0.000000000000000000, 0.000000000000000000 ) ) ;
#248 = CIRCLE ( 'NONE', #48, 0.3750000000000000555 ) ;
#249 = SURFACE_STYLE_FILL_AREA ( #99 ) ;
#250 = CYLINDRICAL_SURFACE ( 'NONE', #135, 0.3750000000000000555 ) ;
#251 = PRESENTATION_STYLE_ASSIGNMENT (( #199 ) ) ;
#252 = STYLED_ITEM ( 'NONE', ( #171 ), #232 ) ;
#253 = CARTESIAN_POINT ( 'NONE',  ( 0.000000000000000000, 0.000000000000000000, 0.000000000000000000 ) ) ;
#254 = LINE ( 'NONE', #125, #14 ) ;
#255 = AXIS2_PLACEMENT_3D ( 'NONE', #269, #94, #297 ) ;
#256 =( GEOMETRIC_REPRESENTATION_CONTEXT ( 3 ) GLOBAL_UNCERTAINTY_ASSIGNED_CONTEXT ( ( #110 ) ) GLOBAL_UNIT_ASSIGNED_CONTEXT ( ( #19, #177, #41 ) ) REPRESENTATION_CONTEXT ( 'NONE', 'WORKASPACE' ) );
#257 = DIMENSIONAL_EXPONENTS ( 1.000000000000000000, 0.000000000000000000, 0.000000000000000000, 0.000000000000000000, 0.000000000000000000, 0.000000000000000000, 0.000000000000000000 ) ;
#258 = SURFACE_STYLE_FILL_AREA ( #298 ) ;
#259 = FACE_OUTER_BOUND ( 'NONE', #216, .T. ) ;
#260 = CARTESIAN_POINT ( 'NONE',  ( 3.718412684285598933E-34, 2.250000000000000000, 0.000000000000000000 ) ) ;
#261 =( LENGTH_UNIT ( ) NAMED_UNIT ( * ) SI_UNIT ( $, .METRE. ) );
#262 = ORIENTED_EDGE ( 'NONE', *, *, #51, .F. ) ;
#263 = EDGE_CURVE ( 'NONE', #90, #299, #178, .T. ) ;
#264 =( NAMED_UNIT ( * ) SI_UNIT ( $, .STERADIAN. ) SOLID_ANGLE_UNIT ( ) );
#265 = CIRCLE ( 'NONE', #75, 0.3750000000000000555 ) ;
#266 = EDGE_CURVE ( 'NONE', #299, #90, #143, .T. ) ;
#267 =( GEOMETRIC_REPRESENTATION_CONTEXT ( 3 ) GLOBAL_UNCERTAINTY_ASSIGNED_CONTEXT ( ( #169 ) ) GLOBAL_UNIT_ASSIGNED_CONTEXT ( ( #61, #224, #274 ) ) REPRESENTATION_CONTEXT ( 'NONE', 'WORKASPACE' ) );
#268 = DIRECTION ( 'NONE',  ( -4.453261087808557677E-17, 1.000000000000000000, -0.000000000000000000 ) ) ;
#269 = CARTESIAN_POINT ( 'NONE',  ( 0.000000000000000000, 2.250000000000000000, 0.000000000000000000 ) ) ;
#270 = EDGE_LOOP ( 'NONE', ( #98, #236, #215, #296 ) ) ;
#271 = UNCERTAINTY_MEASURE_WITH_UNIT (LENGTH_MEASURE( 1.000000000000000082E-05 ), #227, 'distance_accuracy_value', 'NONE');
#272 =( LENGTH_UNIT ( ) NAMED_UNIT ( * ) SI_UNIT ( $, .METRE. ) );
#273 = PRESENTATION_LAYER_ASSIGNMENT (  '', '', ( #62 ) ) ;
#274 =( NAMED_UNIT ( * ) SI_UNIT ( $, .STERADIAN. ) SOLID_ANGLE_UNIT ( ) );
#275 = DIRECTION ( 'NONE',  ( -0.000000000000000000, -1.000000000000000000, -0.000000000000000000 ) ) ;
#276 = CARTESIAN_POINT ( 'NONE',  ( -1.224646799147353207E-16, 5.000000000000000000, 0.000000000000000000 ) ) ;
#277 = DIRECTION ( 'NONE',  ( 1.000000000000000000, 0.000000000000000000, 0.000000000000000000 ) ) ;
#278 = EDGE_CURVE ( 'NONE', #245, #93, #254, .T. ) ;
#279 = APPLICATION_PROTOCOL_DEFINITION ( 'draft international standard', 'automotive_design', 1998, #206 ) ;
#280 = ADVANCED_FACE ( 'NONE', ( #23 ), #250, .T. ) ;
#281 = SURFACE_STYLE_FILL_AREA ( #105 ) ;
#282 = AXIS2_PLACEMENT_3D ( 'NONE', #136, #52, #71 ) ;
#283 = STYLED_ITEM ( 'NONE', ( #197 ), #280 ) ;
#284 = DIMENSIONAL_EXPONENTS ( 1.000000000000000000, 0.000000000000000000, 0.000000000000000000, 0.000000000000000000, 0.000000000000000000, 0.000000000000000000, 0.000000000000000000 ) ;
#285 = CARTESIAN_POINT ( 'NONE',  ( -0.3750000000000002220, 5.000000000000000000, 0.000000000000000000 ) ) ;
#286 = PRESENTATION_LAYER_ASSIGNMENT (  '', '', ( #283 ) ) ;
#287 = DIRECTION ( 'NONE',  ( -0.000000000000000000, -1.000000000000000000, -0.000000000000000000 ) ) ;
#288 = ORIENTED_EDGE ( 'NONE', *, *, #290, .T. ) ;
#289 = EDGE_LOOP ( 'NONE', ( #24, #242, #9, #140 ) ) ;
#290 = EDGE_CURVE ( 'NONE', #5, #90, #128, .T. ) ;
#291 = DIRECTION ( 'NONE',  ( 0.000000000000000000, 0.000000000000000000, -1.000000000000000000 ) ) ;
#292 = EDGE_LOOP ( 'NONE', ( #53, #185 ) ) ;
#293 = EDGE_CURVE ( 'NONE', #54, #93, #248, .T. ) ;
#294 = CARTESIAN_POINT ( 'NONE',  ( -1.224646799147353207E-16, 5.000000000000000000, 0.000000000000000000 ) ) ;
#295 = PRESENTATION_STYLE_ASSIGNMENT (( #116 ) ) ;
#296 = ORIENTED_EDGE ( 'NONE', *, *, #278, .F. ) ;
#297 = DIRECTION ( 'NONE',  ( 0.000000000000000000, 0.000000000000000000, -1.000000000000000000 ) ) ;
#298 = FILL_AREA_STYLE ('',( #184 ) ) ;
#299 = VERTEX_POINT ( 'NONE', #225 ) ;
#300 = DIRECTION ( 'NONE',  ( 0.000000000000000000, 1.000000000000000000, 0.000000000000000000 ) ) ;
#301 = UNCERTAINTY_MEASURE_WITH_UNIT (LENGTH_MEASURE( 1.000000000000000082E-05 ), #50, 'distance_accuracy_value', 'NONE');
#302 = SURFACE_STYLE_USAGE ( .BOTH. , #124 ) ;
#303 =( GEOMETRIC_REPRESENTATION_CONTEXT ( 3 ) GLOBAL_UNCERTAINTY_ASSIGNED_CONTEXT ( ( #149 ) ) GLOBAL_UNIT_ASSIGNED_CONTEXT ( ( #32, #234, #187 ) ) REPRESENTATION_CONTEXT ( 'NONE', 'WORKASPACE' ) );
#304 = AXIS2_PLACEMENT_3D ( 'NONE', #107, #45, #174 ) ;
#305 = DIRECTION ( 'NONE',  ( -4.453261087808557677E-17, 1.000000000000000000, -0.000000000000000000 ) ) ;
#306 = MECHANICAL_DESIGN_GEOMETRIC_PRESENTATION_REPRESENTATION (  '', ( #127 ), #303 ) ;
#307 = DIRECTION ( 'NONE',  ( 0.000000000000000000, 0.000000000000000000, -1.000000000000000000 ) ) ;
#308 = DIRECTION ( 'NONE',  ( -1.000000000000000000, 0.000000000000000000, 0.000000000000000000 ) ) ;
#309 = CIRCLE ( 'NONE', #191, 0.3750000000000000555 ) ;
ENDSEC;
END-ISO-10303-21;
