ISO-10303-21;
HEADER;
FILE_DESCRIPTION (( 'STEP AP214' ),
    '1' );
FILE_NAME ('Micro_RSCM-040-1X.STEP',
    '2021-09-03T17:56:26',
    ( '' ),
    ( '' ),
    'SwSTEP 2.0',
    'SolidWorks 2020',
    '' );
FILE_SCHEMA (( 'AUTOMOTIVE_DESIGN' ));
ENDSEC;

DATA;
#1 = VERTEX_POINT ( 'NONE', #105 ) ;
#2 = DIRECTION ( 'NONE',  ( 1.000000000000000000, 0.0000000000000000000, 0.0000000000000000000 ) ) ;
#3 = AXIS2_PLACEMENT_3D ( 'NONE', #125, #146, #141 ) ;
#4 = FACE_OUTER_BOUND ( 'NONE', #122, .T. ) ;
#5 = VERTEX_POINT ( 'NONE', #37 ) ;
#6 = ORIENTED_EDGE ( 'NONE', *, *, #160, .T. ) ;
#7 = EDGE_LOOP ( 'NONE', ( #103, #236, #119, #180 ) ) ;
#8 = AXIS2_PLACEMENT_3D ( 'NONE', #220, #162, #31 ) ;
#9 = DIRECTION ( 'NONE',  ( 1.000000000000000000, 0.0000000000000000000, 0.0000000000000000000 ) ) ;
#10 = LINE ( 'NONE', #178, #225 ) ;
#11 = DIRECTION ( 'NONE',  ( 0.0000000000000000000, 0.0000000000000000000, 1.000000000000000000 ) ) ;
#12 = LENGTH_MEASURE_WITH_UNIT ( LENGTH_MEASURE( 0.02539999999999999897 ), #222 );
#13 = EDGE_CURVE ( 'NONE', #219, #5, #57, .T. ) ;
#14 =( NAMED_UNIT ( * ) PLANE_ANGLE_UNIT ( ) SI_UNIT ( $, .RADIAN. ) );
#15 = APPLICATION_CONTEXT ( 'automotive_design' ) ;
#16 = DIRECTION ( 'NONE',  ( 1.000000000000000000, 0.0000000000000000000, -0.0000000000000000000 ) ) ;
#17 = AXIS2_PLACEMENT_3D ( 'NONE', #212, #20, #24 ) ;
#18 = ADVANCED_FACE ( 'NONE', ( #49 ), #123, .F. ) ;
#19 = SURFACE_STYLE_USAGE ( .BOTH. , #152 ) ;
#20 = DIRECTION ( 'NONE',  ( -0.0000000000000000000, -0.0000000000000000000, -1.000000000000000000 ) ) ;
#21 = APPLICATION_PROTOCOL_DEFINITION ( 'draft international standard', 'automotive_design', 1998, #48 ) ;
#22 = UNCERTAINTY_MEASURE_WITH_UNIT (LENGTH_MEASURE( 1.000000000000000082E-05 ), #153, 'distance_accuracy_value', 'NONE');
#23 = CIRCLE ( 'NONE', #104, 0.07874000000000000443 ) ;
#24 = DIRECTION ( 'NONE',  ( -1.000000000000000000, 0.0000000000000000000, 0.0000000000000000000 ) ) ;
#25 = FACE_OUTER_BOUND ( 'NONE', #7, .T. ) ;
#26 = EDGE_LOOP ( 'NONE', ( #145, #198, #94, #76 ) ) ;
#27 = CIRCLE ( 'NONE', #200, 0.07874000000000000443 ) ;
#28 = AXIS2_PLACEMENT_3D ( 'NONE', #39, #58, #60 ) ;
#29 = EDGE_LOOP ( 'NONE', ( #199, #46, #214, #137 ) ) ;
#30 = VERTEX_POINT ( 'NONE', #72 ) ;
#31 = DIRECTION ( 'NONE',  ( -1.000000000000000000, 0.0000000000000000000, 0.0000000000000000000 ) ) ;
#32 = AXIS2_PLACEMENT_3D ( 'NONE', #239, #109, #75 ) ;
#33 = DIRECTION ( 'NONE',  ( 0.0000000000000000000, 0.0000000000000000000, 1.000000000000000000 ) ) ;
#34 = SURFACE_STYLE_FILL_AREA ( #202 ) ;
#35 = DIRECTION ( 'NONE',  ( -0.0000000000000000000, -0.0000000000000000000, -1.000000000000000000 ) ) ;
#36 = EDGE_CURVE ( 'NONE', #89, #97, #205, .T. ) ;
#37 = CARTESIAN_POINT ( 'NONE',  ( -0.07874000000000000443, 0.0000000000000000000, 1.953504000000000129 ) ) ;
#38 = EDGE_CURVE ( 'NONE', #204, #1, #56, .T. ) ;
#39 = CARTESIAN_POINT ( 'NONE',  ( 0.0000000000000000000, 0.0000000000000000000, 0.0000000000000000000 ) ) ;
#40 = CARTESIAN_POINT ( 'NONE',  ( -0.06374000000000018540, 0.0000000000000000000, 1.968503999999999809 ) ) ;
#41 = LINE ( 'NONE', #248, #62 ) ;
#42 = PRODUCT_DEFINITION ( 'UNKNOWN', '', #47, #45 ) ;
#43 =( LENGTH_UNIT ( ) NAMED_UNIT ( * ) SI_UNIT ( $, .METRE. ) );
#44 =( NAMED_UNIT ( * ) SI_UNIT ( $, .STERADIAN. ) SOLID_ANGLE_UNIT ( ) );
#45 = PRODUCT_DEFINITION_CONTEXT ( 'detailed design', #15, 'design' ) ;
#46 = ORIENTED_EDGE ( 'NONE', *, *, #120, .T. ) ;
#47 = PRODUCT_DEFINITION_FORMATION_WITH_SPECIFIED_SOURCE ( 'ANY', '', #54, .NOT_KNOWN. ) ;
#48 = APPLICATION_CONTEXT ( 'automotive_design' ) ;
#49 = FACE_OUTER_BOUND ( 'NONE', #133, .T. ) ;
#50 = ORIENTED_EDGE ( 'NONE', *, *, #188, .F. ) ;
#51 = AXIS2_PLACEMENT_3D ( 'NONE', #128, #96, #9 ) ;
#52 = CARTESIAN_POINT ( 'NONE',  ( 0.07874000000000000443, 9.642868896486258509E-18, 1.968503999999999809 ) ) ;
#53 = ADVANCED_FACE ( 'NONE', ( #223 ), #138, .T. ) ;
#54 = PRODUCT ( 'Micro_RSCM-040-1X', 'Micro_RSCM-040-1X', '', ( #176 ) ) ;
#55 = CARTESIAN_POINT ( 'NONE',  ( 0.0000000000000000000, 0.0000000000000000000, 1.953504000000000129 ) ) ;
#56 = CIRCLE ( 'NONE', #8, 0.003936999999999995191 ) ;
#57 = CIRCLE ( 'NONE', #51, 0.07874000000000000443 ) ;
#58 = DIRECTION ( 'NONE',  ( 0.0000000000000000000, 0.0000000000000000000, 1.000000000000000000 ) ) ;
#59 = FACE_OUTER_BOUND ( 'NONE', #139, .T. ) ;
#60 = DIRECTION ( 'NONE',  ( 1.000000000000000000, 0.0000000000000000000, 0.0000000000000000000 ) ) ;
#61 = FILL_AREA_STYLE ('',( #230 ) ) ;
#62 = VECTOR ( 'NONE', #64, 39.37007874015748143 ) ;
#63 = ADVANCED_FACE ( 'NONE', ( #243 ), #164, .T. ) ;
#64 = DIRECTION ( 'NONE',  ( -0.0000000000000000000, -0.0000000000000000000, -1.000000000000000000 ) ) ;
#65 = DIRECTION ( 'NONE',  ( 0.5000000000000013323, 0.0000000000000000000, 0.8660254037844377084 ) ) ;
#66 = ADVANCED_BREP_SHAPE_REPRESENTATION ( 'Micro_RSCM-040-1X', ( #90, #28 ), #149 ) ;
#67 = DIRECTION ( 'NONE',  ( -1.000000000000000000, 0.0000000000000000000, 0.0000000000000000000 ) ) ;
#68 = DIRECTION ( 'NONE',  ( 0.0000000000000000000, 0.0000000000000000000, 1.000000000000000000 ) ) ;
#69 = EDGE_LOOP ( 'NONE', ( #181, #161, #177, #121 ) ) ;
#70 = EDGE_CURVE ( 'NONE', #5, #219, #23, .T. ) ;
#71 = DIRECTION ( 'NONE',  ( -1.000000000000000000, 0.0000000000000000000, 0.0000000000000000000 ) ) ;
#72 = CARTESIAN_POINT ( 'NONE',  ( -0.06374000000000018540, 0.0000000000000000000, 1.968503999999999809 ) ) ;
#73 = SURFACE_STYLE_USAGE ( .BOTH. , #238 ) ;
#74 = VECTOR ( 'NONE', #35, 39.37007874015748143 ) ;
#75 = DIRECTION ( 'NONE',  ( -1.000000000000000000, 0.0000000000000000000, 0.0000000000000000000 ) ) ;
#76 = ORIENTED_EDGE ( 'NONE', *, *, #211, .F. ) ;
#77 = CARTESIAN_POINT ( 'NONE',  ( -0.07874000000000000443, 0.0000000000000000000, 0.1295625965585742445 ) ) ;
#78 = PRODUCT_DEFINITION_SHAPE ( 'NONE', 'NONE',  #42 ) ;
#79 = AXIS2_PLACEMENT_3D ( 'NONE', #154, #68, #2 ) ;
#80 =( GEOMETRIC_REPRESENTATION_CONTEXT ( 3 ) GLOBAL_UNCERTAINTY_ASSIGNED_CONTEXT ( ( #234 ) ) GLOBAL_UNIT_ASSIGNED_CONTEXT ( ( #172, #14, #208 ) ) REPRESENTATION_CONTEXT ( 'NONE', 'WORKASPACE' ) );
#81 = SHAPE_DEFINITION_REPRESENTATION ( #78, #66 ) ;
#82 =( NAMED_UNIT ( * ) PLANE_ANGLE_UNIT ( ) SI_UNIT ( $, .RADIAN. ) );
#83 = DIRECTION ( 'NONE',  ( 0.0000000000000000000, 0.0000000000000000000, -1.000000000000000000 ) ) ;
#84 = STYLED_ITEM ( 'NONE', ( #100 ), #66 ) ;
#85 = CARTESIAN_POINT ( 'NONE',  ( 0.0000000000000000000, 0.0000000000000000000, 0.1295625965585742445 ) ) ;
#86 =( LENGTH_UNIT ( ) NAMED_UNIT ( * ) SI_UNIT ( $, .METRE. ) );
#87 =( GEOMETRIC_REPRESENTATION_CONTEXT ( 3 ) GLOBAL_UNCERTAINTY_ASSIGNED_CONTEXT ( ( #215 ) ) GLOBAL_UNIT_ASSIGNED_CONTEXT ( ( #110, #129, #117 ) ) REPRESENTATION_CONTEXT ( 'NONE', 'WORKASPACE' ) );
#88 = ORIENTED_EDGE ( 'NONE', *, *, #38, .T. ) ;
#89 = VERTEX_POINT ( 'NONE', #77 ) ;
#90 = MANIFOLD_SOLID_BREP ( 'Cut-Revolve1', #192 ) ;
#91 = MECHANICAL_DESIGN_GEOMETRIC_PRESENTATION_REPRESENTATION (  '', ( #159 ), #87 ) ;
#92 = CARTESIAN_POINT ( 'NONE',  ( 0.0000000000000000000, 0.0000000000000000000, 0.0000000000000000000 ) ) ;
#93 = FILL_AREA_STYLE_COLOUR ( '', #179 ) ;
#94 = ORIENTED_EDGE ( 'NONE', *, *, #224, .T. ) ;
#95 = AXIS2_PLACEMENT_3D ( 'NONE', #150, #227, #71 ) ;
#96 = DIRECTION ( 'NONE',  ( 0.0000000000000000000, 0.0000000000000000000, -1.000000000000000000 ) ) ;
#97 = VERTEX_POINT ( 'NONE', #175 ) ;
#98 = EDGE_CURVE ( 'NONE', #1, #97, #10, .T. ) ;
#99 = LINE ( 'NONE', #174, #228 ) ;
#100 = PRESENTATION_STYLE_ASSIGNMENT (( #19 ) ) ;
#101 = ORIENTED_EDGE ( 'NONE', *, *, #102, .T. ) ;
#102 = EDGE_CURVE ( 'NONE', #232, #30, #182, .T. ) ;
#103 = ORIENTED_EDGE ( 'NONE', *, *, #70, .T. ) ;
#104 = AXIS2_PLACEMENT_3D ( 'NONE', #55, #187, #167 ) ;
#105 = CARTESIAN_POINT ( 'NONE',  ( 0.003936999999999995191, 0.0000000000000000000, 0.0000000000000000000 ) ) ;
#106 = EDGE_LOOP ( 'NONE', ( #218, #157, #183, #50 ) ) ;
#107 = DIRECTION ( 'NONE',  ( 1.000000000000000000, 0.0000000000000000000, 0.0000000000000000000 ) ) ;
#108 = DIRECTION ( 'NONE',  ( 1.000000000000000000, 0.0000000000000000000, 0.0000000000000000000 ) ) ;
#109 = DIRECTION ( 'NONE',  ( -0.0000000000000000000, -0.0000000000000000000, -1.000000000000000000 ) ) ;
#110 =( CONVERSION_BASED_UNIT ( 'INCH', #12 ) LENGTH_UNIT ( ) NAMED_UNIT ( #197 ) );
#111 = AXIS2_PLACEMENT_3D ( 'NONE', #226, #11, #163 ) ;
#112 = ORIENTED_EDGE ( 'NONE', *, *, #98, .T. ) ;
#113 = CARTESIAN_POINT ( 'NONE',  ( 0.0000000000000000000, 0.0000000000000000000, 1.968503999999999809 ) ) ;
#114 = APPLICATION_PROTOCOL_DEFINITION ( 'draft international standard', 'automotive_design', 1998, #15 ) ;
#115 = AXIS2_PLACEMENT_3D ( 'NONE', #170, #245, #107 ) ;
#116 = LENGTH_MEASURE_WITH_UNIT ( LENGTH_MEASURE( 0.02539999999999999897 ), #86 );
#117 =( NAMED_UNIT ( * ) SI_UNIT ( $, .STERADIAN. ) SOLID_ANGLE_UNIT ( ) );
#118 = DIRECTION ( 'NONE',  ( -0.0000000000000000000, -0.0000000000000000000, -1.000000000000000000 ) ) ;
#119 = ORIENTED_EDGE ( 'NONE', *, *, #36, .F. ) ;
#120 = EDGE_CURVE ( 'NONE', #204, #89, #135, .T. ) ;
#121 = ORIENTED_EDGE ( 'NONE', *, *, #13, .F. ) ;
#122 = EDGE_LOOP ( 'NONE', ( #6, #101 ) ) ;
#123 = PLANE ( 'NONE',  #130 ) ;
#124 = AXIS2_PLACEMENT_3D ( 'NONE', #247, #83, #191 ) ;
#125 = CARTESIAN_POINT ( 'NONE',  ( 0.0000000000000000000, 0.0000000000000000000, 0.1295625965585742445 ) ) ;
#126 = DIMENSIONAL_EXPONENTS ( 1.000000000000000000, 0.0000000000000000000, 0.0000000000000000000, 0.0000000000000000000, 0.0000000000000000000, 0.0000000000000000000, 0.0000000000000000000 ) ;
#127 = CARTESIAN_POINT ( 'NONE',  ( 0.0000000000000000000, 0.0000000000000000000, 0.0000000000000000000 ) ) ;
#128 = CARTESIAN_POINT ( 'NONE',  ( 0.0000000000000000000, 0.0000000000000000000, 1.953504000000000129 ) ) ;
#129 =( NAMED_UNIT ( * ) PLANE_ANGLE_UNIT ( ) SI_UNIT ( $, .RADIAN. ) );
#130 = AXIS2_PLACEMENT_3D ( 'NONE', #92, #237, #203 ) ;
#131 = LENGTH_MEASURE_WITH_UNIT ( LENGTH_MEASURE( 0.02539999999999999897 ), #43 );
#132 = CYLINDRICAL_SURFACE ( 'NONE', #17, 0.07874000000000000443 ) ;
#133 = EDGE_LOOP ( 'NONE', ( #166, #88 ) ) ;
#134 = CIRCLE ( 'NONE', #32, 0.003936999999999995191 ) ;
#135 = LINE ( 'NONE', #213, #221 ) ;
#136 = CARTESIAN_POINT ( 'NONE',  ( 0.06374000000000018540, 8.724383797125754882E-18, 1.968503999999999809 ) ) ;
#137 = ORIENTED_EDGE ( 'NONE', *, *, #98, .F. ) ;
#138 = CONICAL_SURFACE ( 'NONE', #190, 0.003936999999999995191, 0.5235987755983005920 ) ;
#139 = EDGE_LOOP ( 'NONE', ( #195, #201, #112, #158 ) ) ;
#140 = ADVANCED_FACE ( 'NONE', ( #4 ), #147, .T. ) ;
#141 = DIRECTION ( 'NONE',  ( -1.000000000000000000, 0.0000000000000000000, 0.0000000000000000000 ) ) ;
#142 = CONICAL_SURFACE ( 'NONE', #115, 0.003936999999999995191, 0.5235987755983005920 ) ;
#143 = PRESENTATION_STYLE_ASSIGNMENT (( #73 ) ) ;
#144 = LINE ( 'NONE', #52, #74 ) ;
#145 = ORIENTED_EDGE ( 'NONE', *, *, #168, .F. ) ;
#146 = DIRECTION ( 'NONE',  ( -0.0000000000000000000, -0.0000000000000000000, -1.000000000000000000 ) ) ;
#147 = PLANE ( 'NONE',  #210 ) ;
#148 = LINE ( 'NONE', #40, #169 ) ;
#149 =( GEOMETRIC_REPRESENTATION_CONTEXT ( 3 ) GLOBAL_UNCERTAINTY_ASSIGNED_CONTEXT ( ( #22 ) ) GLOBAL_UNIT_ASSIGNED_CONTEXT ( ( #153, #82, #44 ) ) REPRESENTATION_CONTEXT ( 'NONE', 'WORKASPACE' ) );
#150 = CARTESIAN_POINT ( 'NONE',  ( 0.0000000000000000000, 0.0000000000000000000, 1.968503999999999809 ) ) ;
#151 = ADVANCED_FACE ( 'NONE', ( #59 ), #142, .T. ) ;
#152 = SURFACE_SIDE_STYLE ('',( #194 ) ) ;
#153 =( CONVERSION_BASED_UNIT ( 'INCH', #131 ) LENGTH_UNIT ( ) NAMED_UNIT ( #246 ) );
#154 = CARTESIAN_POINT ( 'NONE',  ( 0.0000000000000000000, 0.0000000000000000000, 1.968503999999999809 ) ) ;
#155 = CONICAL_SURFACE ( 'NONE', #124, 0.06374000000000018540, 0.7853981633974522758 ) ;
#156 = DIRECTION ( 'NONE',  ( -0.5000000000000013323, 6.123233995736782060E-17, 0.8660254037844377084 ) ) ;
#157 = ORIENTED_EDGE ( 'NONE', *, *, #235, .T. ) ;
#158 = ORIENTED_EDGE ( 'NONE', *, *, #211, .T. ) ;
#159 = STYLED_ITEM ( 'NONE', ( #143 ), #90 ) ;
#160 = EDGE_CURVE ( 'NONE', #30, #232, #244, .T. ) ;
#161 = ORIENTED_EDGE ( 'NONE', *, *, #160, .F. ) ;
#162 = DIRECTION ( 'NONE',  ( -0.0000000000000000000, -0.0000000000000000000, -1.000000000000000000 ) ) ;
#163 = DIRECTION ( 'NONE',  ( 1.000000000000000000, 0.0000000000000000000, 0.0000000000000000000 ) ) ;
#164 = CYLINDRICAL_SURFACE ( 'NONE', #240, 0.07874000000000000443 ) ;
#165 = EDGE_CURVE ( 'NONE', #1, #204, #134, .T. ) ;
#166 = ORIENTED_EDGE ( 'NONE', *, *, #165, .T. ) ;
#167 = DIRECTION ( 'NONE',  ( 1.000000000000000000, 0.0000000000000000000, 0.0000000000000000000 ) ) ;
#168 = EDGE_CURVE ( 'NONE', #219, #97, #144, .T. ) ;
#169 = VECTOR ( 'NONE', #193, 39.37007874015748854 ) ;
#170 = CARTESIAN_POINT ( 'NONE',  ( 0.0000000000000000000, 0.0000000000000000000, 0.0000000000000000000 ) ) ;
#171 = FACE_OUTER_BOUND ( 'NONE', #69, .T. ) ;
#172 =( CONVERSION_BASED_UNIT ( 'INCH', #116 ) LENGTH_UNIT ( ) NAMED_UNIT ( #126 ) );
#173 = MECHANICAL_DESIGN_GEOMETRIC_PRESENTATION_REPRESENTATION (  '', ( #84 ), #80 ) ;
#174 = CARTESIAN_POINT ( 'NONE',  ( 0.06374000000000018540, 7.805898697765251255E-18, 1.968503999999999809 ) ) ;
#175 = CARTESIAN_POINT ( 'NONE',  ( 0.07874000000000000443, 9.642868896486258509E-18, 0.1295625965585742445 ) ) ;
#176 = PRODUCT_CONTEXT ( 'NONE', #48, 'mechanical' ) ;
#177 = ORIENTED_EDGE ( 'NONE', *, *, #188, .T. ) ;
#178 = CARTESIAN_POINT ( 'NONE',  ( 0.003936999999999995191, 0.0000000000000000000, 0.0000000000000000000 ) ) ;
#179 = COLOUR_RGB ( '',0.7921568627450980005, 0.8196078431372548767, 0.9333333333333333481 ) ;
#180 = ORIENTED_EDGE ( 'NONE', *, *, #224, .F. ) ;
#181 = ORIENTED_EDGE ( 'NONE', *, *, #235, .F. ) ;
#182 = CIRCLE ( 'NONE', #79, 0.06374000000000018540 ) ;
#183 = ORIENTED_EDGE ( 'NONE', *, *, #70, .F. ) ;
#184 = CARTESIAN_POINT ( 'NONE',  ( 0.0000000000000000000, 0.0000000000000000000, 1.968503999999999809 ) ) ;
#185 = DIRECTION ( 'NONE',  ( -0.0000000000000000000, -0.0000000000000000000, -1.000000000000000000 ) ) ;
#186 = COLOUR_RGB ( '',0.7921568627450980005, 0.8196078431372548767, 0.9333333333333333481 ) ;
#187 = DIRECTION ( 'NONE',  ( 0.0000000000000000000, 0.0000000000000000000, -1.000000000000000000 ) ) ;
#188 = EDGE_CURVE ( 'NONE', #30, #5, #148, .T. ) ;
#189 = DIRECTION ( 'NONE',  ( 0.0000000000000000000, 0.0000000000000000000, 1.000000000000000000 ) ) ;
#190 = AXIS2_PLACEMENT_3D ( 'NONE', #127, #33, #108 ) ;
#191 = DIRECTION ( 'NONE',  ( -1.000000000000000000, 0.0000000000000000000, 0.0000000000000000000 ) ) ;
#192 = CLOSED_SHELL ( 'NONE', ( #53, #231, #207, #63, #140, #217, #151, #18 ) ) ;
#193 = DIRECTION ( 'NONE',  ( -0.7071067811865502373, 0.0000000000000000000, -0.7071067811865446862 ) ) ;
#194 = SURFACE_STYLE_FILL_AREA ( #61 ) ;
#195 = ORIENTED_EDGE ( 'NONE', *, *, #120, .F. ) ;
#196 = PRESENTATION_LAYER_ASSIGNMENT (  '', '', ( #159 ) ) ;
#197 = DIMENSIONAL_EXPONENTS ( 1.000000000000000000, 0.0000000000000000000, 0.0000000000000000000, 0.0000000000000000000, 0.0000000000000000000, 0.0000000000000000000, 0.0000000000000000000 ) ;
#198 = ORIENTED_EDGE ( 'NONE', *, *, #13, .T. ) ;
#199 = ORIENTED_EDGE ( 'NONE', *, *, #38, .F. ) ;
#200 = AXIS2_PLACEMENT_3D ( 'NONE', #85, #118, #67 ) ;
#201 = ORIENTED_EDGE ( 'NONE', *, *, #165, .F. ) ;
#202 = FILL_AREA_STYLE ('',( #93 ) ) ;
#203 = DIRECTION ( 'NONE',  ( 1.000000000000000000, 0.0000000000000000000, -0.0000000000000000000 ) ) ;
#204 = VERTEX_POINT ( 'NONE', #206 ) ;
#205 = CIRCLE ( 'NONE', #3, 0.07874000000000000443 ) ;
#206 = CARTESIAN_POINT ( 'NONE',  ( -0.003936999999999995191, 5.062506170655285717E-18, 0.0000000000000000000 ) ) ;
#207 = ADVANCED_FACE ( 'NONE', ( #25 ), #132, .T. ) ;
#208 =( NAMED_UNIT ( * ) SI_UNIT ( $, .STERADIAN. ) SOLID_ANGLE_UNIT ( ) );
#209 = CARTESIAN_POINT ( 'NONE',  ( 0.07874000000000000443, 9.642868896486258509E-18, 1.953504000000000129 ) ) ;
#210 = AXIS2_PLACEMENT_3D ( 'NONE', #113, #189, #16 ) ;
#211 = EDGE_CURVE ( 'NONE', #97, #89, #27, .T. ) ;
#212 = CARTESIAN_POINT ( 'NONE',  ( 0.0000000000000000000, 0.0000000000000000000, 1.968503999999999809 ) ) ;
#213 = CARTESIAN_POINT ( 'NONE',  ( -0.003936999999999995191, 4.821434448243123477E-19, 0.0000000000000000000 ) ) ;
#214 = ORIENTED_EDGE ( 'NONE', *, *, #36, .T. ) ;
#215 = UNCERTAINTY_MEASURE_WITH_UNIT (LENGTH_MEASURE( 1.000000000000000082E-05 ), #110, 'distance_accuracy_value', 'NONE');
#216 = PRESENTATION_LAYER_ASSIGNMENT (  '', '', ( #84 ) ) ;
#217 = ADVANCED_FACE ( 'NONE', ( #171 ), #249, .T. ) ;
#218 = ORIENTED_EDGE ( 'NONE', *, *, #102, .F. ) ;
#219 = VERTEX_POINT ( 'NONE', #209 ) ;
#220 = CARTESIAN_POINT ( 'NONE',  ( 0.0000000000000000000, 0.0000000000000000000, 0.0000000000000000000 ) ) ;
#221 = VECTOR ( 'NONE', #156, 39.37007874015748854 ) ;
#222 =( LENGTH_UNIT ( ) NAMED_UNIT ( * ) SI_UNIT ( $, .METRE. ) );
#223 = FACE_OUTER_BOUND ( 'NONE', #29, .T. ) ;
#224 = EDGE_CURVE ( 'NONE', #5, #89, #41, .T. ) ;
#225 = VECTOR ( 'NONE', #65, 39.37007874015748854 ) ;
#226 = CARTESIAN_POINT ( 'NONE',  ( 0.0000000000000000000, 0.0000000000000000000, 1.968503999999999809 ) ) ;
#227 = DIRECTION ( 'NONE',  ( 0.0000000000000000000, 0.0000000000000000000, -1.000000000000000000 ) ) ;
#228 = VECTOR ( 'NONE', #233, 39.37007874015748854 ) ;
#229 = FACE_OUTER_BOUND ( 'NONE', #106, .T. ) ;
#230 = FILL_AREA_STYLE_COLOUR ( '', #186 ) ;
#231 = ADVANCED_FACE ( 'NONE', ( #229 ), #155, .T. ) ;
#232 = VERTEX_POINT ( 'NONE', #136 ) ;
#233 = DIRECTION ( 'NONE',  ( 0.7071067811865502373, 8.659560562354966138E-17, -0.7071067811865446862 ) ) ;
#234 = UNCERTAINTY_MEASURE_WITH_UNIT (LENGTH_MEASURE( 1.000000000000000082E-05 ), #172, 'distance_accuracy_value', 'NONE');
#235 = EDGE_CURVE ( 'NONE', #232, #219, #99, .T. ) ;
#236 = ORIENTED_EDGE ( 'NONE', *, *, #168, .T. ) ;
#237 = DIRECTION ( 'NONE',  ( 0.0000000000000000000, 0.0000000000000000000, 1.000000000000000000 ) ) ;
#238 = SURFACE_SIDE_STYLE ('',( #34 ) ) ;
#239 = CARTESIAN_POINT ( 'NONE',  ( 0.0000000000000000000, 0.0000000000000000000, 0.0000000000000000000 ) ) ;
#240 = AXIS2_PLACEMENT_3D ( 'NONE', #184, #185, #241 ) ;
#241 = DIRECTION ( 'NONE',  ( -1.000000000000000000, 0.0000000000000000000, 0.0000000000000000000 ) ) ;
#242 = PRODUCT_RELATED_PRODUCT_CATEGORY ( 'part', '', ( #54 ) ) ;
#243 = FACE_OUTER_BOUND ( 'NONE', #26, .T. ) ;
#244 = CIRCLE ( 'NONE', #111, 0.06374000000000018540 ) ;
#245 = DIRECTION ( 'NONE',  ( 0.0000000000000000000, 0.0000000000000000000, 1.000000000000000000 ) ) ;
#246 = DIMENSIONAL_EXPONENTS ( 1.000000000000000000, 0.0000000000000000000, 0.0000000000000000000, 0.0000000000000000000, 0.0000000000000000000, 0.0000000000000000000, 0.0000000000000000000 ) ;
#247 = CARTESIAN_POINT ( 'NONE',  ( 0.0000000000000000000, 0.0000000000000000000, 1.968503999999999809 ) ) ;
#248 = CARTESIAN_POINT ( 'NONE',  ( -0.07874000000000000443, 0.0000000000000000000, 1.968503999999999809 ) ) ;
#249 = CONICAL_SURFACE ( 'NONE', #95, 0.06374000000000018540, 0.7853981633974522758 ) ;
ENDSEC;
END-ISO-10303-21;
