ISO-10303-21;
HEADER;
FILE_DESCRIPTION (( 'STEP AP214' ),
    '1' );
FILE_NAME ('44257W.STEP',
    '2023-06-22T19:50:43',
    ( '' ),
    ( '' ),
    'SwSTEP 2.0',
    'SolidWorks 2023',
    '' );
FILE_SCHEMA (( 'AUTOMOTIVE_DESIGN' ));
ENDSEC;

DATA;
#1 = PRESENTATION_STYLE_ASSIGNMENT (( #172 ) ) ;
#2 = EDGE_CURVE ( 'NONE', #190, #70, #147, .T. ) ;
#3 = STYLED_ITEM ( 'NONE', ( #278 ), #180 ) ;
#4 = DIRECTION ( 'NONE',  ( 0.000000000000000000, 0.000000000000000000, -1.000000000000000000 ) ) ;
#5 = UNCERTAINTY_MEASURE_WITH_UNIT (LENGTH_MEASURE( 1.000000000000000082E-05 ), #59, 'distance_accuracy_value', 'NONE');
#6 =( CONVERSION_BASED_UNIT ( 'INCH', #235 ) LENGTH_UNIT ( ) NAMED_UNIT ( #153 ) );
#7 = FACE_OUTER_BOUND ( 'NONE', #43, .T. ) ;
#8 = AXIS2_PLACEMENT_3D ( 'NONE', #254, #108, #292 ) ;
#9 = LENGTH_MEASURE_WITH_UNIT ( LENGTH_MEASURE( 0.02539999999999999897 ), #112 );
#10 = DIRECTION ( 'NONE',  ( 6.531449595452550356E-17, 1.000000000000000000, -0.000000000000000000 ) ) ;
#11 =( NAMED_UNIT ( * ) PLANE_ANGLE_UNIT ( ) SI_UNIT ( $, .RADIAN. ) );
#12 = FILL_AREA_STYLE_COLOUR ( '', #256 ) ;
#13 = PRODUCT_CONTEXT ( 'NONE', #33, 'mechanical' ) ;
#14 = STYLED_ITEM ( 'NONE', ( #1 ), #79 ) ;
#15 =( GEOMETRIC_REPRESENTATION_CONTEXT ( 3 ) GLOBAL_UNCERTAINTY_ASSIGNED_CONTEXT ( ( #49 ) ) GLOBAL_UNIT_ASSIGNED_CONTEXT ( ( #298, #219, #83 ) ) REPRESENTATION_CONTEXT ( 'NONE', 'WORKASPACE' ) );
#16 = PRESENTATION_STYLE_ASSIGNMENT (( #268 ) ) ;
#17 = SURFACE_SIDE_STYLE ('',( #205 ) ) ;
#18 = VECTOR ( 'NONE', #24, 39.37007874015748143 ) ;
#19 = COLOUR_RGB ( '',1.000000000000000000, 0.000000000000000000, 0.000000000000000000 ) ;
#20 = ORIENTED_EDGE ( 'NONE', *, *, #279, .F. ) ;
#21 = EDGE_CURVE ( 'NONE', #46, #126, #117, .T. ) ;
#22 = CIRCLE ( 'NONE', #257, 0.2499999999999998335 ) ;
#23 = DIRECTION ( 'NONE',  ( 6.531449595452550356E-17, 1.000000000000000000, -0.000000000000000000 ) ) ;
#24 = DIRECTION ( 'NONE',  ( -0.000000000000000000, -1.000000000000000000, -0.000000000000000000 ) ) ;
#25 = PRESENTATION_LAYER_ASSIGNMENT (  '', '', ( #253 ) ) ;
#26 = CYLINDRICAL_SURFACE ( 'NONE', #124, 0.2499999999999998890 ) ;
#27 = EDGE_LOOP ( 'NONE', ( #214, #40, #288, #208 ) ) ;
#28 = ADVANCED_BREP_SHAPE_REPRESENTATION ( '44257W', ( #180, #79, #222 ), #125 ) ;
#29 = CARTESIAN_POINT ( 'NONE',  ( 0.000000000000000000, 0.000000000000000000, 0.000000000000000000 ) ) ;
#30 = APPLICATION_PROTOCOL_DEFINITION ( 'draft international standard', 'automotive_design', 1998, #57 ) ;
#31 = DIRECTION ( 'NONE',  ( -0.000000000000000000, -1.000000000000000000, -0.000000000000000000 ) ) ;
#32 = DIRECTION ( 'NONE',  ( 0.000000000000000000, 0.000000000000000000, 1.000000000000000000 ) ) ;
#33 = APPLICATION_CONTEXT ( 'automotive_design' ) ;
#34 = DIRECTION ( 'NONE',  ( -0.000000000000000000, -1.000000000000000000, -0.000000000000000000 ) ) ;
#35 = UNCERTAINTY_MEASURE_WITH_UNIT (LENGTH_MEASURE( 1.000000000000000082E-05 ), #197, 'distance_accuracy_value', 'NONE');
#36 = SURFACE_STYLE_FILL_AREA ( #228 ) ;
#37 =( LENGTH_UNIT ( ) NAMED_UNIT ( * ) SI_UNIT ( $, .METRE. ) );
#38 = FILL_AREA_STYLE_COLOUR ( '', #139 ) ;
#39 = AXIS2_PLACEMENT_3D ( 'NONE', #189, #23, #45 ) ;
#40 = ORIENTED_EDGE ( 'NONE', *, *, #234, .T. ) ;
#41 = ORIENTED_EDGE ( 'NONE', *, *, #306, .T. ) ;
#42 = STYLED_ITEM ( 'NONE', ( #127 ), #217 ) ;
#43 = EDGE_LOOP ( 'NONE', ( #107, #41, #160, #20 ) ) ;
#44 = DIRECTION ( 'NONE',  ( -1.000000000000000000, 0.000000000000000000, 0.000000000000000000 ) ) ;
#45 = DIRECTION ( 'NONE',  ( -1.000000000000000000, 6.531449595452550356E-17, 0.000000000000000000 ) ) ;
#46 = VERTEX_POINT ( 'NONE', #142 ) ;
#47 = PRODUCT_DEFINITION_SHAPE ( 'NONE', 'NONE',  #255 ) ;
#48 = SURFACE_STYLE_USAGE ( .BOTH. , #263 ) ;
#49 = UNCERTAINTY_MEASURE_WITH_UNIT (LENGTH_MEASURE( 1.000000000000000082E-05 ), #298, 'distance_accuracy_value', 'NONE');
#50 = CIRCLE ( 'NONE', #8, 0.2499999999999999722 ) ;
#51 = DIRECTION ( 'NONE',  ( -0.000000000000000000, -1.000000000000000000, -0.000000000000000000 ) ) ;
#52 =( GEOMETRIC_REPRESENTATION_CONTEXT ( 3 ) GLOBAL_UNCERTAINTY_ASSIGNED_CONTEXT ( ( #35 ) ) GLOBAL_UNIT_ASSIGNED_CONTEXT ( ( #197, #11, #225 ) ) REPRESENTATION_CONTEXT ( 'NONE', 'WORKASPACE' ) );
#53 = VECTOR ( 'NONE', #156, 39.37007874015748143 ) ;
#54 =( NAMED_UNIT ( * ) PLANE_ANGLE_UNIT ( ) SI_UNIT ( $, .RADIAN. ) );
#55 = EDGE_LOOP ( 'NONE', ( #192, #75, #196, #170 ) ) ;
#56 = EDGE_CURVE ( 'NONE', #126, #70, #282, .T. ) ;
#57 = APPLICATION_CONTEXT ( 'automotive_design' ) ;
#58 = CARTESIAN_POINT ( 'NONE',  ( 0.000000000000000000, 0.000000000000000000, 0.000000000000000000 ) ) ;
#59 =( CONVERSION_BASED_UNIT ( 'INCH', #110 ) LENGTH_UNIT ( ) NAMED_UNIT ( #155 ) );
#60 = FACE_OUTER_BOUND ( 'NONE', #55, .T. ) ;
#61 = CARTESIAN_POINT ( 'NONE',  ( 0.000000000000000000, 0.6250000000000000000, 0.000000000000000000 ) ) ;
#62 = DIMENSIONAL_EXPONENTS ( 1.000000000000000000, 0.000000000000000000, 0.000000000000000000, 0.000000000000000000, 0.000000000000000000, 0.000000000000000000, 0.000000000000000000 ) ;
#63 = DIRECTION ( 'NONE',  ( 0.000000000000000000, 1.000000000000000000, 0.000000000000000000 ) ) ;
#64 =( CONVERSION_BASED_UNIT ( 'INCH', #247 ) LENGTH_UNIT ( ) NAMED_UNIT ( #176 ) );
#65 = CARTESIAN_POINT ( 'NONE',  ( 3.061616997868383018E-17, 0.000000000000000000, 0.2500000000000000000 ) ) ;
#66 = CARTESIAN_POINT ( 'NONE',  ( 0.000000000000000000, 0.6250000000000000000, -0.2499999999999999722 ) ) ;
#67 = DIRECTION ( 'NONE',  ( 1.000000000000000000, 0.000000000000000000, 0.000000000000000000 ) ) ;
#68 = CIRCLE ( 'NONE', #277, 0.2499999999999999722 ) ;
#69 = ORIENTED_EDGE ( 'NONE', *, *, #239, .T. ) ;
#70 = VERTEX_POINT ( 'NONE', #188 ) ;
#71 = FACE_OUTER_BOUND ( 'NONE', #187, .T. ) ;
#72 = STYLED_ITEM ( 'NONE', ( #295 ), #106 ) ;
#73 = DIRECTION ( 'NONE',  ( 0.000000000000000000, 0.000000000000000000, -1.000000000000000000 ) ) ;
#74 = DIRECTION ( 'NONE',  ( 0.000000000000000000, -1.000000000000000000, -0.000000000000000000 ) ) ;
#75 = ORIENTED_EDGE ( 'NONE', *, *, #21, .T. ) ;
#76 = PLANE ( 'NONE',  #98 ) ;
#77 = SURFACE_SIDE_STYLE ('',( #290 ) ) ;
#78 = FACE_OUTER_BOUND ( 'NONE', #185, .T. ) ;
#79 = MANIFOLD_SOLID_BREP ( 'Revolve - Tool Body (Straight Shanked)', #165 ) ;
#80 = EDGE_CURVE ( 'NONE', #70, #190, #81, .T. ) ;
#81 = CIRCLE ( 'NONE', #304, 0.2500000000000000000 ) ;
#82 = CARTESIAN_POINT ( 'NONE',  ( 3.061616997868383018E-17, 0.000000000000000000, 0.2500000000000000000 ) ) ;
#83 =( NAMED_UNIT ( * ) SI_UNIT ( $, .STERADIAN. ) SOLID_ANGLE_UNIT ( ) );
#84 = LINE ( 'NONE', #65, #227 ) ;
#85 = PLANE ( 'NONE',  #39 ) ;
#86 = ADVANCED_FACE ( 'NONE', ( #167 ), #215, .T. ) ;
#87 =( NAMED_UNIT ( * ) SI_UNIT ( $, .STERADIAN. ) SOLID_ANGLE_UNIT ( ) );
#88 =( LENGTH_UNIT ( ) NAMED_UNIT ( * ) SI_UNIT ( $, .METRE. ) );
#89 = CARTESIAN_POINT ( 'NONE',  ( 1.224646799147353207E-16, 2.500000000000000000, 0.000000000000000000 ) ) ;
#90 =( GEOMETRIC_REPRESENTATION_CONTEXT ( 3 ) GLOBAL_UNCERTAINTY_ASSIGNED_CONTEXT ( ( #203 ) ) GLOBAL_UNIT_ASSIGNED_CONTEXT ( ( #308, #173, #101 ) ) REPRESENTATION_CONTEXT ( 'NONE', 'WORKASPACE' ) );
#91 = UNCERTAINTY_MEASURE_WITH_UNIT (LENGTH_MEASURE( 1.000000000000000082E-05 ), #6, 'distance_accuracy_value', 'NONE');
#92 =( NAMED_UNIT ( * ) PLANE_ANGLE_UNIT ( ) SI_UNIT ( $, .RADIAN. ) );
#93 = DIRECTION ( 'NONE',  ( 6.531449595452550356E-17, 1.000000000000000000, -0.000000000000000000 ) ) ;
#94 = CYLINDRICAL_SURFACE ( 'NONE', #103, 0.2500000000000000000 ) ;
#95 = CARTESIAN_POINT ( 'NONE',  ( 0.000000000000000000, 0.6250000000000000000, 0.000000000000000000 ) ) ;
#96 = DIMENSIONAL_EXPONENTS ( 1.000000000000000000, 0.000000000000000000, 0.000000000000000000, 0.000000000000000000, 0.000000000000000000, 0.000000000000000000, 0.000000000000000000 ) ;
#97 = LENGTH_MEASURE_WITH_UNIT ( LENGTH_MEASURE( 0.02539999999999999897 ), #230 );
#98 = AXIS2_PLACEMENT_3D ( 'NONE', #244, #63, #273 ) ;
#99 = ORIENTED_EDGE ( 'NONE', *, *, #274, .T. ) ;
#100 = CIRCLE ( 'NONE', #302, 0.2499999999999999722 ) ;
#101 =( NAMED_UNIT ( * ) SI_UNIT ( $, .STERADIAN. ) SOLID_ANGLE_UNIT ( ) );
#102 = FILL_AREA_STYLE ('',( #122 ) ) ;
#103 = AXIS2_PLACEMENT_3D ( 'NONE', #58, #275, #152 ) ;
#104 = UNCERTAINTY_MEASURE_WITH_UNIT (LENGTH_MEASURE( 1.000000000000000082E-05 ), #64, 'distance_accuracy_value', 'NONE');
#105 = CARTESIAN_POINT ( 'NONE',  ( 0.000000000000000000, 0.6250000000000000000, 0.000000000000000000 ) ) ;
#106 = ADVANCED_FACE ( 'NONE', ( #144 ), #272, .T. ) ;
#107 = ORIENTED_EDGE ( 'NONE', *, *, #224, .F. ) ;
#108 = DIRECTION ( 'NONE',  ( -0.000000000000000000, -1.000000000000000000, -0.000000000000000000 ) ) ;
#109 = DIRECTION ( 'NONE',  ( -6.531449595452550356E-17, -1.000000000000000000, 0.000000000000000000 ) ) ;
#110 = LENGTH_MEASURE_WITH_UNIT ( LENGTH_MEASURE( 0.02539999999999999897 ), #37 );
#111 = DIRECTION ( 'NONE',  ( 6.531449595452550356E-17, 1.000000000000000000, -0.000000000000000000 ) ) ;
#112 =( LENGTH_UNIT ( ) NAMED_UNIT ( * ) SI_UNIT ( $, .METRE. ) );
#113 = PRESENTATION_LAYER_ASSIGNMENT (  '', '', ( #42 ) ) ;
#114 =( NAMED_UNIT ( * ) SI_UNIT ( $, .STERADIAN. ) SOLID_ANGLE_UNIT ( ) );
#115 = AXIS2_PLACEMENT_3D ( 'NONE', #294, #34, #250 ) ;
#116 = ADVANCED_FACE ( 'NONE', ( #60 ), #94, .T. ) ;
#117 = CIRCLE ( 'NONE', #291, 0.2499999999999999722 ) ;
#118 = VECTOR ( 'NONE', #93, 39.37007874015748143 ) ;
#119 = LENGTH_MEASURE_WITH_UNIT ( LENGTH_MEASURE( 0.02539999999999999897 ), #216 );
#120 = DIRECTION ( 'NONE',  ( -0.000000000000000000, -1.000000000000000000, -0.000000000000000000 ) ) ;
#121 = FILL_AREA_STYLE ('',( #193 ) ) ;
#122 = FILL_AREA_STYLE_COLOUR ( '', #245 ) ;
#123 = FILL_AREA_STYLE_COLOUR ( '', #161 ) ;
#124 = AXIS2_PLACEMENT_3D ( 'NONE', #261, #266, #150 ) ;
#125 =( GEOMETRIC_REPRESENTATION_CONTEXT ( 3 ) GLOBAL_UNCERTAINTY_ASSIGNED_CONTEXT ( ( #5 ) ) GLOBAL_UNIT_ASSIGNED_CONTEXT ( ( #59, #179, #87 ) ) REPRESENTATION_CONTEXT ( 'NONE', 'WORKASPACE' ) );
#126 = VERTEX_POINT ( 'NONE', #66 ) ;
#127 = PRESENTATION_STYLE_ASSIGNMENT (( #48 ) ) ;
#128 = LENGTH_MEASURE_WITH_UNIT ( LENGTH_MEASURE( 0.02539999999999999897 ), #195 );
#129 = LINE ( 'NONE', #240, #118 ) ;
#130 = PRODUCT_RELATED_PRODUCT_CATEGORY ( 'part', '', ( #218 ) ) ;
#131 = PRESENTATION_LAYER_ASSIGNMENT (  '', '', ( #3 ) ) ;
#132 = PLANE ( 'NONE',  #270 ) ;
#133 = LINE ( 'NONE', #177, #53 ) ;
#134 = SURFACE_STYLE_USAGE ( .BOTH. , #271 ) ;
#135 = APPLICATION_PROTOCOL_DEFINITION ( 'draft international standard', 'automotive_design', 1998, #33 ) ;
#136 = SURFACE_SIDE_STYLE ('',( #36 ) ) ;
#137 = SURFACE_STYLE_USAGE ( .BOTH. , #17 ) ;
#138 = VERTEX_POINT ( 'NONE', #157 ) ;
#139 = COLOUR_RGB ( '',0.7921568627450980005, 0.8196078431372548767, 0.9333333333333333481 ) ;
#140 = ORIENTED_EDGE ( 'NONE', *, *, #274, .F. ) ;
#141 = ORIENTED_EDGE ( 'NONE', *, *, #21, .F. ) ;
#142 = CARTESIAN_POINT ( 'NONE',  ( 3.061616997868382402E-17, 0.6250000000000000000, 0.2499999999999999722 ) ) ;
#143 =( NAMED_UNIT ( * ) SI_UNIT ( $, .STERADIAN. ) SOLID_ANGLE_UNIT ( ) );
#144 = FACE_OUTER_BOUND ( 'NONE', #27, .T. ) ;
#145 = FACE_OUTER_BOUND ( 'NONE', #281, .T. ) ;
#146 = SURFACE_STYLE_USAGE ( .BOTH. , #236 ) ;
#147 = CIRCLE ( 'NONE', #300, 0.2500000000000000000 ) ;
#148 = MECHANICAL_DESIGN_GEOMETRIC_PRESENTATION_REPRESENTATION (  '', ( #42 ), #52 ) ;
#149 = EDGE_LOOP ( 'NONE', ( #69, #232 ) ) ;
#150 = DIRECTION ( 'NONE',  ( -1.000000000000000000, 0.000000000000000000, 0.000000000000000000 ) ) ;
#151 = ORIENTED_EDGE ( 'NONE', *, *, #2, .T. ) ;
#152 = DIRECTION ( 'NONE',  ( 0.000000000000000000, 0.000000000000000000, -1.000000000000000000 ) ) ;
#153 = DIMENSIONAL_EXPONENTS ( 1.000000000000000000, 0.000000000000000000, 0.000000000000000000, 0.000000000000000000, 0.000000000000000000, 0.000000000000000000, 0.000000000000000000 ) ;
#154 =( GEOMETRIC_REPRESENTATION_CONTEXT ( 3 ) GLOBAL_UNCERTAINTY_ASSIGNED_CONTEXT ( ( #91 ) ) GLOBAL_UNIT_ASSIGNED_CONTEXT ( ( #6, #210, #237 ) ) REPRESENTATION_CONTEXT ( 'NONE', 'WORKASPACE' ) );
#155 = DIMENSIONAL_EXPONENTS ( 1.000000000000000000, 0.000000000000000000, 0.000000000000000000, 0.000000000000000000, 0.000000000000000000, 0.000000000000000000, 0.000000000000000000 ) ;
#156 = DIRECTION ( 'NONE',  ( 6.531449595452550356E-17, 1.000000000000000000, -0.000000000000000000 ) ) ;
#157 = CARTESIAN_POINT ( 'NONE',  ( 0.2500000000000000000, 0.6250000000000000000, 3.061616997868382402E-17 ) ) ;
#158 = CIRCLE ( 'NONE', #198, 0.2499999999999998335 ) ;
#159 = FILL_AREA_STYLE ('',( #38 ) ) ;
#160 = ORIENTED_EDGE ( 'NONE', *, *, #287, .T. ) ;
#161 = COLOUR_RGB ( '',1.000000000000000000, 0.000000000000000000, 0.000000000000000000 ) ;
#162 = EDGE_CURVE ( 'NONE', #126, #46, #50, .T. ) ;
#163 = CARTESIAN_POINT ( 'NONE',  ( 1.224646799147353207E-16, 2.500000000000000000, 0.000000000000000000 ) ) ;
#164 =( CONVERSION_BASED_UNIT ( 'INCH', #97 ) LENGTH_UNIT ( ) NAMED_UNIT ( #297 ) );
#165 = CLOSED_SHELL ( 'NONE', ( #86, #181, #201, #168 ) ) ;
#166 = AXIS2_PLACEMENT_3D ( 'NONE', #284, #74, #169 ) ;
#167 = FACE_OUTER_BOUND ( 'NONE', #303, .T. ) ;
#168 = ADVANCED_FACE ( 'NONE', ( #175 ), #132, .F. ) ;
#169 = DIRECTION ( 'NONE',  ( 0.000000000000000000, 0.000000000000000000, -1.000000000000000000 ) ) ;
#170 = ORIENTED_EDGE ( 'NONE', *, *, #2, .F. ) ;
#171 = SURFACE_STYLE_FILL_AREA ( #213 ) ;
#172 = SURFACE_STYLE_USAGE ( .BOTH. , #77 ) ;
#173 =( NAMED_UNIT ( * ) PLANE_ANGLE_UNIT ( ) SI_UNIT ( $, .RADIAN. ) );
#174 = STYLED_ITEM ( 'NONE', ( #286 ), #183 ) ;
#175 = FACE_OUTER_BOUND ( 'NONE', #149, .T. ) ;
#176 = DIMENSIONAL_EXPONENTS ( 1.000000000000000000, 0.000000000000000000, 0.000000000000000000, 0.000000000000000000, 0.000000000000000000, 0.000000000000000000, 0.000000000000000000 ) ;
#177 = CARTESIAN_POINT ( 'NONE',  ( -0.2499999999999997502, 2.500000000000000000, 0.000000000000000000 ) ) ;
#178 = PRESENTATION_LAYER_ASSIGNMENT (  '', '', ( #72 ) ) ;
#179 =( NAMED_UNIT ( * ) PLANE_ANGLE_UNIT ( ) SI_UNIT ( $, .RADIAN. ) );
#180 = MANIFOLD_SOLID_BREP ( 'Revolve - Cutting Edge', #252 ) ;
#181 = ADVANCED_FACE ( 'NONE', ( #145 ), #85, .F. ) ;
#182 = CARTESIAN_POINT ( 'NONE',  ( -0.2499999999999999722, 0.6250000000000000000, 0.000000000000000000 ) ) ;
#183 = ADVANCED_FACE ( 'NONE', ( #71 ), #289, .T. ) ;
#184 = PRESENTATION_LAYER_ASSIGNMENT (  '', '', ( #174 ) ) ;
#185 = EDGE_LOOP ( 'NONE', ( #194, #141 ) ) ;
#186 = MECHANICAL_DESIGN_GEOMETRIC_PRESENTATION_REPRESENTATION (  '', ( #14 ), #154 ) ;
#187 = EDGE_LOOP ( 'NONE', ( #207, #151 ) ) ;
#188 = CARTESIAN_POINT ( 'NONE',  ( 0.000000000000000000, 0.000000000000000000, -0.2500000000000000000 ) ) ;
#189 = CARTESIAN_POINT ( 'NONE',  ( 5.332479227242159300E-34, 0.6250000000000000000, 0.000000000000000000 ) ) ;
#190 = VERTEX_POINT ( 'NONE', #82 ) ;
#191 = MECHANICAL_DESIGN_GEOMETRIC_PRESENTATION_REPRESENTATION (  '', ( #253 ), #15 ) ;
#192 = ORIENTED_EDGE ( 'NONE', *, *, #234, .F. ) ;
#193 = FILL_AREA_STYLE_COLOUR ( '', #204 ) ;
#194 = ORIENTED_EDGE ( 'NONE', *, *, #162, .F. ) ;
#195 =( LENGTH_UNIT ( ) NAMED_UNIT ( * ) SI_UNIT ( $, .METRE. ) );
#196 = ORIENTED_EDGE ( 'NONE', *, *, #56, .T. ) ;
#197 =( CONVERSION_BASED_UNIT ( 'INCH', #128 ) LENGTH_UNIT ( ) NAMED_UNIT ( #62 ) );
#198 = AXIS2_PLACEMENT_3D ( 'NONE', #89, #111, #229 ) ;
#199 = PRODUCT_DEFINITION_FORMATION_WITH_SPECIFIED_SOURCE ( 'ANY', '', #218, .NOT_KNOWN. ) ;
#200 = DIRECTION ( 'NONE',  ( 6.531449595452550356E-17, 1.000000000000000000, -0.000000000000000000 ) ) ;
#201 = ADVANCED_FACE ( 'NONE', ( #7 ), #26, .T. ) ;
#202 = DIRECTION ( 'NONE',  ( -1.000000000000000000, 0.000000000000000000, 0.000000000000000000 ) ) ;
#203 = UNCERTAINTY_MEASURE_WITH_UNIT (LENGTH_MEASURE( 1.000000000000000082E-05 ), #308, 'distance_accuracy_value', 'NONE');
#204 = COLOUR_RGB ( '',1.000000000000000000, 0.000000000000000000, 0.000000000000000000 ) ;
#205 = SURFACE_STYLE_FILL_AREA ( #159 ) ;
#206 = ORIENTED_EDGE ( 'NONE', *, *, #239, .F. ) ;
#207 = ORIENTED_EDGE ( 'NONE', *, *, #80, .T. ) ;
#208 = ORIENTED_EDGE ( 'NONE', *, *, #56, .F. ) ;
#209 = DIRECTION ( 'NONE',  ( 0.000000000000000000, 0.000000000000000000, -1.000000000000000000 ) ) ;
#210 =( NAMED_UNIT ( * ) PLANE_ANGLE_UNIT ( ) SI_UNIT ( $, .RADIAN. ) );
#211 = SURFACE_STYLE_FILL_AREA ( #121 ) ;
#212 =( LENGTH_UNIT ( ) NAMED_UNIT ( * ) SI_UNIT ( $, .METRE. ) );
#213 = FILL_AREA_STYLE ('',( #123 ) ) ;
#214 = ORIENTED_EDGE ( 'NONE', *, *, #162, .T. ) ;
#215 = CYLINDRICAL_SURFACE ( 'NONE', #231, 0.2499999999999998890 ) ;
#216 =( LENGTH_UNIT ( ) NAMED_UNIT ( * ) SI_UNIT ( $, .METRE. ) );
#217 = ADVANCED_FACE ( 'NONE', ( #78 ), #76, .T. ) ;
#218 = PRODUCT ( '44257W', '44257W', '', ( #13 ) ) ;
#219 =( NAMED_UNIT ( * ) PLANE_ANGLE_UNIT ( ) SI_UNIT ( $, .RADIAN. ) );
#220 = SHAPE_DEFINITION_REPRESENTATION ( #47, #28 ) ;
#221 = PRESENTATION_LAYER_ASSIGNMENT (  '', '', ( #14 ) ) ;
#222 = AXIS2_PLACEMENT_3D ( 'NONE', #276, #32, #67 ) ;
#223 = CARTESIAN_POINT ( 'NONE',  ( 0.2499999999999999722, 2.500000000000000000, 0.000000000000000000 ) ) ;
#224 = EDGE_CURVE ( 'NONE', #138, #258, #129, .T. ) ;
#225 =( NAMED_UNIT ( * ) SI_UNIT ( $, .STERADIAN. ) SOLID_ANGLE_UNIT ( ) );
#226 = DIRECTION ( 'NONE',  ( -1.000000000000000000, 0.000000000000000000, 0.000000000000000000 ) ) ;
#227 = VECTOR ( 'NONE', #31, 39.37007874015748143 ) ;
#228 = FILL_AREA_STYLE ('',( #248 ) ) ;
#229 = DIRECTION ( 'NONE',  ( -1.000000000000000000, 0.000000000000000000, 0.000000000000000000 ) ) ;
#230 =( LENGTH_UNIT ( ) NAMED_UNIT ( * ) SI_UNIT ( $, .METRE. ) );
#231 = AXIS2_PLACEMENT_3D ( 'NONE', #163, #260, #44 ) ;
#232 = ORIENTED_EDGE ( 'NONE', *, *, #279, .T. ) ;
#233 = MECHANICAL_DESIGN_GEOMETRIC_PRESENTATION_REPRESENTATION (  '', ( #72 ), #246 ) ;
#234 = EDGE_CURVE ( 'NONE', #46, #190, #84, .T. ) ;
#235 = LENGTH_MEASURE_WITH_UNIT ( LENGTH_MEASURE( 0.02539999999999999897 ), #212 );
#236 = SURFACE_SIDE_STYLE ('',( #211 ) ) ;
#237 =( NAMED_UNIT ( * ) SI_UNIT ( $, .STERADIAN. ) SOLID_ANGLE_UNIT ( ) );
#238 = ORIENTED_EDGE ( 'NONE', *, *, #287, .F. ) ;
#239 = EDGE_CURVE ( 'NONE', #305, #258, #158, .T. ) ;
#240 = CARTESIAN_POINT ( 'NONE',  ( 0.2500000000000000555, 2.500000000000000000, 3.061616997868381785E-17 ) ) ;
#241 = DIMENSIONAL_EXPONENTS ( 1.000000000000000000, 0.000000000000000000, 0.000000000000000000, 0.000000000000000000, 0.000000000000000000, 0.000000000000000000, 0.000000000000000000 ) ;
#242 = PRODUCT_DEFINITION_CONTEXT ( 'detailed design', #57, 'design' ) ;
#243 = SURFACE_STYLE_FILL_AREA ( #267 ) ;
#244 = CARTESIAN_POINT ( 'NONE',  ( 0.000000000000000000, 0.6250000000000000000, 0.000000000000000000 ) ) ;
#245 = COLOUR_RGB ( '',0.7921568627450980005, 0.8196078431372548767, 0.9333333333333333481 ) ;
#246 =( GEOMETRIC_REPRESENTATION_CONTEXT ( 3 ) GLOBAL_UNCERTAINTY_ASSIGNED_CONTEXT ( ( #104 ) ) GLOBAL_UNIT_ASSIGNED_CONTEXT ( ( #64, #92, #114 ) ) REPRESENTATION_CONTEXT ( 'NONE', 'WORKASPACE' ) );
#247 = LENGTH_MEASURE_WITH_UNIT ( LENGTH_MEASURE( 0.02539999999999999897 ), #88 );
#248 = FILL_AREA_STYLE_COLOUR ( '', #19 ) ;
#249 = CARTESIAN_POINT ( 'NONE',  ( 0.2500000000000000000, 2.500000000000000000, 3.061616997868382402E-17 ) ) ;
#250 = DIRECTION ( 'NONE',  ( 0.000000000000000000, 0.000000000000000000, -1.000000000000000000 ) ) ;
#251 = DIRECTION ( 'NONE',  ( -1.000000000000000000, 0.000000000000000000, 0.000000000000000000 ) ) ;
#252 = CLOSED_SHELL ( 'NONE', ( #106, #217, #116, #183 ) ) ;
#253 = STYLED_ITEM ( 'NONE', ( #16 ), #116 ) ;
#254 = CARTESIAN_POINT ( 'NONE',  ( 0.000000000000000000, 0.6250000000000000000, 0.000000000000000000 ) ) ;
#255 = PRODUCT_DEFINITION ( 'UNKNOWN', '', #199, #242 ) ;
#256 = COLOUR_RGB ( '',1.000000000000000000, 0.000000000000000000, 0.000000000000000000 ) ;
#257 = AXIS2_PLACEMENT_3D ( 'NONE', #269, #200, #202 ) ;
#258 = VERTEX_POINT ( 'NONE', #249 ) ;
#259 = MECHANICAL_DESIGN_GEOMETRIC_PRESENTATION_REPRESENTATION (  '', ( #3 ), #283 ) ;
#260 = DIRECTION ( 'NONE',  ( 6.531449595452550356E-17, 1.000000000000000000, -0.000000000000000000 ) ) ;
#261 = CARTESIAN_POINT ( 'NONE',  ( 1.224646799147353207E-16, 2.500000000000000000, 0.000000000000000000 ) ) ;
#262 = CARTESIAN_POINT ( 'NONE',  ( 0.000000000000000000, 0.000000000000000000, 0.000000000000000000 ) ) ;
#263 = SURFACE_SIDE_STYLE ('',( #171 ) ) ;
#264 = UNCERTAINTY_MEASURE_WITH_UNIT (LENGTH_MEASURE( 1.000000000000000082E-05 ), #164, 'distance_accuracy_value', 'NONE');
#265 = DIRECTION ( 'NONE',  ( -0.000000000000000000, -1.000000000000000000, -0.000000000000000000 ) ) ;
#266 = DIRECTION ( 'NONE',  ( 6.531449595452550356E-17, 1.000000000000000000, -0.000000000000000000 ) ) ;
#267 = FILL_AREA_STYLE ('',( #12 ) ) ;
#268 = SURFACE_STYLE_USAGE ( .BOTH. , #136 ) ;
#269 = CARTESIAN_POINT ( 'NONE',  ( 1.224646799147353207E-16, 2.500000000000000000, 0.000000000000000000 ) ) ;
#270 = AXIS2_PLACEMENT_3D ( 'NONE', #223, #109, #293 ) ;
#271 = SURFACE_SIDE_STYLE ('',( #243 ) ) ;
#272 = CYLINDRICAL_SURFACE ( 'NONE', #115, 0.2500000000000000000 ) ;
#273 = DIRECTION ( 'NONE',  ( 0.000000000000000000, -0.000000000000000000, 1.000000000000000000 ) ) ;
#274 = EDGE_CURVE ( 'NONE', #309, #138, #68, .T. ) ;
#275 = DIRECTION ( 'NONE',  ( -0.000000000000000000, -1.000000000000000000, -0.000000000000000000 ) ) ;
#276 = CARTESIAN_POINT ( 'NONE',  ( 0.000000000000000000, 0.000000000000000000, 0.000000000000000000 ) ) ;
#277 = AXIS2_PLACEMENT_3D ( 'NONE', #95, #299, #226 ) ;
#278 = PRESENTATION_STYLE_ASSIGNMENT (( #137 ) ) ;
#279 = EDGE_CURVE ( 'NONE', #258, #305, #22, .T. ) ;
#280 = ORIENTED_EDGE ( 'NONE', *, *, #224, .T. ) ;
#281 = EDGE_LOOP ( 'NONE', ( #140, #285 ) ) ;
#282 = LINE ( 'NONE', #307, #18 ) ;
#283 =( GEOMETRIC_REPRESENTATION_CONTEXT ( 3 ) GLOBAL_UNCERTAINTY_ASSIGNED_CONTEXT ( ( #264 ) ) GLOBAL_UNIT_ASSIGNED_CONTEXT ( ( #164, #54, #143 ) ) REPRESENTATION_CONTEXT ( 'NONE', 'WORKASPACE' ) );
#284 = CARTESIAN_POINT ( 'NONE',  ( 0.000000000000000000, 0.000000000000000000, 0.000000000000000000 ) ) ;
#285 = ORIENTED_EDGE ( 'NONE', *, *, #306, .F. ) ;
#286 = PRESENTATION_STYLE_ASSIGNMENT (( #146 ) ) ;
#287 = EDGE_CURVE ( 'NONE', #309, #305, #133, .T. ) ;
#288 = ORIENTED_EDGE ( 'NONE', *, *, #80, .F. ) ;
#289 = PLANE ( 'NONE',  #166 ) ;
#290 = SURFACE_STYLE_FILL_AREA ( #102 ) ;
#291 = AXIS2_PLACEMENT_3D ( 'NONE', #105, #120, #209 ) ;
#292 = DIRECTION ( 'NONE',  ( 0.000000000000000000, 0.000000000000000000, -1.000000000000000000 ) ) ;
#293 = DIRECTION ( 'NONE',  ( 1.000000000000000000, -6.531449595452550356E-17, 0.000000000000000000 ) ) ;
#294 = CARTESIAN_POINT ( 'NONE',  ( 0.000000000000000000, 0.000000000000000000, 0.000000000000000000 ) ) ;
#295 = PRESENTATION_STYLE_ASSIGNMENT (( #134 ) ) ;
#296 = CARTESIAN_POINT ( 'NONE',  ( -0.2499999999999996947, 2.500000000000000000, 0.000000000000000000 ) ) ;
#297 = DIMENSIONAL_EXPONENTS ( 1.000000000000000000, 0.000000000000000000, 0.000000000000000000, 0.000000000000000000, 0.000000000000000000, 0.000000000000000000, 0.000000000000000000 ) ;
#298 =( CONVERSION_BASED_UNIT ( 'INCH', #9 ) LENGTH_UNIT ( ) NAMED_UNIT ( #241 ) );
#299 = DIRECTION ( 'NONE',  ( 6.531449595452550356E-17, 1.000000000000000000, -0.000000000000000000 ) ) ;
#300 = AXIS2_PLACEMENT_3D ( 'NONE', #262, #265, #4 ) ;
#301 = MECHANICAL_DESIGN_GEOMETRIC_PRESENTATION_REPRESENTATION (  '', ( #174 ), #90 ) ;
#302 = AXIS2_PLACEMENT_3D ( 'NONE', #61, #10, #251 ) ;
#303 = EDGE_LOOP ( 'NONE', ( #99, #280, #206, #238 ) ) ;
#304 = AXIS2_PLACEMENT_3D ( 'NONE', #29, #51, #73 ) ;
#305 = VERTEX_POINT ( 'NONE', #296 ) ;
#306 = EDGE_CURVE ( 'NONE', #138, #309, #100, .T. ) ;
#307 = CARTESIAN_POINT ( 'NONE',  ( 0.000000000000000000, 0.000000000000000000, -0.2500000000000000000 ) ) ;
#308 =( CONVERSION_BASED_UNIT ( 'INCH', #119 ) LENGTH_UNIT ( ) NAMED_UNIT ( #96 ) );
#309 = VERTEX_POINT ( 'NONE', #182 ) ;
ENDSEC;
END-ISO-10303-21;
