ISO-10303-21;
HEADER;
FILE_DESCRIPTION (( 'STEP AP214' ),
    '1' );
FILE_NAME ('59547.STEP',
    '2023-07-24T15:10:17',
    ( '' ),
    ( '' ),
    'SwSTEP 2.0',
    'SolidWorks 2023',
    '' );
FILE_SCHEMA (( 'AUTOMOTIVE_DESIGN' ));
ENDSEC;

DATA;
#1 =( NAMED_UNIT ( * ) PLANE_ANGLE_UNIT ( ) SI_UNIT ( $, .RADIAN. ) );
#2 = UNCERTAINTY_MEASURE_WITH_UNIT (LENGTH_MEASURE( 1.000000000000000082E-05 ), #251, 'distance_accuracy_value', 'NONE');
#3 = DIRECTION ( 'NONE',  ( 0.000000000000000000, -1.000000000000000000, -0.000000000000000000 ) ) ;
#4 = VECTOR ( 'NONE', #124, 1000.000000000000000 ) ;
#5 = CIRCLE ( 'NONE', #262, 8.000000000000001776 ) ;
#6 = FACE_OUTER_BOUND ( 'NONE', #151, .T. ) ;
#7 = FACE_OUTER_BOUND ( 'NONE', #35, .T. ) ;
#8 = SURFACE_SIDE_STYLE ('',( #205 ) ) ;
#9 = SURFACE_STYLE_USAGE ( .BOTH. , #286 ) ;
#10 =( NAMED_UNIT ( * ) PLANE_ANGLE_UNIT ( ) SI_UNIT ( $, .RADIAN. ) );
#11 = FILL_AREA_STYLE ('',( #62 ) ) ;
#12 = ORIENTED_EDGE ( 'NONE', *, *, #94, .T. ) ;
#13 = EDGE_CURVE ( 'NONE', #203, #355, #293, .T. ) ;
#14 = ORIENTED_EDGE ( 'NONE', *, *, #94, .F. ) ;
#15 = PRODUCT ( '59547', '59547', '', ( #87 ) ) ;
#16 = DIRECTION ( 'NONE',  ( -1.213802797673107944E-16, 1.000000000000000000, -0.000000000000000000 ) ) ;
#17 = DIRECTION ( 'NONE',  ( -1.213802797673107944E-16, 1.000000000000000000, -0.000000000000000000 ) ) ;
#18 = DIRECTION ( 'NONE',  ( 0.000000000000000000, 0.000000000000000000, -1.000000000000000000 ) ) ;
#19 = DIRECTION ( 'NONE',  ( -0.000000000000000000, -1.000000000000000000, -0.000000000000000000 ) ) ;
#20 = STYLED_ITEM ( 'NONE', ( #29 ), #365 ) ;
#21 = DIRECTION ( 'NONE',  ( 0.000000000000000000, 0.000000000000000000, -1.000000000000000000 ) ) ;
#22 =( LENGTH_UNIT ( ) NAMED_UNIT ( * ) SI_UNIT ( .MILLI., .METRE. ) );
#23 = EDGE_CURVE ( 'NONE', #155, #264, #266, .T. ) ;
#24 = PLANE ( 'NONE',  #160 ) ;
#25 = DIRECTION ( 'NONE',  ( -1.213802797673107944E-16, 1.000000000000000000, -0.000000000000000000 ) ) ;
#26 = PRESENTATION_STYLE_ASSIGNMENT (( #311 ) ) ;
#27 = AXIS2_PLACEMENT_3D ( 'NONE', #348, #287, #95 ) ;
#28 = AXIS2_PLACEMENT_3D ( 'NONE', #340, #302, #21 ) ;
#29 = PRESENTATION_STYLE_ASSIGNMENT (( #9 ) ) ;
#30 = SURFACE_STYLE_USAGE ( .BOTH. , #220 ) ;
#31 = EDGE_CURVE ( 'NONE', #127, #203, #54, .T. ) ;
#32 = PRESENTATION_LAYER_ASSIGNMENT (  '', '', ( #248 ) ) ;
#33 = ADVANCED_FACE ( 'NONE', ( #354 ), #104, .F. ) ;
#34 = ORIENTED_EDGE ( 'NONE', *, *, #212, .T. ) ;
#35 = EDGE_LOOP ( 'NONE', ( #106, #12, #291, #103 ) ) ;
#36 = FILL_AREA_STYLE ('',( #236 ) ) ;
#37 = ORIENTED_EDGE ( 'NONE', *, *, #38, .F. ) ;
#38 = EDGE_CURVE ( 'NONE', #264, #155, #257, .T. ) ;
#39 = ORIENTED_EDGE ( 'NONE', *, *, #157, .F. ) ;
#40 = ORIENTED_EDGE ( 'NONE', *, *, #38, .T. ) ;
#41 = PRESENTATION_LAYER_ASSIGNMENT (  '', '', ( #112 ) ) ;
#42 = CARTESIAN_POINT ( 'NONE',  ( 7.999999999999996447, 89.00000000000000000, 9.797174393178823685E-16 ) ) ;
#43 = CARTESIAN_POINT ( 'NONE',  ( 8.000000000000000000, 32.00000000000000000, 9.797174393178825657E-16 ) ) ;
#44 = EDGE_LOOP ( 'NONE', ( #298, #37 ) ) ;
#45 =( NAMED_UNIT ( * ) PLANE_ANGLE_UNIT ( ) SI_UNIT ( $, .RADIAN. ) );
#46 = CARTESIAN_POINT ( 'NONE',  ( -8.000000000000000000, 89.00000000000000000, 0.000000000000000000 ) ) ;
#47 = CIRCLE ( 'NONE', #27, 7.500000000000000000 ) ;
#48 =( GEOMETRIC_REPRESENTATION_CONTEXT ( 3 ) GLOBAL_UNCERTAINTY_ASSIGNED_CONTEXT ( ( #227 ) ) GLOBAL_UNIT_ASSIGNED_CONTEXT ( ( #206, #115, #259 ) ) REPRESENTATION_CONTEXT ( 'NONE', 'WORKASPACE' ) );
#49 =( GEOMETRIC_REPRESENTATION_CONTEXT ( 3 ) GLOBAL_UNCERTAINTY_ASSIGNED_CONTEXT ( ( #58 ) ) GLOBAL_UNIT_ASSIGNED_CONTEXT ( ( #253, #335, #82 ) ) REPRESENTATION_CONTEXT ( 'NONE', 'WORKASPACE' ) );
#50 = DIRECTION ( 'NONE',  ( 0.000000000000000000, 0.000000000000000000, -1.000000000000000000 ) ) ;
#51 = CYLINDRICAL_SURFACE ( 'NONE', #213, 7.999999999999998224 ) ;
#52 = SURFACE_SIDE_STYLE ('',( #171 ) ) ;
#53 = CARTESIAN_POINT ( 'NONE',  ( 0.000000000000000000, 0.000000000000000000, 0.000000000000000000 ) ) ;
#54 = CIRCLE ( 'NONE', #309, 8.000000000000000000 ) ;
#55 = MECHANICAL_DESIGN_GEOMETRIC_PRESENTATION_REPRESENTATION (  '', ( #112 ), #318 ) ;
#56 = EDGE_CURVE ( 'NONE', #264, #126, #290, .T. ) ;
#57 = FILL_AREA_STYLE_COLOUR ( '', #168 ) ;
#58 = UNCERTAINTY_MEASURE_WITH_UNIT (LENGTH_MEASURE( 1.000000000000000082E-05 ), #253, 'distance_accuracy_value', 'NONE');
#59 = VECTOR ( 'NONE', #17, 1000.000000000000000 ) ;
#60 = AXIS2_PLACEMENT_3D ( 'NONE', #299, #109, #18 ) ;
#61 = CARTESIAN_POINT ( 'NONE',  ( -1.714505518806293652E-15, 89.00000000000000000, 0.000000000000000000 ) ) ;
#62 = FILL_AREA_STYLE_COLOUR ( '', #73 ) ;
#63 = ORIENTED_EDGE ( 'NONE', *, *, #146, .T. ) ;
#64 = DIRECTION ( 'NONE',  ( -1.213802797673107944E-16, 1.000000000000000000, -0.000000000000000000 ) ) ;
#65 = STYLED_ITEM ( 'NONE', ( #250 ), #314 ) ;
#66 = VERTEX_POINT ( 'NONE', #214 ) ;
#67 = ORIENTED_EDGE ( 'NONE', *, *, #100, .F. ) ;
#68 = PRODUCT_DEFINITION_CONTEXT ( 'detailed design', #292, 'design' ) ;
#69 = ORIENTED_EDGE ( 'NONE', *, *, #285, .F. ) ;
#70 = STYLED_ITEM ( 'NONE', ( #228 ), #187 ) ;
#71 = PRODUCT_RELATED_PRODUCT_CATEGORY ( 'part', '', ( #15 ) ) ;
#72 = AXIS2_PLACEMENT_3D ( 'NONE', #199, #191, #357 ) ;
#73 = COLOUR_RGB ( '',0.7921568627450980005, 0.8196078431372548767, 0.9333333333333333481 ) ;
#74 =( LENGTH_UNIT ( ) NAMED_UNIT ( * ) SI_UNIT ( .MILLI., .METRE. ) );
#75 = ORIENTED_EDGE ( 'NONE', *, *, #31, .T. ) ;
#76 = DIRECTION ( 'NONE',  ( 0.000000000000000000, -0.000000000000000000, 1.000000000000000000 ) ) ;
#77 = FILL_AREA_STYLE ('',( #105 ) ) ;
#78 = CARTESIAN_POINT ( 'NONE',  ( 8.000000000000000000, 89.00000000000000000, 9.797174393178825657E-16 ) ) ;
#79 = SURFACE_STYLE_FILL_AREA ( #11 ) ;
#80 = CARTESIAN_POINT ( 'NONE',  ( 0.000000000000000000, 0.000000000000000000, -7.500000000000000000 ) ) ;
#81 = EDGE_CURVE ( 'NONE', #155, #66, #327, .T. ) ;
#82 =( NAMED_UNIT ( * ) SI_UNIT ( $, .STERADIAN. ) SOLID_ANGLE_UNIT ( ) );
#83 =( GEOMETRIC_REPRESENTATION_CONTEXT ( 3 ) GLOBAL_UNCERTAINTY_ASSIGNED_CONTEXT ( ( #119 ) ) GLOBAL_UNIT_ASSIGNED_CONTEXT ( ( #321, #10, #183 ) ) REPRESENTATION_CONTEXT ( 'NONE', 'WORKASPACE' ) );
#84 = CIRCLE ( 'NONE', #72, 0.5000000000000004441 ) ;
#85 = FACE_OUTER_BOUND ( 'NONE', #130, .T. ) ;
#86 = LINE ( 'NONE', #308, #229 ) ;
#87 = PRODUCT_CONTEXT ( 'NONE', #121, 'mechanical' ) ;
#88 = SURFACE_STYLE_USAGE ( .BOTH. , #256 ) ;
#89 = AXIS2_PLACEMENT_3D ( 'NONE', #208, #204, #98 ) ;
#90 = FILL_AREA_STYLE ('',( #145 ) ) ;
#91 = EDGE_LOOP ( 'NONE', ( #284, #282, #131, #350 ) ) ;
#92 =( LENGTH_UNIT ( ) NAMED_UNIT ( * ) SI_UNIT ( .MILLI., .METRE. ) );
#93 = APPLICATION_PROTOCOL_DEFINITION ( 'draft international standard', 'automotive_design', 1998, #292 ) ;
#94 = EDGE_CURVE ( 'NONE', #355, #156, #159, .T. ) ;
#95 = DIRECTION ( 'NONE',  ( 0.000000000000000000, 0.000000000000000000, -1.000000000000000000 ) ) ;
#96 = AXIS2_PLACEMENT_3D ( 'NONE', #221, #245, #273 ) ;
#97 = ORIENTED_EDGE ( 'NONE', *, *, #254, .T. ) ;
#98 = DIRECTION ( 'NONE',  ( 0.000000000000000000, 0.000000000000000000, -1.000000000000000000 ) ) ;
#99 = CARTESIAN_POINT ( 'NONE',  ( 5.204170427930421283E-15, 32.00000000000000000, 0.000000000000000000 ) ) ;
#100 = EDGE_CURVE ( 'NONE', #203, #127, #102, .T. ) ;
#101 = CARTESIAN_POINT ( 'NONE',  ( 5.204170427930421283E-15, 32.00000000000000000, 0.000000000000000000 ) ) ;
#102 = CIRCLE ( 'NONE', #323, 8.000000000000000000 ) ;
#103 = ORIENTED_EDGE ( 'NONE', *, *, #254, .F. ) ;
#104 = PLANE ( 'NONE',  #337 ) ;
#105 = FILL_AREA_STYLE_COLOUR ( '', #296 ) ;
#106 = ORIENTED_EDGE ( 'NONE', *, *, #193, .F. ) ;
#107 = COLOUR_RGB ( '',1.000000000000000000, 0.000000000000000000, 0.000000000000000000 ) ;
#108 = DIRECTION ( 'NONE',  ( 0.000000000000000000, 0.000000000000000000, -1.000000000000000000 ) ) ;
#109 = DIRECTION ( 'NONE',  ( -0.000000000000000000, -1.000000000000000000, -0.000000000000000000 ) ) ;
#110 = PRESENTATION_STYLE_ASSIGNMENT (( #194 ) ) ;
#111 = MECHANICAL_DESIGN_GEOMETRIC_PRESENTATION_REPRESENTATION (  '', ( #276 ), #83 ) ;
#112 = STYLED_ITEM ( 'NONE', ( #110 ), #280 ) ;
#113 = DIRECTION ( 'NONE',  ( 1.000000000000000000, 1.213802797673107944E-16, 0.000000000000000000 ) ) ;
#114 = PRODUCT_DEFINITION_FORMATION_WITH_SPECIFIED_SOURCE ( 'ANY', '', #15, .NOT_KNOWN. ) ;
#115 =( NAMED_UNIT ( * ) PLANE_ANGLE_UNIT ( ) SI_UNIT ( $, .RADIAN. ) );
#116 = SURFACE_STYLE_USAGE ( .BOTH. , #154 ) ;
#117 = CIRCLE ( 'NONE', #201, 7.500000000000000000 ) ;
#118 = CARTESIAN_POINT ( 'NONE',  ( -1.714505518806293652E-15, 89.00000000000000000, 0.000000000000000000 ) ) ;
#119 = UNCERTAINTY_MEASURE_WITH_UNIT (LENGTH_MEASURE( 1.000000000000000082E-05 ), #321, 'distance_accuracy_value', 'NONE');
#120 = FILL_AREA_STYLE_COLOUR ( '', #304 ) ;
#121 = APPLICATION_CONTEXT ( 'automotive_design' ) ;
#122 = CARTESIAN_POINT ( 'NONE',  ( 0.000000000000000000, 32.00000000000000000, -8.000000000000000000 ) ) ;
#123 = PLANE ( 'NONE',  #351 ) ;
#124 = DIRECTION ( 'NONE',  ( -0.000000000000000000, -1.000000000000000000, -0.000000000000000000 ) ) ;
#125 = ADVANCED_FACE ( 'NONE', ( #219 ), #246, .T. ) ;
#126 = VERTEX_POINT ( 'NONE', #78 ) ;
#127 = VERTEX_POINT ( 'NONE', #122 ) ;
#128 = CLOSED_SHELL ( 'NONE', ( #280, #125, #342, #363, #314, #187 ) ) ;
#129 = CIRCLE ( 'NONE', #96, 8.000000000000000000 ) ;
#130 = EDGE_LOOP ( 'NONE', ( #63, #188 ) ) ;
#131 = ORIENTED_EDGE ( 'NONE', *, *, #146, .F. ) ;
#132 = CARTESIAN_POINT ( 'NONE',  ( 8.000000000000000000, 89.00000000000000000, 0.000000000000000000 ) ) ;
#133 = CARTESIAN_POINT ( 'NONE',  ( 0.000000000000000000, 32.00000000000000000, 0.000000000000000000 ) ) ;
#134 = MECHANICAL_DESIGN_GEOMETRIC_PRESENTATION_REPRESENTATION (  '', ( #248 ), #149 ) ;
#135 =( NAMED_UNIT ( * ) SI_UNIT ( $, .STERADIAN. ) SOLID_ANGLE_UNIT ( ) );
#136 = SHAPE_DEFINITION_REPRESENTATION ( #243, #301 ) ;
#137 = DIRECTION ( 'NONE',  ( -1.000000000000000000, 0.000000000000000000, 0.000000000000000000 ) ) ;
#138 = DIRECTION ( 'NONE',  ( 1.213802797673107944E-16, -1.000000000000000000, 0.000000000000000000 ) ) ;
#139 = MECHANICAL_DESIGN_GEOMETRIC_PRESENTATION_REPRESENTATION (  '', ( #65 ), #310 ) ;
#140 =( GEOMETRIC_REPRESENTATION_CONTEXT ( 3 ) GLOBAL_UNCERTAINTY_ASSIGNED_CONTEXT ( ( #150 ) ) GLOBAL_UNIT_ASSIGNED_CONTEXT ( ( #22, #172, #255 ) ) REPRESENTATION_CONTEXT ( 'NONE', 'WORKASPACE' ) );
#141 = PRODUCT_DEFINITION ( 'UNKNOWN', '', #114, #68 ) ;
#142 = DIRECTION ( 'NONE',  ( -0.000000000000000000, -1.000000000000000000, -0.000000000000000000 ) ) ;
#143 =( LENGTH_UNIT ( ) NAMED_UNIT ( * ) SI_UNIT ( .MILLI., .METRE. ) );
#144 = PRESENTATION_STYLE_ASSIGNMENT (( #30 ) ) ;
#145 = FILL_AREA_STYLE_COLOUR ( '', #107 ) ;
#146 = EDGE_CURVE ( 'NONE', #66, #126, #211, .T. ) ;
#147 = PRESENTATION_LAYER_ASSIGNMENT (  '', '', ( #70 ) ) ;
#148 = CARTESIAN_POINT ( 'NONE',  ( 9.491012693391985815E-16, 0.000000000000000000, 7.500000000000000000 ) ) ;
#149 =( GEOMETRIC_REPRESENTATION_CONTEXT ( 3 ) GLOBAL_UNCERTAINTY_ASSIGNED_CONTEXT ( ( #178 ) ) GLOBAL_UNIT_ASSIGNED_CONTEXT ( ( #225, #1, #226 ) ) REPRESENTATION_CONTEXT ( 'NONE', 'WORKASPACE' ) );
#150 = UNCERTAINTY_MEASURE_WITH_UNIT (LENGTH_MEASURE( 1.000000000000000082E-05 ), #22, 'distance_accuracy_value', 'NONE');
#151 = EDGE_LOOP ( 'NONE', ( #164, #67 ) ) ;
#152 = SURFACE_STYLE_USAGE ( .BOTH. , #8 ) ;
#153 = VECTOR ( 'NONE', #167, 1000.000000000000000 ) ;
#154 = SURFACE_SIDE_STYLE ('',( #315 ) ) ;
#155 = VERTEX_POINT ( 'NONE', #230 ) ;
#156 = VERTEX_POINT ( 'NONE', #182 ) ;
#157 = EDGE_CURVE ( 'NONE', #238, #322, #47, .T. ) ;
#158 = CARTESIAN_POINT ( 'NONE',  ( 9.797174393178825657E-16, 0.000000000000000000, 8.000000000000000000 ) ) ;
#159 = CIRCLE ( 'NONE', #295, 8.000000000000000000 ) ;
#160 = AXIS2_PLACEMENT_3D ( 'NONE', #132, #138, #113 ) ;
#161 = CARTESIAN_POINT ( 'NONE',  ( 9.184850993605147944E-16, 0.5000000000000000000, 7.500000000000000000 ) ) ;
#162 = MECHANICAL_DESIGN_GEOMETRIC_PRESENTATION_REPRESENTATION (  '', ( #249 ), #140 ) ;
#163 = FACE_OUTER_BOUND ( 'NONE', #91, .T. ) ;
#164 = ORIENTED_EDGE ( 'NONE', *, *, #31, .F. ) ;
#165 = FACE_OUTER_BOUND ( 'NONE', #218, .T. ) ;
#166 = ORIENTED_EDGE ( 'NONE', *, *, #193, .T. ) ;
#167 = DIRECTION ( 'NONE',  ( -1.213802797673107944E-16, 1.000000000000000000, -0.000000000000000000 ) ) ;
#168 = COLOUR_RGB ( '',0.7921568627450980005, 0.8196078431372548767, 0.9333333333333333481 ) ;
#169 =( GEOMETRIC_REPRESENTATION_CONTEXT ( 3 ) GLOBAL_UNCERTAINTY_ASSIGNED_CONTEXT ( ( #258 ) ) GLOBAL_UNIT_ASSIGNED_CONTEXT ( ( #143, #173, #370 ) ) REPRESENTATION_CONTEXT ( 'NONE', 'WORKASPACE' ) );
#170 = APPLICATION_PROTOCOL_DEFINITION ( 'draft international standard', 'automotive_design', 1998, #121 ) ;
#171 = SURFACE_STYLE_FILL_AREA ( #224 ) ;
#172 =( NAMED_UNIT ( * ) PLANE_ANGLE_UNIT ( ) SI_UNIT ( $, .RADIAN. ) );
#173 =( NAMED_UNIT ( * ) PLANE_ANGLE_UNIT ( ) SI_UNIT ( $, .RADIAN. ) );
#174 = DIRECTION ( 'NONE',  ( 0.000000000000000000, 0.000000000000000000, 1.000000000000000000 ) ) ;
#175 = MECHANICAL_DESIGN_GEOMETRIC_PRESENTATION_REPRESENTATION (  '', ( #234 ), #48 ) ;
#176 = CARTESIAN_POINT ( 'NONE',  ( 0.000000000000000000, 0.5000000000000000000, 0.000000000000000000 ) ) ;
#177 = CARTESIAN_POINT ( 'NONE',  ( 9.797174393178825657E-16, 0.5000000000000000000, 8.000000000000000000 ) ) ;
#178 = UNCERTAINTY_MEASURE_WITH_UNIT (LENGTH_MEASURE( 1.000000000000000082E-05 ), #225, 'distance_accuracy_value', 'NONE');
#179 = FILL_AREA_STYLE ('',( #57 ) ) ;
#180 = PRESENTATION_LAYER_ASSIGNMENT (  '', '', ( #249 ) ) ;
#181 = ORIENTED_EDGE ( 'NONE', *, *, #13, .T. ) ;
#182 = CARTESIAN_POINT ( 'NONE',  ( 0.000000000000000000, 0.5000000000000000000, -8.000000000000000000 ) ) ;
#183 =( NAMED_UNIT ( * ) SI_UNIT ( $, .STERADIAN. ) SOLID_ANGLE_UNIT ( ) );
#184 = AXIS2_PLACEMENT_3D ( 'NONE', #352, #198, #137 ) ;
#185 = DIRECTION ( 'NONE',  ( -1.213802797673107944E-16, 1.000000000000000000, 0.000000000000000000 ) ) ;
#186 = EDGE_LOOP ( 'NONE', ( #215, #166, #39, #270 ) ) ;
#187 = ADVANCED_FACE ( 'NONE', ( #6 ), #123, .T. ) ;
#188 = ORIENTED_EDGE ( 'NONE', *, *, #222, .T. ) ;
#189 = CARTESIAN_POINT ( 'NONE',  ( 5.204170427930421283E-15, 32.00000000000000000, 0.000000000000000000 ) ) ;
#190 =( GEOMETRIC_REPRESENTATION_CONTEXT ( 3 ) GLOBAL_UNCERTAINTY_ASSIGNED_CONTEXT ( ( #346 ) ) GLOBAL_UNIT_ASSIGNED_CONTEXT ( ( #92, #283, #317 ) ) REPRESENTATION_CONTEXT ( 'NONE', 'WORKASPACE' ) );
#191 = DIRECTION ( 'NONE',  ( -1.000000000000000000, 0.000000000000000000, 0.000000000000000000 ) ) ;
#192 = CARTESIAN_POINT ( 'NONE',  ( 0.000000000000000000, 32.00000000000000000, 0.000000000000000000 ) ) ;
#193 = EDGE_CURVE ( 'NONE', #355, #322, #278, .T. ) ;
#194 = SURFACE_STYLE_USAGE ( .BOTH. , #52 ) ;
#195 = DIRECTION ( 'NONE',  ( 0.000000000000000000, 0.000000000000000000, -1.000000000000000000 ) ) ;
#196 = CYLINDRICAL_SURFACE ( 'NONE', #28, 8.000000000000000000 ) ;
#197 = MECHANICAL_DESIGN_GEOMETRIC_PRESENTATION_REPRESENTATION (  '', ( #70 ), #190 ) ;
#198 = DIRECTION ( 'NONE',  ( -1.213802797673107944E-16, 1.000000000000000000, -0.000000000000000000 ) ) ;
#199 = CARTESIAN_POINT ( 'NONE',  ( 0.000000000000000000, 0.5000000000000000000, -7.500000000000000000 ) ) ;
#200 = PRESENTATION_STYLE_ASSIGNMENT (( #88 ) ) ;
#201 = AXIS2_PLACEMENT_3D ( 'NONE', #336, #364, #50 ) ;
#202 = SURFACE_SIDE_STYLE ('',( #347 ) ) ;
#203 = VERTEX_POINT ( 'NONE', #339 ) ;
#204 = DIRECTION ( 'NONE',  ( -0.000000000000000000, -1.000000000000000000, -0.000000000000000000 ) ) ;
#205 = SURFACE_STYLE_FILL_AREA ( #300 ) ;
#206 =( LENGTH_UNIT ( ) NAMED_UNIT ( * ) SI_UNIT ( .MILLI., .METRE. ) );
#207 = ADVANCED_FACE ( 'NONE', ( #306 ), #51, .T. ) ;
#208 = CARTESIAN_POINT ( 'NONE',  ( 0.000000000000000000, 0.5000000000000000000, 0.000000000000000000 ) ) ;
#209 = PRESENTATION_STYLE_ASSIGNMENT (( #152 ) ) ;
#210 = ORIENTED_EDGE ( 'NONE', *, *, #56, .F. ) ;
#211 = CIRCLE ( 'NONE', #288, 8.000000000000001776 ) ;
#212 = EDGE_CURVE ( 'NONE', #127, #156, #86, .T. ) ;
#213 = AXIS2_PLACEMENT_3D ( 'NONE', #274, #25, #341 ) ;
#214 = CARTESIAN_POINT ( 'NONE',  ( -8.000000000000003553, 89.00000000000000000, 0.000000000000000000 ) ) ;
#215 = ORIENTED_EDGE ( 'NONE', *, *, #285, .T. ) ;
#216 = ORIENTED_EDGE ( 'NONE', *, *, #81, .T. ) ;
#217 = DIRECTION ( 'NONE',  ( 0.000000000000000000, 1.000000000000000000, 0.000000000000000000 ) ) ;
#218 = EDGE_LOOP ( 'NONE', ( #75, #181, #69, #265 ) ) ;
#219 = FACE_OUTER_BOUND ( 'NONE', #186, .T. ) ;
#220 = SURFACE_SIDE_STYLE ('',( #79 ) ) ;
#221 = CARTESIAN_POINT ( 'NONE',  ( 0.000000000000000000, 0.5000000000000000000, 0.000000000000000000 ) ) ;
#222 = EDGE_CURVE ( 'NONE', #126, #66, #5, .T. ) ;
#223 = DIRECTION ( 'NONE',  ( -1.224646799147353454E-16, 0.000000000000000000, -1.000000000000000000 ) ) ;
#224 = FILL_AREA_STYLE ('',( #305 ) ) ;
#225 =( LENGTH_UNIT ( ) NAMED_UNIT ( * ) SI_UNIT ( .MILLI., .METRE. ) );
#226 =( NAMED_UNIT ( * ) SI_UNIT ( $, .STERADIAN. ) SOLID_ANGLE_UNIT ( ) );
#227 = UNCERTAINTY_MEASURE_WITH_UNIT (LENGTH_MEASURE( 1.000000000000000082E-05 ), #206, 'distance_accuracy_value', 'NONE');
#228 = PRESENTATION_STYLE_ASSIGNMENT (( #116 ) ) ;
#229 = VECTOR ( 'NONE', #142, 1000.000000000000000 ) ;
#230 = CARTESIAN_POINT ( 'NONE',  ( -7.999999999999989342, 32.00000000000000000, 0.000000000000000000 ) ) ;
#231 = DIRECTION ( 'NONE',  ( -0.000000000000000000, -1.000000000000000000, -0.000000000000000000 ) ) ;
#232 = ADVANCED_FACE ( 'NONE', ( #163 ), #235, .T. ) ;
#233 = CLOSED_SHELL ( 'NONE', ( #232, #33, #207, #294 ) ) ;
#234 = STYLED_ITEM ( 'NONE', ( #26 ), #342 ) ;
#235 = CYLINDRICAL_SURFACE ( 'NONE', #184, 7.999999999999998224 ) ;
#236 = FILL_AREA_STYLE_COLOUR ( '', #303 ) ;
#237 = DIRECTION ( 'NONE',  ( -1.000000000000000000, -1.213802797673107944E-16, 0.000000000000000000 ) ) ;
#238 = VERTEX_POINT ( 'NONE', #80 ) ;
#239 = TOROIDAL_SURFACE ( 'NONE', #345, 7.500000000000000000, 0.5000000000000002220 ) ;
#240 = ORIENTED_EDGE ( 'NONE', *, *, #13, .F. ) ;
#241 = DIRECTION ( 'NONE',  ( -1.000000000000000000, 0.000000000000000000, 0.000000000000000000 ) ) ;
#242 = SURFACE_STYLE_FILL_AREA ( #77 ) ;
#243 = PRODUCT_DEFINITION_SHAPE ( 'NONE', 'NONE',  #141 ) ;
#244 = ORIENTED_EDGE ( 'NONE', *, *, #157, .T. ) ;
#245 = DIRECTION ( 'NONE',  ( -0.000000000000000000, -1.000000000000000000, -0.000000000000000000 ) ) ;
#246 = TOROIDAL_SURFACE ( 'NONE', #89, 7.500000000000000000, 0.5000000000000002220 ) ;
#247 = CARTESIAN_POINT ( 'NONE',  ( 0.000000000000000000, 0.5000000000000000000, 0.000000000000000000 ) ) ;
#248 = STYLED_ITEM ( 'NONE', ( #200 ), #363 ) ;
#249 = STYLED_ITEM ( 'NONE', ( #144 ), #369 ) ;
#250 = PRESENTATION_STYLE_ASSIGNMENT (( #307 ) ) ;
#251 =( LENGTH_UNIT ( ) NAMED_UNIT ( * ) SI_UNIT ( .MILLI., .METRE. ) );
#252 = SURFACE_SIDE_STYLE ('',( #242 ) ) ;
#253 =( LENGTH_UNIT ( ) NAMED_UNIT ( * ) SI_UNIT ( .MILLI., .METRE. ) );
#254 = EDGE_CURVE ( 'NONE', #322, #238, #117, .T. ) ;
#255 =( NAMED_UNIT ( * ) SI_UNIT ( $, .STERADIAN. ) SOLID_ANGLE_UNIT ( ) );
#256 = SURFACE_SIDE_STYLE ('',( #343 ) ) ;
#257 = CIRCLE ( 'NONE', #275, 7.999999999999994671 ) ;
#258 = UNCERTAINTY_MEASURE_WITH_UNIT (LENGTH_MEASURE( 1.000000000000000082E-05 ), #143, 'distance_accuracy_value', 'NONE');
#259 =( NAMED_UNIT ( * ) SI_UNIT ( $, .STERADIAN. ) SOLID_ANGLE_UNIT ( ) );
#260 = DIRECTION ( 'NONE',  ( -1.213802797673107944E-16, 1.000000000000000000, -0.000000000000000000 ) ) ;
#261 = DIRECTION ( 'NONE',  ( -1.000000000000000000, 0.000000000000000000, 0.000000000000000000 ) ) ;
#262 = AXIS2_PLACEMENT_3D ( 'NONE', #118, #260, #326 ) ;
#263 = DIRECTION ( 'NONE',  ( 1.000000000000000000, 0.000000000000000000, -1.224646799147353207E-16 ) ) ;
#264 = VERTEX_POINT ( 'NONE', #43 ) ;
#265 = ORIENTED_EDGE ( 'NONE', *, *, #212, .F. ) ;
#266 = CIRCLE ( 'NONE', #272, 7.999999999999994671 ) ;
#267 = EDGE_LOOP ( 'NONE', ( #210, #40, #216, #328 ) ) ;
#268 = EDGE_CURVE ( 'NONE', #156, #238, #84, .T. ) ;
#269 =( NAMED_UNIT ( * ) SI_UNIT ( $, .STERADIAN. ) SOLID_ANGLE_UNIT ( ) );
#270 = ORIENTED_EDGE ( 'NONE', *, *, #268, .F. ) ;
#271 = EDGE_LOOP ( 'NONE', ( #240, #358, #34, #14 ) ) ;
#272 = AXIS2_PLACEMENT_3D ( 'NONE', #99, #16, #241 ) ;
#273 = DIRECTION ( 'NONE',  ( 0.000000000000000000, 0.000000000000000000, -1.000000000000000000 ) ) ;
#274 = CARTESIAN_POINT ( 'NONE',  ( -1.714505518806293849E-15, 89.00000000000000000, 0.000000000000000000 ) ) ;
#275 = AXIS2_PLACEMENT_3D ( 'NONE', #101, #64, #297 ) ;
#276 = STYLED_ITEM ( 'NONE', ( #209 ), #125 ) ;
#277 = DIRECTION ( 'NONE',  ( 1.000000000000000000, 0.000000000000000000, 0.000000000000000000 ) ) ;
#278 = CIRCLE ( 'NONE', #331, 0.5000000000000004441 ) ;
#279 = SURFACE_STYLE_FILL_AREA ( #179 ) ;
#280 = ADVANCED_FACE ( 'NONE', ( #165 ), #333, .T. ) ;
#281 = FILL_AREA_STYLE ('',( #120 ) ) ;
#282 = ORIENTED_EDGE ( 'NONE', *, *, #56, .T. ) ;
#283 =( NAMED_UNIT ( * ) PLANE_ANGLE_UNIT ( ) SI_UNIT ( $, .RADIAN. ) );
#284 = ORIENTED_EDGE ( 'NONE', *, *, #23, .T. ) ;
#285 = EDGE_CURVE ( 'NONE', #156, #355, #129, .T. ) ;
#286 = SURFACE_SIDE_STYLE ('',( #279 ) ) ;
#287 = DIRECTION ( 'NONE',  ( -0.000000000000000000, -1.000000000000000000, -0.000000000000000000 ) ) ;
#288 = AXIS2_PLACEMENT_3D ( 'NONE', #61, #320, #261 ) ;
#289 = COLOUR_RGB ( '',1.000000000000000000, 0.000000000000000000, 0.000000000000000000 ) ;
#290 = LINE ( 'NONE', #42, #59 ) ;
#291 = ORIENTED_EDGE ( 'NONE', *, *, #268, .T. ) ;
#292 = APPLICATION_CONTEXT ( 'automotive_design' ) ;
#293 = LINE ( 'NONE', #158, #4 ) ;
#294 = ADVANCED_FACE ( 'NONE', ( #85 ), #24, .F. ) ;
#295 = AXIS2_PLACEMENT_3D ( 'NONE', #247, #19, #195 ) ;
#296 = COLOUR_RGB ( '',1.000000000000000000, 0.000000000000000000, 0.000000000000000000 ) ;
#297 = DIRECTION ( 'NONE',  ( -1.000000000000000000, 0.000000000000000000, 0.000000000000000000 ) ) ;
#298 = ORIENTED_EDGE ( 'NONE', *, *, #23, .F. ) ;
#299 = CARTESIAN_POINT ( 'NONE',  ( 0.000000000000000000, 0.000000000000000000, 0.000000000000000000 ) ) ;
#300 = FILL_AREA_STYLE ('',( #334 ) ) ;
#301 = ADVANCED_BREP_SHAPE_REPRESENTATION ( '59547', ( #369, #365, #325 ), #49 ) ;
#302 = DIRECTION ( 'NONE',  ( -0.000000000000000000, -1.000000000000000000, -0.000000000000000000 ) ) ;
#303 = COLOUR_RGB ( '',1.000000000000000000, 0.000000000000000000, 0.000000000000000000 ) ;
#304 = COLOUR_RGB ( '',1.000000000000000000, 0.000000000000000000, 0.000000000000000000 ) ;
#305 = FILL_AREA_STYLE_COLOUR ( '', #289 ) ;
#306 = FACE_OUTER_BOUND ( 'NONE', #267, .T. ) ;
#307 = SURFACE_STYLE_USAGE ( .BOTH. , #252 ) ;
#308 = CARTESIAN_POINT ( 'NONE',  ( 0.000000000000000000, 0.000000000000000000, -8.000000000000000000 ) ) ;
#309 = AXIS2_PLACEMENT_3D ( 'NONE', #192, #356, #329 ) ;
#310 =( GEOMETRIC_REPRESENTATION_CONTEXT ( 3 ) GLOBAL_UNCERTAINTY_ASSIGNED_CONTEXT ( ( #312 ) ) GLOBAL_UNIT_ASSIGNED_CONTEXT ( ( #74, #45, #135 ) ) REPRESENTATION_CONTEXT ( 'NONE', 'WORKASPACE' ) );
#311 = SURFACE_STYLE_USAGE ( .BOTH. , #202 ) ;
#312 = UNCERTAINTY_MEASURE_WITH_UNIT (LENGTH_MEASURE( 1.000000000000000082E-05 ), #74, 'distance_accuracy_value', 'NONE');
#313 = DIRECTION ( 'NONE',  ( 0.000000000000000000, 0.000000000000000000, -1.000000000000000000 ) ) ;
#314 = ADVANCED_FACE ( 'NONE', ( #361 ), #196, .T. ) ;
#315 = SURFACE_STYLE_FILL_AREA ( #36 ) ;
#316 = DIRECTION ( 'NONE',  ( 0.000000000000000000, 0.000000000000000000, -1.000000000000000000 ) ) ;
#317 =( NAMED_UNIT ( * ) SI_UNIT ( $, .STERADIAN. ) SOLID_ANGLE_UNIT ( ) );
#318 =( GEOMETRIC_REPRESENTATION_CONTEXT ( 3 ) GLOBAL_UNCERTAINTY_ASSIGNED_CONTEXT ( ( #2 ) ) GLOBAL_UNIT_ASSIGNED_CONTEXT ( ( #251, #366, #269 ) ) REPRESENTATION_CONTEXT ( 'NONE', 'WORKASPACE' ) );
#319 = PLANE ( 'NONE',  #360 ) ;
#320 = DIRECTION ( 'NONE',  ( -1.213802797673107944E-16, 1.000000000000000000, -0.000000000000000000 ) ) ;
#321 =( LENGTH_UNIT ( ) NAMED_UNIT ( * ) SI_UNIT ( .MILLI., .METRE. ) );
#322 = VERTEX_POINT ( 'NONE', #148 ) ;
#323 = AXIS2_PLACEMENT_3D ( 'NONE', #133, #362, #108 ) ;
#324 = PRESENTATION_LAYER_ASSIGNMENT (  '', '', ( #20 ) ) ;
#325 = AXIS2_PLACEMENT_3D ( 'NONE', #53, #174, #277 ) ;
#326 = DIRECTION ( 'NONE',  ( -1.000000000000000000, 0.000000000000000000, 0.000000000000000000 ) ) ;
#327 = LINE ( 'NONE', #46, #153 ) ;
#328 = ORIENTED_EDGE ( 'NONE', *, *, #222, .F. ) ;
#329 = DIRECTION ( 'NONE',  ( 0.000000000000000000, 0.000000000000000000, -1.000000000000000000 ) ) ;
#330 = PRESENTATION_LAYER_ASSIGNMENT (  '', '', ( #234 ) ) ;
#331 = AXIS2_PLACEMENT_3D ( 'NONE', #161, #263, #223 ) ;
#332 = CARTESIAN_POINT ( 'NONE',  ( 0.000000000000000000, 32.00000000000000000, 0.000000000000000000 ) ) ;
#333 = CYLINDRICAL_SURFACE ( 'NONE', #60, 8.000000000000000000 ) ;
#334 = FILL_AREA_STYLE_COLOUR ( '', #359 ) ;
#335 =( NAMED_UNIT ( * ) PLANE_ANGLE_UNIT ( ) SI_UNIT ( $, .RADIAN. ) );
#336 = CARTESIAN_POINT ( 'NONE',  ( 0.000000000000000000, 0.000000000000000000, 0.000000000000000000 ) ) ;
#337 = AXIS2_PLACEMENT_3D ( 'NONE', #189, #185, #237 ) ;
#338 = MECHANICAL_DESIGN_GEOMETRIC_PRESENTATION_REPRESENTATION (  '', ( #20 ), #169 ) ;
#339 = CARTESIAN_POINT ( 'NONE',  ( 9.797174393178825657E-16, 32.00000000000000000, 8.000000000000000000 ) ) ;
#340 = CARTESIAN_POINT ( 'NONE',  ( 0.000000000000000000, 0.000000000000000000, 0.000000000000000000 ) ) ;
#341 = DIRECTION ( 'NONE',  ( -1.000000000000000000, 0.000000000000000000, 0.000000000000000000 ) ) ;
#342 = ADVANCED_FACE ( 'NONE', ( #344 ), #319, .T. ) ;
#343 = SURFACE_STYLE_FILL_AREA ( #281 ) ;
#344 = FACE_OUTER_BOUND ( 'NONE', #353, .T. ) ;
#345 = AXIS2_PLACEMENT_3D ( 'NONE', #176, #231, #313 ) ;
#346 = UNCERTAINTY_MEASURE_WITH_UNIT (LENGTH_MEASURE( 1.000000000000000082E-05 ), #92, 'distance_accuracy_value', 'NONE');
#347 = SURFACE_STYLE_FILL_AREA ( #90 ) ;
#348 = CARTESIAN_POINT ( 'NONE',  ( 0.000000000000000000, 0.000000000000000000, 0.000000000000000000 ) ) ;
#349 = CARTESIAN_POINT ( 'NONE',  ( 0.000000000000000000, 0.000000000000000000, 0.000000000000000000 ) ) ;
#350 = ORIENTED_EDGE ( 'NONE', *, *, #81, .F. ) ;
#351 = AXIS2_PLACEMENT_3D ( 'NONE', #332, #217, #76 ) ;
#352 = CARTESIAN_POINT ( 'NONE',  ( -1.714505518806293849E-15, 89.00000000000000000, 0.000000000000000000 ) ) ;
#353 = EDGE_LOOP ( 'NONE', ( #244, #97 ) ) ;
#354 = FACE_OUTER_BOUND ( 'NONE', #44, .T. ) ;
#355 = VERTEX_POINT ( 'NONE', #177 ) ;
#356 = DIRECTION ( 'NONE',  ( -0.000000000000000000, -1.000000000000000000, -0.000000000000000000 ) ) ;
#357 = DIRECTION ( 'NONE',  ( 0.000000000000000000, 0.000000000000000000, 1.000000000000000000 ) ) ;
#358 = ORIENTED_EDGE ( 'NONE', *, *, #100, .T. ) ;
#359 = COLOUR_RGB ( '',1.000000000000000000, 0.000000000000000000, 0.000000000000000000 ) ;
#360 = AXIS2_PLACEMENT_3D ( 'NONE', #349, #3, #316 ) ;
#361 = FACE_OUTER_BOUND ( 'NONE', #271, .T. ) ;
#362 = DIRECTION ( 'NONE',  ( -0.000000000000000000, -1.000000000000000000, -0.000000000000000000 ) ) ;
#363 = ADVANCED_FACE ( 'NONE', ( #7 ), #239, .T. ) ;
#364 = DIRECTION ( 'NONE',  ( -0.000000000000000000, -1.000000000000000000, -0.000000000000000000 ) ) ;
#365 = MANIFOLD_SOLID_BREP ( 'Revolve - Tool Body (Straight Shanked)', #233 ) ;
#366 =( NAMED_UNIT ( * ) PLANE_ANGLE_UNIT ( ) SI_UNIT ( $, .RADIAN. ) );
#367 = PRESENTATION_LAYER_ASSIGNMENT (  '', '', ( #276 ) ) ;
#368 = PRESENTATION_LAYER_ASSIGNMENT (  '', '', ( #65 ) ) ;
#369 = MANIFOLD_SOLID_BREP ( 'Revolve - Cutting Edge', #128 ) ;
#370 =( NAMED_UNIT ( * ) SI_UNIT ( $, .STERADIAN. ) SOLID_ANGLE_UNIT ( ) );
ENDSEC;
END-ISO-10303-21;
