ISO-10303-21;
HEADER;
FILE_DESCRIPTION (( 'STEP AP214' ),
    '1' );
FILE_NAME ('03452.STEP',
    '2023-06-22T15:19:39',
    ( '' ),
    ( '' ),
    'SwSTEP 2.0',
    'SolidWorks 2023',
    '' );
FILE_SCHEMA (( 'AUTOMOTIVE_DESIGN' ));
ENDSEC;

DATA;
#1 = ORIENTED_EDGE ( 'NONE', *, *, #104, .F. ) ;
#2 = CYLINDRICAL_SURFACE ( 'NONE', #47, 0.2500000000000000555 ) ;
#3 = ORIENTED_EDGE ( 'NONE', *, *, #194, .F. ) ;
#4 = ORIENTED_EDGE ( 'NONE', *, *, #31, .F. ) ;
#5 = MECHANICAL_DESIGN_GEOMETRIC_PRESENTATION_REPRESENTATION (  '', ( #240 ), #124 ) ;
#6 = APPLICATION_PROTOCOL_DEFINITION ( 'draft international standard', 'automotive_design', 1998, #153 ) ;
#7 = CARTESIAN_POINT ( 'NONE',  ( 3.061616997868383018E-17, 0.000000000000000000, 0.2500000000000000000 ) ) ;
#8 = EDGE_CURVE ( 'NONE', #125, #286, #210, .T. ) ;
#9 = FACE_OUTER_BOUND ( 'NONE', #137, .T. ) ;
#10 = DIRECTION ( 'NONE',  ( -3.061616997868386099E-17, 1.000000000000000000, -0.000000000000000000 ) ) ;
#11 = ADVANCED_FACE ( 'NONE', ( #65 ), #167, .T. ) ;
#12 = UNCERTAINTY_MEASURE_WITH_UNIT (LENGTH_MEASURE( 1.000000000000000082E-05 ), #242, 'distance_accuracy_value', 'NONE');
#13 = SURFACE_SIDE_STYLE ('',( #35 ) ) ;
#14 = FILL_AREA_STYLE ('',( #89 ) ) ;
#15 = COLOUR_RGB ( '',0.7921568627450980005, 0.8196078431372548767, 0.9333333333333333481 ) ;
#16 = ORIENTED_EDGE ( 'NONE', *, *, #82, .T. ) ;
#17 = DIMENSIONAL_EXPONENTS ( 1.000000000000000000, 0.000000000000000000, 0.000000000000000000, 0.000000000000000000, 0.000000000000000000, 0.000000000000000000, 0.000000000000000000 ) ;
#18 = STYLED_ITEM ( 'NONE', ( #98 ), #11 ) ;
#19 =( GEOMETRIC_REPRESENTATION_CONTEXT ( 3 ) GLOBAL_UNCERTAINTY_ASSIGNED_CONTEXT ( ( #221 ) ) GLOBAL_UNIT_ASSIGNED_CONTEXT ( ( #117, #288, #99 ) ) REPRESENTATION_CONTEXT ( 'NONE', 'WORKASPACE' ) );
#20 = DIRECTION ( 'NONE',  ( -1.000000000000000000, 0.000000000000000000, 0.000000000000000000 ) ) ;
#21 = UNCERTAINTY_MEASURE_WITH_UNIT (LENGTH_MEASURE( 1.000000000000000082E-05 ), #295, 'distance_accuracy_value', 'NONE');
#22 = CARTESIAN_POINT ( 'NONE',  ( 7.582401355855259480E-33, 1.000000000000000000, 0.000000000000000000 ) ) ;
#23 = ADVANCED_FACE ( 'NONE', ( #231 ), #227, .F. ) ;
#24 = VERTEX_POINT ( 'NONE', #49 ) ;
#25 = COLOUR_RGB ( '',1.000000000000000000, 0.000000000000000000, 0.000000000000000000 ) ;
#26 = FILL_AREA_STYLE ('',( #166 ) ) ;
#27 = CLOSED_SHELL ( 'NONE', ( #132, #287, #309, #23 ) ) ;
#28 = PRESENTATION_LAYER_ASSIGNMENT (  '', '', ( #152 ) ) ;
#29 = DIRECTION ( 'NONE',  ( 0.000000000000000000, 0.000000000000000000, 1.000000000000000000 ) ) ;
#30 = DIRECTION ( 'NONE',  ( 0.000000000000000000, 0.000000000000000000, -1.000000000000000000 ) ) ;
#31 = EDGE_CURVE ( 'NONE', #140, #217, #307, .T. ) ;
#32 = DIRECTION ( 'NONE',  ( 0.000000000000000000, 0.000000000000000000, -1.000000000000000000 ) ) ;
#33 = LINE ( 'NONE', #294, #296 ) ;
#34 = DIRECTION ( 'NONE',  ( 0.000000000000000000, 0.000000000000000000, -1.000000000000000000 ) ) ;
#35 = SURFACE_STYLE_FILL_AREA ( #251 ) ;
#36 = CIRCLE ( 'NONE', #245, 0.2500000000000000555 ) ;
#37 = PRODUCT_DEFINITION_FORMATION_WITH_SPECIFIED_SOURCE ( 'ANY', '', #100, .NOT_KNOWN. ) ;
#38 = DIRECTION ( 'NONE',  ( -3.061616997868386099E-17, 1.000000000000000000, 0.000000000000000000 ) ) ;
#39 = CARTESIAN_POINT ( 'NONE',  ( -0.2500000000000000000, 1.000000000000000000, 0.000000000000000000 ) ) ;
#40 = FILL_AREA_STYLE ('',( #252 ) ) ;
#41 = AXIS2_PLACEMENT_3D ( 'NONE', #299, #38, #230 ) ;
#42 = EDGE_LOOP ( 'NONE', ( #188, #93, #1, #3 ) ) ;
#43 = DIRECTION ( 'NONE',  ( -3.061616997868386099E-17, 1.000000000000000000, -0.000000000000000000 ) ) ;
#44 = SURFACE_STYLE_USAGE ( .BOTH. , #191 ) ;
#45 =( LENGTH_UNIT ( ) NAMED_UNIT ( * ) SI_UNIT ( $, .METRE. ) );
#46 = VERTEX_POINT ( 'NONE', #199 ) ;
#47 = AXIS2_PLACEMENT_3D ( 'NONE', #219, #173, #269 ) ;
#48 = ORIENTED_EDGE ( 'NONE', *, *, #178, .F. ) ;
#49 = CARTESIAN_POINT ( 'NONE',  ( -0.2500000000000001110, 3.000000000000000444, 0.000000000000000000 ) ) ;
#50 = MECHANICAL_DESIGN_GEOMETRIC_PRESENTATION_REPRESENTATION (  '', ( #277 ), #281 ) ;
#51 = LENGTH_MEASURE_WITH_UNIT ( LENGTH_MEASURE( 0.02539999999999999897 ), #123 );
#52 = PLANE ( 'NONE',  #192 ) ;
#53 = CARTESIAN_POINT ( 'NONE',  ( -6.123233995736772199E-17, 3.000000000000000444, 0.000000000000000000 ) ) ;
#54 = STYLED_ITEM ( 'NONE', ( #209 ), #298 ) ;
#55 =( LENGTH_UNIT ( ) NAMED_UNIT ( * ) SI_UNIT ( $, .METRE. ) );
#56 = UNCERTAINTY_MEASURE_WITH_UNIT (LENGTH_MEASURE( 1.000000000000000082E-05 ), #161, 'distance_accuracy_value', 'NONE');
#57 = PRESENTATION_STYLE_ASSIGNMENT (( #187 ) ) ;
#58 = CARTESIAN_POINT ( 'NONE',  ( 3.061616997868383018E-17, 1.000000000000000000, 0.2500000000000000000 ) ) ;
#59 = VECTOR ( 'NONE', #214, 39.37007874015748143 ) ;
#60 = SURFACE_STYLE_USAGE ( .BOTH. , #115 ) ;
#61 = CARTESIAN_POINT ( 'NONE',  ( -6.123233995736772199E-17, 3.000000000000000444, 0.000000000000000000 ) ) ;
#62 = SURFACE_STYLE_FILL_AREA ( #40 ) ;
#63 =( GEOMETRIC_REPRESENTATION_CONTEXT ( 3 ) GLOBAL_UNCERTAINTY_ASSIGNED_CONTEXT ( ( #76 ) ) GLOBAL_UNIT_ASSIGNED_CONTEXT ( ( #308, #265, #91 ) ) REPRESENTATION_CONTEXT ( 'NONE', 'WORKASPACE' ) );
#64 = PRESENTATION_LAYER_ASSIGNMENT (  '', '', ( #277 ) ) ;
#65 = FACE_OUTER_BOUND ( 'NONE', #222, .T. ) ;
#66 = ORIENTED_EDGE ( 'NONE', *, *, #178, .T. ) ;
#67 = CARTESIAN_POINT ( 'NONE',  ( 3.061616997868383018E-17, 0.000000000000000000, 0.2500000000000000000 ) ) ;
#68 = PRODUCT_DEFINITION_CONTEXT ( 'detailed design', #158, 'design' ) ;
#69 = CARTESIAN_POINT ( 'NONE',  ( 0.000000000000000000, 0.000000000000000000, 0.000000000000000000 ) ) ;
#70 = AXIS2_PLACEMENT_3D ( 'NONE', #85, #297, #206 ) ;
#71 = ORIENTED_EDGE ( 'NONE', *, *, #104, .T. ) ;
#72 = ORIENTED_EDGE ( 'NONE', *, *, #285, .T. ) ;
#73 = SURFACE_STYLE_FILL_AREA ( #148 ) ;
#74 = ADVANCED_BREP_SHAPE_REPRESENTATION ( '03452', ( #298, #190, #110 ), #254 ) ;
#75 = FILL_AREA_STYLE_COLOUR ( '', #197 ) ;
#76 = UNCERTAINTY_MEASURE_WITH_UNIT (LENGTH_MEASURE( 1.000000000000000082E-05 ), #308, 'distance_accuracy_value', 'NONE');
#77 = PRODUCT_CONTEXT ( 'NONE', #153, 'mechanical' ) ;
#78 = CARTESIAN_POINT ( 'NONE',  ( 0.000000000000000000, 1.000000000000000000, 0.000000000000000000 ) ) ;
#79 = MECHANICAL_DESIGN_GEOMETRIC_PRESENTATION_REPRESENTATION (  '', ( #54 ), #261 ) ;
#80 = CARTESIAN_POINT ( 'NONE',  ( 0.000000000000000000, 0.000000000000000000, -0.2500000000000000000 ) ) ;
#81 = SURFACE_STYLE_USAGE ( .BOTH. , #84 ) ;
#82 = EDGE_CURVE ( 'NONE', #24, #171, #36, .T. ) ;
#83 = AXIS2_PLACEMENT_3D ( 'NONE', #203, #127, #34 ) ;
#84 = SURFACE_SIDE_STYLE ('',( #62 ) ) ;
#85 = CARTESIAN_POINT ( 'NONE',  ( 0.000000000000000000, 1.000000000000000000, 0.000000000000000000 ) ) ;
#86 = DIMENSIONAL_EXPONENTS ( 1.000000000000000000, 0.000000000000000000, 0.000000000000000000, 0.000000000000000000, 0.000000000000000000, 0.000000000000000000, 0.000000000000000000 ) ;
#87 =( LENGTH_UNIT ( ) NAMED_UNIT ( * ) SI_UNIT ( $, .METRE. ) );
#88 = AXIS2_PLACEMENT_3D ( 'NONE', #22, #122, #20 ) ;
#89 = FILL_AREA_STYLE_COLOUR ( '', #15 ) ;
#90 =( NAMED_UNIT ( * ) SI_UNIT ( $, .STERADIAN. ) SOLID_ANGLE_UNIT ( ) );
#91 =( NAMED_UNIT ( * ) SI_UNIT ( $, .STERADIAN. ) SOLID_ANGLE_UNIT ( ) );
#92 = DIMENSIONAL_EXPONENTS ( 1.000000000000000000, 0.000000000000000000, 0.000000000000000000, 0.000000000000000000, 0.000000000000000000, 0.000000000000000000, 0.000000000000000000 ) ;
#93 = ORIENTED_EDGE ( 'NONE', *, *, #304, .T. ) ;
#94 = DIMENSIONAL_EXPONENTS ( 1.000000000000000000, 0.000000000000000000, 0.000000000000000000, 0.000000000000000000, 0.000000000000000000, 0.000000000000000000, 0.000000000000000000 ) ;
#95 = PRODUCT_DEFINITION_SHAPE ( 'NONE', 'NONE',  #120 ) ;
#96 = ORIENTED_EDGE ( 'NONE', *, *, #116, .F. ) ;
#97 = CIRCLE ( 'NONE', #293, 0.2500000000000000000 ) ;
#98 = PRESENTATION_STYLE_ASSIGNMENT (( #44 ) ) ;
#99 =( NAMED_UNIT ( * ) SI_UNIT ( $, .STERADIAN. ) SOLID_ANGLE_UNIT ( ) );
#100 = PRODUCT ( '03452', '03452', '', ( #77 ) ) ;
#101 = CYLINDRICAL_SURFACE ( 'NONE', #253, 0.2500000000000000555 ) ;
#102 =( NAMED_UNIT ( * ) PLANE_ANGLE_UNIT ( ) SI_UNIT ( $, .RADIAN. ) );
#103 = DIRECTION ( 'NONE',  ( -3.061616997868386099E-17, 1.000000000000000000, -0.000000000000000000 ) ) ;
#104 = EDGE_CURVE ( 'NONE', #217, #140, #141, .T. ) ;
#105 = CARTESIAN_POINT ( 'NONE',  ( 0.000000000000000000, 0.000000000000000000, 0.000000000000000000 ) ) ;
#106 = DIRECTION ( 'NONE',  ( 1.000000000000000000, 0.000000000000000000, 0.000000000000000000 ) ) ;
#107 = CARTESIAN_POINT ( 'NONE',  ( -6.123233995736772199E-17, 3.000000000000000444, 0.000000000000000000 ) ) ;
#108 = CARTESIAN_POINT ( 'NONE',  ( 0.000000000000000000, 0.000000000000000000, 0.000000000000000000 ) ) ;
#109 = AXIS2_PLACEMENT_3D ( 'NONE', #78, #179, #30 ) ;
#110 = AXIS2_PLACEMENT_3D ( 'NONE', #176, #29, #106 ) ;
#111 =( LENGTH_UNIT ( ) NAMED_UNIT ( * ) SI_UNIT ( $, .METRE. ) );
#112 = DIRECTION ( 'NONE',  ( -0.000000000000000000, -1.000000000000000000, -0.000000000000000000 ) ) ;
#113 = CIRCLE ( 'NONE', #290, 0.2500000000000000555 ) ;
#114 = CARTESIAN_POINT ( 'NONE',  ( 0.000000000000000000, 1.000000000000000000, 0.000000000000000000 ) ) ;
#115 = SURFACE_SIDE_STYLE ('',( #181 ) ) ;
#116 = EDGE_CURVE ( 'NONE', #125, #171, #271, .T. ) ;
#117 =( CONVERSION_BASED_UNIT ( 'INCH', #135 ) LENGTH_UNIT ( ) NAMED_UNIT ( #94 ) );
#118 = FACE_OUTER_BOUND ( 'NONE', #163, .T. ) ;
#119 =( NAMED_UNIT ( * ) SI_UNIT ( $, .STERADIAN. ) SOLID_ANGLE_UNIT ( ) );
#120 = PRODUCT_DEFINITION ( 'UNKNOWN', '', #37, #68 ) ;
#121 = ORIENTED_EDGE ( 'NONE', *, *, #215, .F. ) ;
#122 = DIRECTION ( 'NONE',  ( -3.061616997868386099E-17, 1.000000000000000000, -0.000000000000000000 ) ) ;
#123 =( LENGTH_UNIT ( ) NAMED_UNIT ( * ) SI_UNIT ( $, .METRE. ) );
#124 =( GEOMETRIC_REPRESENTATION_CONTEXT ( 3 ) GLOBAL_UNCERTAINTY_ASSIGNED_CONTEXT ( ( #56 ) ) GLOBAL_UNIT_ASSIGNED_CONTEXT ( ( #161, #274, #138 ) ) REPRESENTATION_CONTEXT ( 'NONE', 'WORKASPACE' ) );
#125 = VERTEX_POINT ( 'NONE', #250 ) ;
#126 = DIRECTION ( 'NONE',  ( -1.000000000000000000, 0.000000000000000000, 0.000000000000000000 ) ) ;
#127 = DIRECTION ( 'NONE',  ( -0.000000000000000000, -1.000000000000000000, -0.000000000000000000 ) ) ;
#128 = COLOUR_RGB ( '',1.000000000000000000, 0.000000000000000000, 0.000000000000000000 ) ;
#129 = DIRECTION ( 'NONE',  ( -0.000000000000000000, -1.000000000000000000, -0.000000000000000000 ) ) ;
#130 = PLANE ( 'NONE',  #70 ) ;
#131 = UNCERTAINTY_MEASURE_WITH_UNIT (LENGTH_MEASURE( 1.000000000000000082E-05 ), #225, 'distance_accuracy_value', 'NONE');
#132 = ADVANCED_FACE ( 'NONE', ( #9 ), #101, .T. ) ;
#133 = FACE_OUTER_BOUND ( 'NONE', #143, .T. ) ;
#134 = SURFACE_STYLE_USAGE ( .BOTH. , #212 ) ;
#135 = LENGTH_MEASURE_WITH_UNIT ( LENGTH_MEASURE( 0.02539999999999999897 ), #111 );
#136 = STYLED_ITEM ( 'NONE', ( #207 ), #268 ) ;
#137 = EDGE_LOOP ( 'NONE', ( #241, #224, #302, #284 ) ) ;
#138 =( NAMED_UNIT ( * ) SI_UNIT ( $, .STERADIAN. ) SOLID_ANGLE_UNIT ( ) );
#139 = ORIENTED_EDGE ( 'NONE', *, *, #8, .T. ) ;
#140 = VERTEX_POINT ( 'NONE', #7 ) ;
#141 = CIRCLE ( 'NONE', #83, 0.2500000000000000000 ) ;
#142 = LENGTH_MEASURE_WITH_UNIT ( LENGTH_MEASURE( 0.02539999999999999897 ), #232 );
#143 = EDGE_LOOP ( 'NONE', ( #121, #239 ) ) ;
#144 = ORIENTED_EDGE ( 'NONE', *, *, #31, .T. ) ;
#145 = EDGE_LOOP ( 'NONE', ( #71, #144 ) ) ;
#146 = PRESENTATION_LAYER_ASSIGNMENT (  '', '', ( #18 ) ) ;
#147 = PRESENTATION_LAYER_ASSIGNMENT (  '', '', ( #136 ) ) ;
#148 = FILL_AREA_STYLE ('',( #202 ) ) ;
#149 = LENGTH_MEASURE_WITH_UNIT ( LENGTH_MEASURE( 0.02539999999999999897 ), #45 );
#150 = DIRECTION ( 'NONE',  ( 0.000000000000000000, -1.000000000000000000, -0.000000000000000000 ) ) ;
#151 = DIRECTION ( 'NONE',  ( 3.061616997868386099E-17, -1.000000000000000000, 0.000000000000000000 ) ) ;
#152 = STYLED_ITEM ( 'NONE', ( #172 ), #160 ) ;
#153 = APPLICATION_CONTEXT ( 'automotive_design' ) ;
#154 = CARTESIAN_POINT ( 'NONE',  ( 0.2500000000000000000, 3.000000000000000444, 3.061616997868383634E-17 ) ) ;
#155 = EDGE_CURVE ( 'NONE', #286, #24, #33, .T. ) ;
#156 = CLOSED_SHELL ( 'NONE', ( #266, #268, #11, #160 ) ) ;
#157 = COLOUR_RGB ( '',1.000000000000000000, 0.000000000000000000, 0.000000000000000000 ) ;
#158 = APPLICATION_CONTEXT ( 'automotive_design' ) ;
#159 = DIRECTION ( 'NONE',  ( -3.061616997868386099E-17, 1.000000000000000000, -0.000000000000000000 ) ) ;
#160 = ADVANCED_FACE ( 'NONE', ( #291 ), #52, .T. ) ;
#161 =( CONVERSION_BASED_UNIT ( 'INCH', #256 ) LENGTH_UNIT ( ) NAMED_UNIT ( #92 ) );
#162 =( LENGTH_UNIT ( ) NAMED_UNIT ( * ) SI_UNIT ( $, .METRE. ) );
#163 = EDGE_LOOP ( 'NONE', ( #96, #139, #289, #193 ) ) ;
#164 = DIRECTION ( 'NONE',  ( -0.000000000000000000, -1.000000000000000000, -0.000000000000000000 ) ) ;
#165 = AXIS2_PLACEMENT_3D ( 'NONE', #69, #169, #32 ) ;
#166 = FILL_AREA_STYLE_COLOUR ( '', #25 ) ;
#167 = CYLINDRICAL_SURFACE ( 'NONE', #165, 0.2500000000000000000 ) ;
#168 =( NAMED_UNIT ( * ) PLANE_ANGLE_UNIT ( ) SI_UNIT ( $, .RADIAN. ) );
#169 = DIRECTION ( 'NONE',  ( -0.000000000000000000, -1.000000000000000000, -0.000000000000000000 ) ) ;
#170 = AXIS2_PLACEMENT_3D ( 'NONE', #213, #112, #278 ) ;
#171 = VERTEX_POINT ( 'NONE', #154 ) ;
#172 = PRESENTATION_STYLE_ASSIGNMENT (( #177 ) ) ;
#173 = DIRECTION ( 'NONE',  ( -3.061616997868386099E-17, 1.000000000000000000, -0.000000000000000000 ) ) ;
#174 = MECHANICAL_DESIGN_GEOMETRIC_PRESENTATION_REPRESENTATION (  '', ( #152 ), #200 ) ;
#175 = DIRECTION ( 'NONE',  ( 1.000000000000000000, 3.061616997868386099E-17, 0.000000000000000000 ) ) ;
#176 = CARTESIAN_POINT ( 'NONE',  ( 0.000000000000000000, 0.000000000000000000, 0.000000000000000000 ) ) ;
#177 = SURFACE_STYLE_USAGE ( .BOTH. , #292 ) ;
#178 = EDGE_CURVE ( 'NONE', #279, #46, #204, .T. ) ;
#179 = DIRECTION ( 'NONE',  ( -0.000000000000000000, -1.000000000000000000, -0.000000000000000000 ) ) ;
#180 = MECHANICAL_DESIGN_GEOMETRIC_PRESENTATION_REPRESENTATION (  '', ( #136 ), #19 ) ;
#181 = SURFACE_STYLE_FILL_AREA ( #205 ) ;
#182 = UNCERTAINTY_MEASURE_WITH_UNIT (LENGTH_MEASURE( 1.000000000000000082E-05 ), #238, 'distance_accuracy_value', 'NONE');
#183 = LINE ( 'NONE', #67, #233 ) ;
#184 = AXIS2_PLACEMENT_3D ( 'NONE', #201, #151, #175 ) ;
#185 = AXIS2_PLACEMENT_3D ( 'NONE', #105, #129, #246 ) ;
#186 = DIRECTION ( 'NONE',  ( 0.000000000000000000, 0.000000000000000000, -1.000000000000000000 ) ) ;
#187 = SURFACE_STYLE_USAGE ( .BOTH. , #13 ) ;
#188 = ORIENTED_EDGE ( 'NONE', *, *, #258, .T. ) ;
#189 = FACE_OUTER_BOUND ( 'NONE', #42, .T. ) ;
#190 = MANIFOLD_SOLID_BREP ( 'Revolve - Tool Body (Straight Shanked)', #27 ) ;
#191 = SURFACE_SIDE_STYLE ('',( #223 ) ) ;
#192 = AXIS2_PLACEMENT_3D ( 'NONE', #108, #150, #247 ) ;
#193 = ORIENTED_EDGE ( 'NONE', *, *, #285, .F. ) ;
#194 = EDGE_CURVE ( 'NONE', #46, #217, #273, .T. ) ;
#195 = DIMENSIONAL_EXPONENTS ( 1.000000000000000000, 0.000000000000000000, 0.000000000000000000, 0.000000000000000000, 0.000000000000000000, 0.000000000000000000, 0.000000000000000000 ) ;
#196 = ORIENTED_EDGE ( 'NONE', *, *, #194, .T. ) ;
#197 = COLOUR_RGB ( '',0.7921568627450980005, 0.8196078431372548767, 0.9333333333333333481 ) ;
#198 = DIRECTION ( 'NONE',  ( -3.061616997868386099E-17, 1.000000000000000000, -0.000000000000000000 ) ) ;
#199 = CARTESIAN_POINT ( 'NONE',  ( 0.000000000000000000, 1.000000000000000000, -0.2500000000000000000 ) ) ;
#200 =( GEOMETRIC_REPRESENTATION_CONTEXT ( 3 ) GLOBAL_UNCERTAINTY_ASSIGNED_CONTEXT ( ( #21 ) ) GLOBAL_UNIT_ASSIGNED_CONTEXT ( ( #295, #226, #270 ) ) REPRESENTATION_CONTEXT ( 'NONE', 'WORKASPACE' ) );
#201 = CARTESIAN_POINT ( 'NONE',  ( 0.2500000000000000000, 3.000000000000000444, 0.000000000000000000 ) ) ;
#202 = FILL_AREA_STYLE_COLOUR ( '', #211 ) ;
#203 = CARTESIAN_POINT ( 'NONE',  ( 0.000000000000000000, 0.000000000000000000, 0.000000000000000000 ) ) ;
#204 = CIRCLE ( 'NONE', #109, 0.2500000000000000000 ) ;
#205 = FILL_AREA_STYLE ('',( #280 ) ) ;
#206 = DIRECTION ( 'NONE',  ( 0.000000000000000000, -0.000000000000000000, 1.000000000000000000 ) ) ;
#207 = PRESENTATION_STYLE_ASSIGNMENT (( #81 ) ) ;
#208 = PRESENTATION_STYLE_ASSIGNMENT (( #60 ) ) ;
#209 = PRESENTATION_STYLE_ASSIGNMENT (( #134 ) ) ;
#210 = CIRCLE ( 'NONE', #88, 0.2500000000000000000 ) ;
#211 = COLOUR_RGB ( '',1.000000000000000000, 0.000000000000000000, 0.000000000000000000 ) ;
#212 = SURFACE_SIDE_STYLE ('',( #276 ) ) ;
#213 = CARTESIAN_POINT ( 'NONE',  ( 0.000000000000000000, 0.000000000000000000, 0.000000000000000000 ) ) ;
#214 = DIRECTION ( 'NONE',  ( -0.000000000000000000, -1.000000000000000000, -0.000000000000000000 ) ) ;
#215 = EDGE_CURVE ( 'NONE', #286, #125, #228, .T. ) ;
#216 = DIMENSIONAL_EXPONENTS ( 1.000000000000000000, 0.000000000000000000, 0.000000000000000000, 0.000000000000000000, 0.000000000000000000, 0.000000000000000000, 0.000000000000000000 ) ;
#217 = VERTEX_POINT ( 'NONE', #80 ) ;
#218 = AXIS2_PLACEMENT_3D ( 'NONE', #306, #43, #275 ) ;
#219 = CARTESIAN_POINT ( 'NONE',  ( -6.123233995736772199E-17, 3.000000000000000444, 0.000000000000000000 ) ) ;
#220 = DIRECTION ( 'NONE',  ( -0.000000000000000000, -1.000000000000000000, -0.000000000000000000 ) ) ;
#221 = UNCERTAINTY_MEASURE_WITH_UNIT (LENGTH_MEASURE( 1.000000000000000082E-05 ), #117, 'distance_accuracy_value', 'NONE');
#222 = EDGE_LOOP ( 'NONE', ( #263, #66, #196, #4 ) ) ;
#223 = SURFACE_STYLE_FILL_AREA ( #26 ) ;
#224 = ORIENTED_EDGE ( 'NONE', *, *, #116, .T. ) ;
#225 =( CONVERSION_BASED_UNIT ( 'INCH', #51 ) LENGTH_UNIT ( ) NAMED_UNIT ( #17 ) );
#226 =( NAMED_UNIT ( * ) PLANE_ANGLE_UNIT ( ) SI_UNIT ( $, .RADIAN. ) );
#227 = PLANE ( 'NONE',  #184 ) ;
#228 = CIRCLE ( 'NONE', #218, 0.2500000000000000000 ) ;
#229 = CARTESIAN_POINT ( 'NONE',  ( 0.2499999999999999722, 3.000000000000000444, 3.061616997868383634E-17 ) ) ;
#230 = DIRECTION ( 'NONE',  ( -1.000000000000000000, -3.061616997868386099E-17, 0.000000000000000000 ) ) ;
#231 = FACE_OUTER_BOUND ( 'NONE', #259, .T. ) ;
#232 =( LENGTH_UNIT ( ) NAMED_UNIT ( * ) SI_UNIT ( $, .METRE. ) );
#233 = VECTOR ( 'NONE', #220, 39.37007874015748143 ) ;
#234 = PLANE ( 'NONE',  #41 ) ;
#235 = APPLICATION_PROTOCOL_DEFINITION ( 'draft international standard', 'automotive_design', 1998, #158 ) ;
#236 = PRESENTATION_LAYER_ASSIGNMENT (  '', '', ( #54 ) ) ;
#237 =( NAMED_UNIT ( * ) PLANE_ANGLE_UNIT ( ) SI_UNIT ( $, .RADIAN. ) );
#238 =( CONVERSION_BASED_UNIT ( 'INCH', #142 ) LENGTH_UNIT ( ) NAMED_UNIT ( #303 ) );
#239 = ORIENTED_EDGE ( 'NONE', *, *, #8, .F. ) ;
#240 = STYLED_ITEM ( 'NONE', ( #208 ), #266 ) ;
#241 = ORIENTED_EDGE ( 'NONE', *, *, #215, .T. ) ;
#242 =( CONVERSION_BASED_UNIT ( 'INCH', #149 ) LENGTH_UNIT ( ) NAMED_UNIT ( #86 ) );
#243 = ORIENTED_EDGE ( 'NONE', *, *, #258, .F. ) ;
#244 = EDGE_LOOP ( 'NONE', ( #243, #48 ) ) ;
#245 = AXIS2_PLACEMENT_3D ( 'NONE', #107, #198, #126 ) ;
#246 = DIRECTION ( 'NONE',  ( 0.000000000000000000, 0.000000000000000000, -1.000000000000000000 ) ) ;
#247 = DIRECTION ( 'NONE',  ( 0.000000000000000000, 0.000000000000000000, -1.000000000000000000 ) ) ;
#248 = LENGTH_MEASURE_WITH_UNIT ( LENGTH_MEASURE( 0.02539999999999999897 ), #55 );
#249 = MECHANICAL_DESIGN_GEOMETRIC_PRESENTATION_REPRESENTATION (  '', ( #18 ), #63 ) ;
#250 = CARTESIAN_POINT ( 'NONE',  ( 0.2500000000000000000, 1.000000000000000000, 3.061616997868383634E-17 ) ) ;
#251 = FILL_AREA_STYLE ('',( #75 ) ) ;
#252 = FILL_AREA_STYLE_COLOUR ( '', #157 ) ;
#253 = AXIS2_PLACEMENT_3D ( 'NONE', #53, #267, #272 ) ;
#254 =( GEOMETRIC_REPRESENTATION_CONTEXT ( 3 ) GLOBAL_UNCERTAINTY_ASSIGNED_CONTEXT ( ( #12 ) ) GLOBAL_UNIT_ASSIGNED_CONTEXT ( ( #242, #168, #119 ) ) REPRESENTATION_CONTEXT ( 'NONE', 'WORKASPACE' ) );
#255 = DIRECTION ( 'NONE',  ( -1.000000000000000000, 0.000000000000000000, 0.000000000000000000 ) ) ;
#256 = LENGTH_MEASURE_WITH_UNIT ( LENGTH_MEASURE( 0.02539999999999999897 ), #162 );
#257 = SHAPE_DEFINITION_REPRESENTATION ( #95, #74 ) ;
#258 = EDGE_CURVE ( 'NONE', #46, #279, #97, .T. ) ;
#259 = EDGE_LOOP ( 'NONE', ( #16, #72 ) ) ;
#260 = VECTOR ( 'NONE', #10, 39.37007874015748143 ) ;
#261 =( GEOMETRIC_REPRESENTATION_CONTEXT ( 3 ) GLOBAL_UNCERTAINTY_ASSIGNED_CONTEXT ( ( #131 ) ) GLOBAL_UNIT_ASSIGNED_CONTEXT ( ( #225, #102, #264 ) ) REPRESENTATION_CONTEXT ( 'NONE', 'WORKASPACE' ) );
#262 = PRODUCT_RELATED_PRODUCT_CATEGORY ( 'part', '', ( #100 ) ) ;
#263 = ORIENTED_EDGE ( 'NONE', *, *, #304, .F. ) ;
#264 =( NAMED_UNIT ( * ) SI_UNIT ( $, .STERADIAN. ) SOLID_ANGLE_UNIT ( ) );
#265 =( NAMED_UNIT ( * ) PLANE_ANGLE_UNIT ( ) SI_UNIT ( $, .RADIAN. ) );
#266 = ADVANCED_FACE ( 'NONE', ( #189 ), #301, .T. ) ;
#267 = DIRECTION ( 'NONE',  ( -3.061616997868386099E-17, 1.000000000000000000, -0.000000000000000000 ) ) ;
#268 = ADVANCED_FACE ( 'NONE', ( #305 ), #130, .T. ) ;
#269 = DIRECTION ( 'NONE',  ( -1.000000000000000000, 0.000000000000000000, 0.000000000000000000 ) ) ;
#270 =( NAMED_UNIT ( * ) SI_UNIT ( $, .STERADIAN. ) SOLID_ANGLE_UNIT ( ) );
#271 = LINE ( 'NONE', #229, #260 ) ;
#272 = DIRECTION ( 'NONE',  ( -1.000000000000000000, 0.000000000000000000, 0.000000000000000000 ) ) ;
#273 = LINE ( 'NONE', #283, #59 ) ;
#274 =( NAMED_UNIT ( * ) PLANE_ANGLE_UNIT ( ) SI_UNIT ( $, .RADIAN. ) );
#275 = DIRECTION ( 'NONE',  ( -1.000000000000000000, 0.000000000000000000, 0.000000000000000000 ) ) ;
#276 = SURFACE_STYLE_FILL_AREA ( #14 ) ;
#277 = STYLED_ITEM ( 'NONE', ( #57 ), #190 ) ;
#278 = DIRECTION ( 'NONE',  ( 0.000000000000000000, 0.000000000000000000, -1.000000000000000000 ) ) ;
#279 = VERTEX_POINT ( 'NONE', #58 ) ;
#280 = FILL_AREA_STYLE_COLOUR ( '', #128 ) ;
#281 =( GEOMETRIC_REPRESENTATION_CONTEXT ( 3 ) GLOBAL_UNCERTAINTY_ASSIGNED_CONTEXT ( ( #182 ) ) GLOBAL_UNIT_ASSIGNED_CONTEXT ( ( #238, #237, #90 ) ) REPRESENTATION_CONTEXT ( 'NONE', 'WORKASPACE' ) );
#282 = LENGTH_MEASURE_WITH_UNIT ( LENGTH_MEASURE( 0.02539999999999999897 ), #87 );
#283 = CARTESIAN_POINT ( 'NONE',  ( 0.000000000000000000, 0.000000000000000000, -0.2500000000000000000 ) ) ;
#284 = ORIENTED_EDGE ( 'NONE', *, *, #155, .F. ) ;
#285 = EDGE_CURVE ( 'NONE', #171, #24, #113, .T. ) ;
#286 = VERTEX_POINT ( 'NONE', #39 ) ;
#287 = ADVANCED_FACE ( 'NONE', ( #133 ), #234, .F. ) ;
#288 =( NAMED_UNIT ( * ) PLANE_ANGLE_UNIT ( ) SI_UNIT ( $, .RADIAN. ) );
#289 = ORIENTED_EDGE ( 'NONE', *, *, #155, .T. ) ;
#290 = AXIS2_PLACEMENT_3D ( 'NONE', #61, #159, #255 ) ;
#291 = FACE_OUTER_BOUND ( 'NONE', #145, .T. ) ;
#292 = SURFACE_SIDE_STYLE ('',( #73 ) ) ;
#293 = AXIS2_PLACEMENT_3D ( 'NONE', #114, #164, #186 ) ;
#294 = CARTESIAN_POINT ( 'NONE',  ( -0.2500000000000001110, 3.000000000000000444, 0.000000000000000000 ) ) ;
#295 =( CONVERSION_BASED_UNIT ( 'INCH', #248 ) LENGTH_UNIT ( ) NAMED_UNIT ( #216 ) );
#296 = VECTOR ( 'NONE', #103, 39.37007874015748143 ) ;
#297 = DIRECTION ( 'NONE',  ( 0.000000000000000000, 1.000000000000000000, 0.000000000000000000 ) ) ;
#298 = MANIFOLD_SOLID_BREP ( 'Revolve - Cutting Edge', #156 ) ;
#299 = CARTESIAN_POINT ( 'NONE',  ( 1.171687330204578608E-34, 1.000000000000000000, 0.000000000000000000 ) ) ;
#300 = PRESENTATION_LAYER_ASSIGNMENT (  '', '', ( #240 ) ) ;
#301 = CYLINDRICAL_SURFACE ( 'NONE', #170, 0.2500000000000000000 ) ;
#302 = ORIENTED_EDGE ( 'NONE', *, *, #82, .F. ) ;
#303 = DIMENSIONAL_EXPONENTS ( 1.000000000000000000, 0.000000000000000000, 0.000000000000000000, 0.000000000000000000, 0.000000000000000000, 0.000000000000000000, 0.000000000000000000 ) ;
#304 = EDGE_CURVE ( 'NONE', #279, #140, #183, .T. ) ;
#305 = FACE_OUTER_BOUND ( 'NONE', #244, .T. ) ;
#306 = CARTESIAN_POINT ( 'NONE',  ( 7.582401355855259480E-33, 1.000000000000000000, 0.000000000000000000 ) ) ;
#307 = CIRCLE ( 'NONE', #185, 0.2500000000000000000 ) ;
#308 =( CONVERSION_BASED_UNIT ( 'INCH', #282 ) LENGTH_UNIT ( ) NAMED_UNIT ( #195 ) );
#309 = ADVANCED_FACE ( 'NONE', ( #118 ), #2, .T. ) ;
ENDSEC;
END-ISO-10303-21;
