ISO-10303-21;
HEADER;
FILE_DESCRIPTION (( 'STEP AP214' ),
    '1' );
FILE_NAME ('Micro_SEM-046-02.STEP',
    '2021-09-02T00:36:26',
    ( '' ),
    ( '' ),
    'SwSTEP 2.0',
    'SolidWorks 2020',
    '' );
FILE_SCHEMA (( 'AUTOMOTIVE_DESIGN' ));
ENDSEC;

DATA;
#1 = DIRECTION ( 'NONE',  ( -0.1736481776669311916, 2.126576849575783316E-17, 0.9848077530122080203 ) ) ;
#2 = DIRECTION ( 'NONE',  ( -0.0000000000000000000, -0.0000000000000000000, -1.000000000000000000 ) ) ;
#3 = ADVANCED_FACE ( 'NONE', ( #11 ), #218, .T. ) ;
#4 = LINE ( 'NONE', #127, #19 ) ;
#5 = SURFACE_STYLE_FILL_AREA ( #214 ) ;
#6 = ORIENTED_EDGE ( 'NONE', *, *, #237, .T. ) ;
#7 = EDGE_CURVE ( 'NONE', #48, #261, #52, .T. ) ;
#8 = AXIS2_PLACEMENT_3D ( 'NONE', #267, #60, #130 ) ;
#9 = EDGE_LOOP ( 'NONE', ( #148, #120 ) ) ;
#10 =( GEOMETRIC_REPRESENTATION_CONTEXT ( 3 ) GLOBAL_UNCERTAINTY_ASSIGNED_CONTEXT ( ( #92 ) ) GLOBAL_UNIT_ASSIGNED_CONTEXT ( ( #75, #95, #258 ) ) REPRESENTATION_CONTEXT ( 'NONE', 'WORKASPACE' ) );
#11 = FACE_OUTER_BOUND ( 'NONE', #151, .T. ) ;
#12 = ORIENTED_EDGE ( 'NONE', *, *, #85, .T. ) ;
#13 = FACE_OUTER_BOUND ( 'NONE', #72, .T. ) ;
#14 = AXIS2_PLACEMENT_3D ( 'NONE', #268, #84, #288 ) ;
#15 = PRODUCT_DEFINITION_FORMATION_WITH_SPECIFIED_SOURCE ( 'ANY', '', #213, .NOT_KNOWN. ) ;
#16 = DIRECTION ( 'NONE',  ( -1.224646799147353454E-16, -0.0000000000000000000, -1.000000000000000000 ) ) ;
#17 = CARTESIAN_POINT ( 'NONE',  ( 0.0000000000000000000, 0.0000000000000000000, 1.500000000000000222 ) ) ;
#18 = CARTESIAN_POINT ( 'NONE',  ( -0.02342654999999999044, 0.0000000000000000000, 5.737849894513084357E-18 ) ) ;
#19 = VECTOR ( 'NONE', #36, 39.37007874015748143 ) ;
#20 = DIRECTION ( 'NONE',  ( 0.0000000000000000000, 0.0000000000000000000, -1.000000000000000000 ) ) ;
#21 = LENGTH_MEASURE_WITH_UNIT ( LENGTH_MEASURE( 0.02539999999999999897 ), #24 );
#22 = PRODUCT_DEFINITION_CONTEXT ( 'detailed design', #142, 'design' ) ;
#23 = EDGE_CURVE ( 'NONE', #48, #282, #4, .T. ) ;
#24 =( LENGTH_UNIT ( ) NAMED_UNIT ( * ) SI_UNIT ( $, .METRE. ) );
#25 = DIRECTION ( 'NONE',  ( 1.000000000000000000, 0.0000000000000000000, 0.0000000000000000000 ) ) ;
#26 = EDGE_CURVE ( 'NONE', #74, #101, #204, .T. ) ;
#27 = CARTESIAN_POINT ( 'NONE',  ( 0.0000000000000000000, 0.0000000000000000000, 0.0000000000000000000 ) ) ;
#28 = PRODUCT_CONTEXT ( 'NONE', #158, 'mechanical' ) ;
#29 = CARTESIAN_POINT ( 'NONE',  ( 0.0000000000000000000, 0.0000000000000000000, 1.500000000000000222 ) ) ;
#30 = ORIENTED_EDGE ( 'NONE', *, *, #7, .F. ) ;
#31 = EDGE_CURVE ( 'NONE', #116, #195, #289, .T. ) ;
#32 = ORIENTED_EDGE ( 'NONE', *, *, #251, .F. ) ;
#33 = DIRECTION ( 'NONE',  ( 1.000000000000000000, 0.0000000000000000000, 0.0000000000000000000 ) ) ;
#34 = ORIENTED_EDGE ( 'NONE', *, *, #85, .F. ) ;
#35 = ORIENTED_EDGE ( 'NONE', *, *, #7, .T. ) ;
#36 = DIRECTION ( 'NONE',  ( 0.7071067811865456854, 8.659560562354911904E-17, -0.7071067811865493491 ) ) ;
#37 = DIRECTION ( 'NONE',  ( -1.224646799147353454E-16, -0.0000000000000000000, -1.000000000000000000 ) ) ;
#38 = CONICAL_SURFACE ( 'NONE', #243, 0.02342654999999999391, 0.1745329251994338915 ) ;
#39 = DIRECTION ( 'NONE',  ( 1.000000000000000000, 0.0000000000000000000, 0.0000000000000000000 ) ) ;
#40 = DIRECTION ( 'NONE',  ( 1.000000000000000000, 0.0000000000000000000, 0.0000000000000000000 ) ) ;
#41 = CARTESIAN_POINT ( 'NONE',  ( -0.02342654999999998350, 5.261483720963751017E-18, 0.09400000000000001410 ) ) ;
#42 = SURFACE_STYLE_FILL_AREA ( #86 ) ;
#43 = LINE ( 'NONE', #166, #249 ) ;
#44 =( CONVERSION_BASED_UNIT ( 'INCH', #21 ) LENGTH_UNIT ( ) NAMED_UNIT ( #191 ) );
#45 = LENGTH_MEASURE_WITH_UNIT ( LENGTH_MEASURE( 0.02539999999999999897 ), #150 );
#46 = ORIENTED_EDGE ( 'NONE', *, *, #66, .F. ) ;
#47 = DIMENSIONAL_EXPONENTS ( 1.000000000000000000, 0.0000000000000000000, 0.0000000000000000000, 0.0000000000000000000, 0.0000000000000000000, 0.0000000000000000000, 0.0000000000000000000 ) ;
#48 = VERTEX_POINT ( 'NONE', #294 ) ;
#49 = UNCERTAINTY_MEASURE_WITH_UNIT (LENGTH_MEASURE( 1.000000000000000082E-05 ), #140, 'distance_accuracy_value', 'NONE');
#50 = ORIENTED_EDGE ( 'NONE', *, *, #251, .T. ) ;
#51 = ORIENTED_EDGE ( 'NONE', *, *, #277, .T. ) ;
#52 = CIRCLE ( 'NONE', #159, 0.04750000000000064587 ) ;
#53 = ORIENTED_EDGE ( 'NONE', *, *, #31, .F. ) ;
#54 =( GEOMETRIC_REPRESENTATION_CONTEXT ( 3 ) GLOBAL_UNCERTAINTY_ASSIGNED_CONTEXT ( ( #49 ) ) GLOBAL_UNIT_ASSIGNED_CONTEXT ( ( #140, #262, #71 ) ) REPRESENTATION_CONTEXT ( 'NONE', 'WORKASPACE' ) );
#55 = DIRECTION ( 'NONE',  ( 0.0000000000000000000, 0.0000000000000000000, -1.000000000000000000 ) ) ;
#56 = CARTESIAN_POINT ( 'NONE',  ( 0.0000000000000000000, 0.0000000000000000000, 0.0000000000000000000 ) ) ;
#57 = DIRECTION ( 'NONE',  ( 1.000000000000000000, 0.0000000000000000000, 0.0000000000000000000 ) ) ;
#58 = AXIS2_PLACEMENT_3D ( 'NONE', #246, #160, #128 ) ;
#59 = PRODUCT_DEFINITION ( 'UNKNOWN', '', #15, #22 ) ;
#60 = DIRECTION ( 'NONE',  ( -1.224646799147353454E-16, -0.0000000000000000000, -1.000000000000000000 ) ) ;
#61 = CARTESIAN_POINT ( 'NONE',  ( 0.02342654999999999044, 2.868924947256541793E-18, 0.0000000000000000000 ) ) ;
#62 = AXIS2_PLACEMENT_3D ( 'NONE', #17, #265, #227 ) ;
#63 = COLOUR_RGB ( '',0.7921568627450980005, 0.8196078431372548767, 0.9333333333333333481 ) ;
#64 = LINE ( 'NONE', #275, #257 ) ;
#65 = LINE ( 'NONE', #163, #136 ) ;
#66 = EDGE_CURVE ( 'NONE', #215, #146, #184, .T. ) ;
#67 = CARTESIAN_POINT ( 'NONE',  ( -0.06249999999999995837, 0.0000000000000000000, 0.3155965466147404586 ) ) ;
#68 = DIRECTION ( 'NONE',  ( -1.224646799147353454E-16, -0.0000000000000000000, -1.000000000000000000 ) ) ;
#69 = EDGE_LOOP ( 'NONE', ( #32, #34, #51, #97 ) ) ;
#70 = ORIENTED_EDGE ( 'NONE', *, *, #23, .F. ) ;
#71 =( NAMED_UNIT ( * ) SI_UNIT ( $, .STERADIAN. ) SOLID_ANGLE_UNIT ( ) );
#72 = EDGE_LOOP ( 'NONE', ( #235, #279, #238, #256 ) ) ;
#73 = ORIENTED_EDGE ( 'NONE', *, *, #273, .F. ) ;
#74 = VERTEX_POINT ( 'NONE', #61 ) ;
#75 =( CONVERSION_BASED_UNIT ( 'INCH', #45 ) LENGTH_UNIT ( ) NAMED_UNIT ( #152 ) );
#76 = CIRCLE ( 'NONE', #164, 0.06250000000000000000 ) ;
#77 = DIRECTION ( 'NONE',  ( 0.0000000000000000000, 0.0000000000000000000, -1.000000000000000000 ) ) ;
#78 = AXIS2_PLACEMENT_3D ( 'NONE', #208, #68, #231 ) ;
#79 = CARTESIAN_POINT ( 'NONE',  ( 1.151167991198512393E-17, 0.0000000000000000000, 0.09400000000000001410 ) ) ;
#80 = DIRECTION ( 'NONE',  ( 1.224646799147353454E-16, 0.0000000000000000000, 1.000000000000000000 ) ) ;
#81 = EDGE_CURVE ( 'NONE', #287, #282, #93, .T. ) ;
#82 = CARTESIAN_POINT ( 'NONE',  ( 0.02342655000000000778, 0.0000000000000000000, 0.09400000000000001410 ) ) ;
#83 = STYLED_ITEM ( 'NONE', ( #185 ), #283 ) ;
#84 = DIRECTION ( 'NONE',  ( -1.224646799147353454E-16, -0.0000000000000000000, -1.000000000000000000 ) ) ;
#85 = EDGE_CURVE ( 'NONE', #195, #116, #193, .T. ) ;
#86 = FILL_AREA_STYLE ('',( #89 ) ) ;
#87 = AXIS2_PLACEMENT_3D ( 'NONE', #162, #20, #242 ) ;
#88 = CARTESIAN_POINT ( 'NONE',  ( -0.06250000000000000000, 0.0000000000000000000, 1.500000000000000222 ) ) ;
#89 = FILL_AREA_STYLE_COLOUR ( '', #234 ) ;
#90 = EDGE_CURVE ( 'NONE', #282, #146, #248, .T. ) ;
#91 = DIRECTION ( 'NONE',  ( 0.1736481776669313859, 0.0000000000000000000, 0.9848077530122077983 ) ) ;
#92 = UNCERTAINTY_MEASURE_WITH_UNIT (LENGTH_MEASURE( 1.000000000000000082E-05 ), #75, 'distance_accuracy_value', 'NONE');
#93 = CIRCLE ( 'NONE', #87, 0.06250000000000000000 ) ;
#94 = AXIS2_PLACEMENT_3D ( 'NONE', #27, #139, #33 ) ;
#95 =( NAMED_UNIT ( * ) PLANE_ANGLE_UNIT ( ) SI_UNIT ( $, .RADIAN. ) );
#96 = ADVANCED_FACE ( 'NONE', ( #105 ), #221, .F. ) ;
#97 = ORIENTED_EDGE ( 'NONE', *, *, #206, .T. ) ;
#98 = ORIENTED_EDGE ( 'NONE', *, *, #197, .F. ) ;
#99 = ORIENTED_EDGE ( 'NONE', *, *, #81, .T. ) ;
#100 = ORIENTED_EDGE ( 'NONE', *, *, #23, .T. ) ;
#101 = VERTEX_POINT ( 'NONE', #18 ) ;
#102 = DIRECTION ( 'NONE',  ( -1.000000000000000000, 0.0000000000000000000, 0.0000000000000000000 ) ) ;
#103 = FACE_OUTER_BOUND ( 'NONE', #216, .T. ) ;
#104 = PLANE ( 'NONE',  #170 ) ;
#105 = FACE_OUTER_BOUND ( 'NONE', #9, .T. ) ;
#106 = VECTOR ( 'NONE', #253, 39.37007874015748143 ) ;
#107 = CARTESIAN_POINT ( 'NONE',  ( 0.0000000000000000000, 0.0000000000000000000, 1.485000000000000764 ) ) ;
#108 =( LENGTH_UNIT ( ) NAMED_UNIT ( * ) SI_UNIT ( $, .METRE. ) );
#109 = CARTESIAN_POINT ( 'NONE',  ( 0.0000000000000000000, 0.0000000000000000000, 1.500000000000000222 ) ) ;
#110 = CIRCLE ( 'NONE', #8, 0.02342654999999999044 ) ;
#111 = AXIS2_PLACEMENT_3D ( 'NONE', #252, #138, #25 ) ;
#112 = DIRECTION ( 'NONE',  ( 1.000000000000000000, 0.0000000000000000000, 0.0000000000000000000 ) ) ;
#113 = APPLICATION_PROTOCOL_DEFINITION ( 'draft international standard', 'automotive_design', 1998, #142 ) ;
#114 = EDGE_CURVE ( 'NONE', #282, #287, #76, .T. ) ;
#115 = PRESENTATION_LAYER_ASSIGNMENT (  '', '', ( #83 ) ) ;
#116 = VERTEX_POINT ( 'NONE', #41 ) ;
#117 = LENGTH_MEASURE_WITH_UNIT ( LENGTH_MEASURE( 0.02539999999999999897 ), #108 );
#118 = ORIENTED_EDGE ( 'NONE', *, *, #26, .F. ) ;
#119 = ADVANCED_FACE ( 'NONE', ( #13 ), #244, .T. ) ;
#120 = ORIENTED_EDGE ( 'NONE', *, *, #26, .T. ) ;
#121 = ADVANCED_FACE ( 'NONE', ( #225 ), #233, .T. ) ;
#122 = ORIENTED_EDGE ( 'NONE', *, *, #273, .T. ) ;
#123 = ORIENTED_EDGE ( 'NONE', *, *, #210, .T. ) ;
#124 = CARTESIAN_POINT ( 'NONE',  ( 0.06250000000000000000, 7.654042494670956004E-18, 1.500000000000000222 ) ) ;
#125 = ADVANCED_FACE ( 'NONE', ( #200 ), #291, .T. ) ;
#126 = AXIS2_PLACEMENT_3D ( 'NONE', #264, #224, #161 ) ;
#127 = CARTESIAN_POINT ( 'NONE',  ( 0.04750000000000064587, 5.817072295950006528E-18, 1.500000000000000222 ) ) ;
#128 = DIRECTION ( 'NONE',  ( -1.000000000000000000, 0.0000000000000000000, 0.0000000000000000000 ) ) ;
#129 = ADVANCED_FACE ( 'NONE', ( #103 ), #104, .T. ) ;
#130 = DIRECTION ( 'NONE',  ( -1.000000000000000000, 0.0000000000000000000, 1.224646799147353454E-16 ) ) ;
#131 = CARTESIAN_POINT ( 'NONE',  ( 3.864943006337004181E-17, 0.0000000000000000000, 0.3155965466147404586 ) ) ;
#132 = STYLED_ITEM ( 'NONE', ( #278 ), #295 ) ;
#133 = CARTESIAN_POINT ( 'NONE',  ( -0.06250000000000000000, 0.0000000000000000000, 1.485000000000000764 ) ) ;
#134 = SURFACE_STYLE_USAGE ( .BOTH. , #183 ) ;
#135 = CARTESIAN_POINT ( 'NONE',  ( -0.04750000000000064587, 0.0000000000000000000, 1.500000000000000222 ) ) ;
#136 = VECTOR ( 'NONE', #1, 39.37007874015747433 ) ;
#137 =( NAMED_UNIT ( * ) SI_UNIT ( $, .STERADIAN. ) SOLID_ANGLE_UNIT ( ) );
#138 = DIRECTION ( 'NONE',  ( 0.0000000000000000000, 0.0000000000000000000, 1.000000000000000000 ) ) ;
#139 = DIRECTION ( 'NONE',  ( 0.0000000000000000000, 0.0000000000000000000, 1.000000000000000000 ) ) ;
#140 =( CONVERSION_BASED_UNIT ( 'INCH', #117 ) LENGTH_UNIT ( ) NAMED_UNIT ( #47 ) );
#141 = DIRECTION ( 'NONE',  ( -1.000000000000000000, 0.0000000000000000000, 1.224646799147353454E-16 ) ) ;
#142 = APPLICATION_CONTEXT ( 'automotive_design' ) ;
#143 = UNCERTAINTY_MEASURE_WITH_UNIT (LENGTH_MEASURE( 1.000000000000000082E-05 ), #44, 'distance_accuracy_value', 'NONE');
#144 = AXIS2_PLACEMENT_3D ( 'NONE', #168, #254, #141 ) ;
#145 = CONICAL_SURFACE ( 'NONE', #165, 0.02342654999999999391, 0.1745329251994338915 ) ;
#146 = VERTEX_POINT ( 'NONE', #293 ) ;
#147 = SHAPE_DEFINITION_REPRESENTATION ( #156, #295 ) ;
#148 = ORIENTED_EDGE ( 'NONE', *, *, #197, .T. ) ;
#149 = ADVANCED_FACE ( 'NONE', ( #180 ), #38, .T. ) ;
#150 =( LENGTH_UNIT ( ) NAMED_UNIT ( * ) SI_UNIT ( $, .METRE. ) );
#151 = EDGE_LOOP ( 'NONE', ( #285, #6, #98, #73 ) ) ;
#152 = DIMENSIONAL_EXPONENTS ( 1.000000000000000000, 0.0000000000000000000, 0.0000000000000000000, 0.0000000000000000000, 0.0000000000000000000, 0.0000000000000000000, 0.0000000000000000000 ) ;
#153 = EDGE_LOOP ( 'NONE', ( #53, #50, #190, #174 ) ) ;
#154 = DIRECTION ( 'NONE',  ( -1.224646799147353454E-16, -0.0000000000000000000, -1.000000000000000000 ) ) ;
#155 = ADVANCED_FACE ( 'NONE', ( #179 ), #281, .T. ) ;
#156 = PRODUCT_DEFINITION_SHAPE ( 'NONE', 'NONE',  #59 ) ;
#157 = DIRECTION ( 'NONE',  ( -1.000000000000000000, 0.0000000000000000000, 1.224646799147353454E-16 ) ) ;
#158 = APPLICATION_CONTEXT ( 'automotive_design' ) ;
#159 = AXIS2_PLACEMENT_3D ( 'NONE', #29, #232, #212 ) ;
#160 = DIRECTION ( 'NONE',  ( 0.0000000000000000000, 0.0000000000000000000, -1.000000000000000000 ) ) ;
#161 = DIRECTION ( 'NONE',  ( 1.000000000000000000, 0.0000000000000000000, -0.0000000000000000000 ) ) ;
#162 = CARTESIAN_POINT ( 'NONE',  ( 0.0000000000000000000, 0.0000000000000000000, 1.485000000000000764 ) ) ;
#163 = CARTESIAN_POINT ( 'NONE',  ( -0.02342654999999998350, 2.868924947256542179E-18, 0.09400000000000001410 ) ) ;
#164 = AXIS2_PLACEMENT_3D ( 'NONE', #107, #77, #40 ) ;
#165 = AXIS2_PLACEMENT_3D ( 'NONE', #228, #269, #112 ) ;
#166 = CARTESIAN_POINT ( 'NONE',  ( 0.02342654999999999044, 2.868924947256541793E-18, -2.868924947256542179E-18 ) ) ;
#167 = DIRECTION ( 'NONE',  ( -0.0000000000000000000, -0.0000000000000000000, -1.000000000000000000 ) ) ;
#168 = CARTESIAN_POINT ( 'NONE',  ( 0.0000000000000000000, 0.0000000000000000000, 0.0000000000000000000 ) ) ;
#169 = ORIENTED_EDGE ( 'NONE', *, *, #114, .F. ) ;
#170 = AXIS2_PLACEMENT_3D ( 'NONE', #266, #203, #202 ) ;
#171 = ORIENTED_EDGE ( 'NONE', *, *, #90, .T. ) ;
#172 = SURFACE_STYLE_USAGE ( .BOTH. , #280 ) ;
#173 = ORIENTED_EDGE ( 'NONE', *, *, #260, .T. ) ;
#174 = ORIENTED_EDGE ( 'NONE', *, *, #277, .F. ) ;
#175 = AXIS2_PLACEMENT_3D ( 'NONE', #79, #16, #102 ) ;
#176 = CIRCLE ( 'NONE', #78, 0.06250000000000000000 ) ;
#177 = CARTESIAN_POINT ( 'NONE',  ( 0.0000000000000000000, 0.0000000000000000000, 1.500000000000000222 ) ) ;
#178 = DIRECTION ( 'NONE',  ( -0.0000000000000000000, -0.0000000000000000000, -1.000000000000000000 ) ) ;
#179 = FACE_OUTER_BOUND ( 'NONE', #196, .T. ) ;
#180 = FACE_OUTER_BOUND ( 'NONE', #69, .T. ) ;
#181 = CARTESIAN_POINT ( 'NONE',  ( 3.513419753651714367E-34, 0.0000000000000000000, 2.868924947256542179E-18 ) ) ;
#182 = FACE_OUTER_BOUND ( 'NONE', #153, .T. ) ;
#183 = SURFACE_SIDE_STYLE ('',( #42 ) ) ;
#184 = CIRCLE ( 'NONE', #226, 0.06250000000000000000 ) ;
#185 = PRESENTATION_STYLE_ASSIGNMENT (( #134 ) ) ;
#186 =( NAMED_UNIT ( * ) PLANE_ANGLE_UNIT ( ) SI_UNIT ( $, .RADIAN. ) );
#187 = ORIENTED_EDGE ( 'NONE', *, *, #247, .F. ) ;
#188 = AXIS2_PLACEMENT_3D ( 'NONE', #181, #223, #205 ) ;
#189 =( GEOMETRIC_REPRESENTATION_CONTEXT ( 3 ) GLOBAL_UNCERTAINTY_ASSIGNED_CONTEXT ( ( #143 ) ) GLOBAL_UNIT_ASSIGNED_CONTEXT ( ( #44, #186, #137 ) ) REPRESENTATION_CONTEXT ( 'NONE', 'WORKASPACE' ) );
#190 = ORIENTED_EDGE ( 'NONE', *, *, #66, .T. ) ;
#191 = DIMENSIONAL_EXPONENTS ( 1.000000000000000000, 0.0000000000000000000, 0.0000000000000000000, 0.0000000000000000000, 0.0000000000000000000, 0.0000000000000000000, 0.0000000000000000000 ) ;
#192 = EDGE_LOOP ( 'NONE', ( #198, #12, #122, #118 ) ) ;
#193 = CIRCLE ( 'NONE', #175, 0.02342654999999999391 ) ;
#194 = FILL_AREA_STYLE_COLOUR ( '', #63 ) ;
#195 = VERTEX_POINT ( 'NONE', #82 ) ;
#196 = EDGE_LOOP ( 'NONE', ( #70, #236, #123, #169 ) ) ;
#197 = EDGE_CURVE ( 'NONE', #101, #74, #110, .T. ) ;
#198 = ORIENTED_EDGE ( 'NONE', *, *, #237, .F. ) ;
#199 = AXIS2_PLACEMENT_3D ( 'NONE', #56, #37, #157 ) ;
#200 = FACE_OUTER_BOUND ( 'NONE', #192, .T. ) ;
#201 = ADVANCED_FACE ( 'NONE', ( #272 ), #274, .T. ) ;
#202 = DIRECTION ( 'NONE',  ( 1.000000000000000000, 0.0000000000000000000, -0.0000000000000000000 ) ) ;
#203 = DIRECTION ( 'NONE',  ( 0.0000000000000000000, 0.0000000000000000000, 1.000000000000000000 ) ) ;
#204 = CIRCLE ( 'NONE', #188, 0.02342654999999999044 ) ;
#205 = DIRECTION ( 'NONE',  ( -1.000000000000000000, 0.0000000000000000000, 1.224646799147353454E-16 ) ) ;
#206 = EDGE_CURVE ( 'NONE', #146, #215, #176, .T. ) ;
#207 = LINE ( 'NONE', #299, #106 ) ;
#208 = CARTESIAN_POINT ( 'NONE',  ( 3.864943006337004181E-17, 0.0000000000000000000, 0.3155965466147404586 ) ) ;
#209 = LINE ( 'NONE', #88, #284 ) ;
#210 = EDGE_CURVE ( 'NONE', #261, #287, #207, .T. ) ;
#211 = VECTOR ( 'NONE', #178, 39.37007874015748143 ) ;
#212 = DIRECTION ( 'NONE',  ( 1.000000000000000000, 0.0000000000000000000, 0.0000000000000000000 ) ) ;
#213 = PRODUCT ( 'Micro_SEM-046-02', 'Micro_SEM-046-02', '', ( #28 ) ) ;
#214 = FILL_AREA_STYLE ('',( #194 ) ) ;
#215 = VERTEX_POINT ( 'NONE', #67 ) ;
#216 = EDGE_LOOP ( 'NONE', ( #173, #35 ) ) ;
#217 = CIRCLE ( 'NONE', #111, 0.04750000000000064587 ) ;
#218 = CYLINDRICAL_SURFACE ( 'NONE', #144, 0.02342654999999999044 ) ;
#219 = EDGE_LOOP ( 'NONE', ( #30, #100, #240, #259 ) ) ;
#220 = CLOSED_SHELL ( 'NONE', ( #3, #286, #121, #201, #119, #129, #155, #149, #125, #96 ) ) ;
#221 = PLANE ( 'NONE',  #126 ) ;
#222 = AXIS2_PLACEMENT_3D ( 'NONE', #109, #2, #297 ) ;
#223 = DIRECTION ( 'NONE',  ( -1.224646799147353454E-16, -0.0000000000000000000, -1.000000000000000000 ) ) ;
#224 = DIRECTION ( 'NONE',  ( 0.0000000000000000000, 0.0000000000000000000, 1.000000000000000000 ) ) ;
#225 = FACE_OUTER_BOUND ( 'NONE', #219, .T. ) ;
#226 = AXIS2_PLACEMENT_3D ( 'NONE', #131, #154, #57 ) ;
#227 = DIRECTION ( 'NONE',  ( -1.000000000000000000, 0.0000000000000000000, 0.0000000000000000000 ) ) ;
#228 = CARTESIAN_POINT ( 'NONE',  ( 1.151167991198512393E-17, 0.0000000000000000000, 0.09400000000000001410 ) ) ;
#229 = LINE ( 'NONE', #296, #270 ) ;
#230 = CARTESIAN_POINT ( 'NONE',  ( 0.06250000000000000000, 7.654042494670956004E-18, 1.485000000000000764 ) ) ;
#231 = DIRECTION ( 'NONE',  ( 1.000000000000000000, 0.0000000000000000000, 0.0000000000000000000 ) ) ;
#232 = DIRECTION ( 'NONE',  ( 0.0000000000000000000, 0.0000000000000000000, 1.000000000000000000 ) ) ;
#233 = CONICAL_SURFACE ( 'NONE', #298, 0.04750000000000064587, 0.7853981633974457255 ) ;
#234 = COLOUR_RGB ( '',0.7921568627450980005, 0.8196078431372548767, 0.9333333333333333481 ) ;
#235 = ORIENTED_EDGE ( 'NONE', *, *, #90, .F. ) ;
#236 = ORIENTED_EDGE ( 'NONE', *, *, #260, .F. ) ;
#237 = EDGE_CURVE ( 'NONE', #195, #74, #43, .T. ) ;
#238 = ORIENTED_EDGE ( 'NONE', *, *, #247, .T. ) ;
#239 = PRESENTATION_LAYER_ASSIGNMENT (  '', '', ( #132 ) ) ;
#240 = ORIENTED_EDGE ( 'NONE', *, *, #81, .F. ) ;
#241 = DIRECTION ( 'NONE',  ( -1.000000000000000000, 0.0000000000000000000, 0.0000000000000000000 ) ) ;
#242 = DIRECTION ( 'NONE',  ( 1.000000000000000000, 0.0000000000000000000, 0.0000000000000000000 ) ) ;
#243 = AXIS2_PLACEMENT_3D ( 'NONE', #292, #80, #39 ) ;
#244 = CYLINDRICAL_SURFACE ( 'NONE', #62, 0.06250000000000000000 ) ;
#245 = PRODUCT_RELATED_PRODUCT_CATEGORY ( 'part', '', ( #213 ) ) ;
#246 = CARTESIAN_POINT ( 'NONE',  ( 0.0000000000000000000, 0.0000000000000000000, 1.500000000000000222 ) ) ;
#247 = EDGE_CURVE ( 'NONE', #287, #215, #209, .T. ) ;
#248 = LINE ( 'NONE', #124, #211 ) ;
#249 = VECTOR ( 'NONE', #271, 39.37007874015748143 ) ;
#250 = DIRECTION ( 'NONE',  ( -1.224646799147353454E-16, -0.0000000000000000000, -1.000000000000000000 ) ) ;
#251 = EDGE_CURVE ( 'NONE', #116, #215, #65, .T. ) ;
#252 = CARTESIAN_POINT ( 'NONE',  ( 0.0000000000000000000, 0.0000000000000000000, 1.500000000000000222 ) ) ;
#253 = DIRECTION ( 'NONE',  ( -0.7071067811865456854, 0.0000000000000000000, -0.7071067811865493491 ) ) ;
#254 = DIRECTION ( 'NONE',  ( -1.224646799147353454E-16, -0.0000000000000000000, -1.000000000000000000 ) ) ;
#255 = APPLICATION_PROTOCOL_DEFINITION ( 'draft international standard', 'automotive_design', 1998, #158 ) ;
#256 = ORIENTED_EDGE ( 'NONE', *, *, #206, .F. ) ;
#257 = VECTOR ( 'NONE', #250, 39.37007874015748143 ) ;
#258 =( NAMED_UNIT ( * ) SI_UNIT ( $, .STERADIAN. ) SOLID_ANGLE_UNIT ( ) );
#259 = ORIENTED_EDGE ( 'NONE', *, *, #210, .F. ) ;
#260 = EDGE_CURVE ( 'NONE', #261, #48, #217, .T. ) ;
#261 = VERTEX_POINT ( 'NONE', #135 ) ;
#262 =( NAMED_UNIT ( * ) PLANE_ANGLE_UNIT ( ) SI_UNIT ( $, .RADIAN. ) );
#263 = EDGE_LOOP ( 'NONE', ( #99, #171, #46, #187 ) ) ;
#264 = CARTESIAN_POINT ( 'NONE',  ( 0.0000000000000000000, 0.0000000000000000000, 0.0000000000000000000 ) ) ;
#265 = DIRECTION ( 'NONE',  ( -0.0000000000000000000, -0.0000000000000000000, -1.000000000000000000 ) ) ;
#266 = CARTESIAN_POINT ( 'NONE',  ( 0.0000000000000000000, 0.0000000000000000000, 1.500000000000000222 ) ) ;
#267 = CARTESIAN_POINT ( 'NONE',  ( 3.513419753651714367E-34, 0.0000000000000000000, 2.868924947256542179E-18 ) ) ;
#268 = CARTESIAN_POINT ( 'NONE',  ( 1.151167991198512393E-17, 0.0000000000000000000, 0.09400000000000001410 ) ) ;
#269 = DIRECTION ( 'NONE',  ( 1.224646799147353454E-16, 0.0000000000000000000, 1.000000000000000000 ) ) ;
#270 = VECTOR ( 'NONE', #91, 39.37007874015748143 ) ;
#271 = DIRECTION ( 'NONE',  ( -1.224646799147353454E-16, -0.0000000000000000000, -1.000000000000000000 ) ) ;
#272 = FACE_OUTER_BOUND ( 'NONE', #263, .T. ) ;
#273 = EDGE_CURVE ( 'NONE', #116, #101, #64, .T. ) ;
#274 = CYLINDRICAL_SURFACE ( 'NONE', #222, 0.06250000000000000000 ) ;
#275 = CARTESIAN_POINT ( 'NONE',  ( -0.02342654999999999044, 0.0000000000000000000, 2.868924947256542179E-18 ) ) ;
#276 = MECHANICAL_DESIGN_GEOMETRIC_PRESENTATION_REPRESENTATION (  '', ( #132 ), #10 ) ;
#277 = EDGE_CURVE ( 'NONE', #195, #146, #229, .T. ) ;
#278 = PRESENTATION_STYLE_ASSIGNMENT (( #172 ) ) ;
#279 = ORIENTED_EDGE ( 'NONE', *, *, #114, .T. ) ;
#280 = SURFACE_SIDE_STYLE ('',( #5 ) ) ;
#281 = CONICAL_SURFACE ( 'NONE', #58, 0.04750000000000064587, 0.7853981633974457255 ) ;
#282 = VERTEX_POINT ( 'NONE', #230 ) ;
#283 = MANIFOLD_SOLID_BREP ( 'Cut-Revolve1', #220 ) ;
#284 = VECTOR ( 'NONE', #167, 39.37007874015748143 ) ;
#285 = ORIENTED_EDGE ( 'NONE', *, *, #31, .T. ) ;
#286 = ADVANCED_FACE ( 'NONE', ( #182 ), #145, .T. ) ;
#287 = VERTEX_POINT ( 'NONE', #133 ) ;
#288 = DIRECTION ( 'NONE',  ( -1.000000000000000000, 0.0000000000000000000, 0.0000000000000000000 ) ) ;
#289 = CIRCLE ( 'NONE', #14, 0.02342654999999999391 ) ;
#290 = MECHANICAL_DESIGN_GEOMETRIC_PRESENTATION_REPRESENTATION (  '', ( #83 ), #189 ) ;
#291 = CYLINDRICAL_SURFACE ( 'NONE', #199, 0.02342654999999999044 ) ;
#292 = CARTESIAN_POINT ( 'NONE',  ( 1.151167991198512393E-17, 0.0000000000000000000, 0.09400000000000001410 ) ) ;
#293 = CARTESIAN_POINT ( 'NONE',  ( 0.06250000000000004163, 7.654042494670960626E-18, 0.3155965466147404586 ) ) ;
#294 = CARTESIAN_POINT ( 'NONE',  ( 0.04750000000000064587, 6.735557395310482421E-18, 1.500000000000000222 ) ) ;
#295 = ADVANCED_BREP_SHAPE_REPRESENTATION ( 'Micro_SEM-046-02', ( #283, #94 ), #54 ) ;
#296 = CARTESIAN_POINT ( 'NONE',  ( 0.02342655000000000778, 0.0000000000000000000, 0.09400000000000001410 ) ) ;
#297 = DIRECTION ( 'NONE',  ( -1.000000000000000000, 0.0000000000000000000, 0.0000000000000000000 ) ) ;
#298 = AXIS2_PLACEMENT_3D ( 'NONE', #177, #55, #241 ) ;
#299 = CARTESIAN_POINT ( 'NONE',  ( -0.04750000000000064587, 0.0000000000000000000, 1.500000000000000222 ) ) ;
ENDSEC;
END-ISO-10303-21;
