ISO-10303-21;
HEADER;
FILE_DESCRIPTION (( 'STEP AP214' ),
    '1' );
FILE_NAME ('Micro_AEMM-050-4.STEP',
    '2022-03-15T14:26:32',
    ( '' ),
    ( '' ),
    'SwSTEP 2.0',
    'SolidWorks 2022',
    '' );
FILE_SCHEMA (( 'AUTOMOTIVE_DESIGN' ));
ENDSEC;

DATA;
#1 = AXIS2_PLACEMENT_3D ( 'NONE', #272, #34, #18 ) ;
#2 = DIRECTION ( 'NONE',  ( -0.000000000000000000, -0.000000000000000000, -1.000000000000000000 ) ) ;
#3 = DIRECTION ( 'NONE',  ( -1.224646799147353207E-16, -0.000000000000000000, -1.000000000000000000 ) ) ;
#4 = CARTESIAN_POINT ( 'NONE',  ( 0.000000000000000000, 0.000000000000000000, 2.229093999999999465 ) ) ;
#5 = ADVANCED_FACE ( 'NONE', ( #295 ), #279, .F. ) ;
#6 = EDGE_CURVE ( 'NONE', #291, #185, #23, .T. ) ;
#7 = CLOSED_SHELL ( 'NONE', ( #210, #282, #104, #234, #168, #229, #57, #263, #73, #5 ) ) ;
#8 = AXIS2_PLACEMENT_3D ( 'NONE', #147, #246, #286 ) ;
#9 = VECTOR ( 'NONE', #131, 39.37007874015748143 ) ;
#10 = MANIFOLD_SOLID_BREP ( 'Cut-Revolve1', #7 ) ;
#11 = DIRECTION ( 'NONE',  ( 1.000000000000000000, 0.000000000000000000, 0.000000000000000000 ) ) ;
#12 = CIRCLE ( 'NONE', #296, 0.1031100000000002570 ) ;
#13 = PRESENTATION_LAYER_ASSIGNMENT (  '', '', ( #32 ) ) ;
#14 = ORIENTED_EDGE ( 'NONE', *, *, #244, .T. ) ;
#15 = ORIENTED_EDGE ( 'NONE', *, *, #267, .F. ) ;
#16 = CARTESIAN_POINT ( 'NONE',  ( 0.1031100000000002570, 1.262733314600838667E-17, 2.244094000000000033 ) ) ;
#17 = ORIENTED_EDGE ( 'NONE', *, *, #243, .F. ) ;
#18 = DIRECTION ( 'NONE',  ( -1.000000000000000000, 0.000000000000000000, 0.000000000000000000 ) ) ;
#19 = EDGE_LOOP ( 'NONE', ( #257, #247, #222, #156 ) ) ;
#20 = FILL_AREA_STYLE ('',( #268 ) ) ;
#21 = PRODUCT_DEFINITION_CONTEXT ( 'detailed design', #235, 'design' ) ;
#22 = PRODUCT_DEFINITION ( 'UNKNOWN', '', #86, #21 ) ;
#23 = LINE ( 'NONE', #208, #78 ) ;
#24 = SURFACE_STYLE_USAGE ( .BOTH. , #226 ) ;
#25 = EDGE_CURVE ( 'NONE', #291, #90, #27, .T. ) ;
#26 = LINE ( 'NONE', #123, #136 ) ;
#27 = LINE ( 'NONE', #163, #96 ) ;
#28 = AXIS2_PLACEMENT_3D ( 'NONE', #139, #98, #158 ) ;
#29 = DIRECTION ( 'NONE',  ( -1.224646799147353207E-16, -0.000000000000000000, -1.000000000000000000 ) ) ;
#30 = DIRECTION ( 'NONE',  ( -1.224646799147353207E-16, -0.000000000000000000, -1.000000000000000000 ) ) ;
#31 = FACE_OUTER_BOUND ( 'NONE', #298, .T. ) ;
#32 = STYLED_ITEM ( 'NONE', ( #76 ), #293 ) ;
#33 = EDGE_CURVE ( 'NONE', #134, #94, #26, .T. ) ;
#34 = DIRECTION ( 'NONE',  ( -1.224646799147353207E-16, -0.000000000000000000, -1.000000000000000000 ) ) ;
#35 = ORIENTED_EDGE ( 'NONE', *, *, #110, .F. ) ;
#36 = DIRECTION ( 'NONE',  ( 1.224646799147353207E-16, 0.000000000000000000, 1.000000000000000000 ) ) ;
#37 = AXIS2_PLACEMENT_3D ( 'NONE', #233, #29, #236 ) ;
#38 = EDGE_LOOP ( 'NONE', ( #148, #128, #68, #274 ) ) ;
#39 = LINE ( 'NONE', #127, #9 ) ;
#40 = ORIENTED_EDGE ( 'NONE', *, *, #254, .T. ) ;
#41 = CARTESIAN_POINT ( 'NONE',  ( -0.1181100000000000066, 0.000000000000000000, 2.229093999999999465 ) ) ;
#42 = DIMENSIONAL_EXPONENTS ( 1.000000000000000000, 0.000000000000000000, 0.000000000000000000, 0.000000000000000000, 0.000000000000000000, 0.000000000000000000, 0.000000000000000000 ) ;
#43 = ORIENTED_EDGE ( 'NONE', *, *, #33, .T. ) ;
#44 = DIRECTION ( 'NONE',  ( 1.000000000000000000, 0.000000000000000000, 0.000000000000000000 ) ) ;
#45 = ORIENTED_EDGE ( 'NONE', *, *, #149, .T. ) ;
#46 =( NAMED_UNIT ( * ) PLANE_ANGLE_UNIT ( ) SI_UNIT ( $, .RADIAN. ) );
#47 = DIRECTION ( 'NONE',  ( -1.000000000000000000, 0.000000000000000000, 0.000000000000000000 ) ) ;
#48 = DIRECTION ( 'NONE',  ( -1.224646799147353207E-16, -0.000000000000000000, -1.000000000000000000 ) ) ;
#49 = CARTESIAN_POINT ( 'NONE',  ( -0.1181099999999999234, 0.000000000000000000, 0.7421183785322699178 ) ) ;
#50 = EDGE_CURVE ( 'NONE', #249, #266, #169, .T. ) ;
#51 = AXIS2_PLACEMENT_3D ( 'NONE', #280, #55, #261 ) ;
#52 =( NAMED_UNIT ( * ) SI_UNIT ( $, .STERADIAN. ) SOLID_ANGLE_UNIT ( ) );
#53 = CARTESIAN_POINT ( 'NONE',  ( 0.000000000000000000, 0.000000000000000000, 0.000000000000000000 ) ) ;
#54 = SURFACE_STYLE_FILL_AREA ( #97 ) ;
#55 = DIRECTION ( 'NONE',  ( -0.000000000000000000, -0.000000000000000000, -1.000000000000000000 ) ) ;
#56 = STYLED_ITEM ( 'NONE', ( #188 ), #10 ) ;
#57 = ADVANCED_FACE ( 'NONE', ( #161 ), #124, .T. ) ;
#58 = CARTESIAN_POINT ( 'NONE',  ( 0.1181100000000000066, 1.446430334472939084E-17, 2.229093999999999465 ) ) ;
#59 = CARTESIAN_POINT ( 'NONE',  ( 0.000000000000000000, 0.000000000000000000, 2.229093999999999465 ) ) ;
#60 = AXIS2_PLACEMENT_3D ( 'NONE', #193, #221, #265 ) ;
#61 = CARTESIAN_POINT ( 'NONE',  ( -0.1031100000000002570, 0.000000000000000000, 2.244094000000000033 ) ) ;
#62 =( NAMED_UNIT ( * ) PLANE_ANGLE_UNIT ( ) SI_UNIT ( $, .RADIAN. ) );
#63 = ORIENTED_EDGE ( 'NONE', *, *, #260, .F. ) ;
#64 = CARTESIAN_POINT ( 'NONE',  ( 0.000000000000000000, 0.000000000000000000, 2.244094000000000033 ) ) ;
#65 = AXIS2_PLACEMENT_3D ( 'NONE', #173, #30, #125 ) ;
#66 = AXIS2_PLACEMENT_3D ( 'NONE', #164, #162, #44 ) ;
#67 = CARTESIAN_POINT ( 'NONE',  ( 0.09832657499999998552, 1.204153253448721512E-17, -1.204153253448721512E-17 ) ) ;
#68 = ORIENTED_EDGE ( 'NONE', *, *, #6, .T. ) ;
#69 = CYLINDRICAL_SURFACE ( 'NONE', #85, 0.1181100000000000066 ) ;
#70 = EDGE_LOOP ( 'NONE', ( #204, #43, #115, #15 ) ) ;
#71 = CARTESIAN_POINT ( 'NONE',  ( 0.000000000000000000, 0.000000000000000000, 0.000000000000000000 ) ) ;
#72 = VECTOR ( 'NONE', #107, 39.37007874015748143 ) ;
#73 = ADVANCED_FACE ( 'NONE', ( #256 ), #253, .T. ) ;
#74 = UNCERTAINTY_MEASURE_WITH_UNIT (LENGTH_MEASURE( 1.000000000000000082E-05 ), #252, 'distance_accuracy_value', 'NONE');
#75 = VERTEX_POINT ( 'NONE', #138 ) ;
#76 = PRESENTATION_STYLE_ASSIGNMENT (( #120 ) ) ;
#77 = ORIENTED_EDGE ( 'NONE', *, *, #93, .T. ) ;
#78 = VECTOR ( 'NONE', #230, 39.37007874015748143 ) ;
#79 = AXIS2_PLACEMENT_3D ( 'NONE', #209, #100, #192 ) ;
#80 = DIRECTION ( 'NONE',  ( -1.000000000000000000, 0.000000000000000000, 1.224646799147353207E-16 ) ) ;
#81 = DIRECTION ( 'NONE',  ( 1.000000000000000000, 0.000000000000000000, 0.000000000000000000 ) ) ;
#82 = DIRECTION ( 'NONE',  ( 1.000000000000000000, 0.000000000000000000, 0.000000000000000000 ) ) ;
#83 = CIRCLE ( 'NONE', #106, 0.09832657499999998552 ) ;
#84 = CARTESIAN_POINT ( 'NONE',  ( 9.088328968579682115E-17, 0.000000000000000000, 0.7421183785322699178 ) ) ;
#85 = AXIS2_PLACEMENT_3D ( 'NONE', #109, #199, #240 ) ;
#86 = PRODUCT_DEFINITION_FORMATION_WITH_SPECIFIED_SOURCE ( 'ANY', '', #108, .NOT_KNOWN. ) ;
#87 = LINE ( 'NONE', #67, #72 ) ;
#88 = PRODUCT_DEFINITION_SHAPE ( 'NONE', 'NONE',  #22 ) ;
#89 = EDGE_LOOP ( 'NONE', ( #35, #241, #14, #179 ) ) ;
#90 = VERTEX_POINT ( 'NONE', #49 ) ;
#91 = EDGE_LOOP ( 'NONE', ( #151, #218, #202, #132 ) ) ;
#92 = CARTESIAN_POINT ( 'NONE',  ( 7.714307363656999460E-17, 0.000000000000000000, 0.6299209999999999532 ) ) ;
#93 = EDGE_CURVE ( 'NONE', #220, #185, #196, .T. ) ;
#94 = VERTEX_POINT ( 'NONE', #299 ) ;
#95 = DIRECTION ( 'NONE',  ( 0.000000000000000000, 0.000000000000000000, 1.000000000000000000 ) ) ;
#96 = VECTOR ( 'NONE', #231, 39.37007874015747433 ) ;
#97 = FILL_AREA_STYLE ('',( #117 ) ) ;
#98 = DIRECTION ( 'NONE',  ( -1.224646799147353207E-16, -0.000000000000000000, -1.000000000000000000 ) ) ;
#99 =( LENGTH_UNIT ( ) NAMED_UNIT ( * ) SI_UNIT ( $, .METRE. ) );
#100 = DIRECTION ( 'NONE',  ( 0.000000000000000000, 0.000000000000000000, -1.000000000000000000 ) ) ;
#101 = PRODUCT_RELATED_PRODUCT_CATEGORY ( 'part', '', ( #108 ) ) ;
#102 = CARTESIAN_POINT ( 'NONE',  ( 0.09832657499999998552, 1.204153253448721512E-17, 0.000000000000000000 ) ) ;
#103 = LINE ( 'NONE', #146, #283 ) ;
#104 = ADVANCED_FACE ( 'NONE', ( #251 ), #211, .T. ) ;
#105 = FACE_OUTER_BOUND ( 'NONE', #294, .T. ) ;
#106 = AXIS2_PLACEMENT_3D ( 'NONE', #219, #289, #113 ) ;
#107 = DIRECTION ( 'NONE',  ( -1.224646799147353207E-16, -0.000000000000000000, -1.000000000000000000 ) ) ;
#108 = PRODUCT ( 'Micro_AEMM-050-4', 'Micro_AEMM-050-4', '', ( #205 ) ) ;
#109 = CARTESIAN_POINT ( 'NONE',  ( 0.000000000000000000, 0.000000000000000000, 2.244094000000000033 ) ) ;
#110 = EDGE_CURVE ( 'NONE', #291, #75, #270, .T. ) ;
#111 = ORIENTED_EDGE ( 'NONE', *, *, #287, .T. ) ;
#112 = COLOUR_RGB ( '',0.7921568627450980005, 0.8196078431372548767, 0.9333333333333333481 ) ;
#113 = DIRECTION ( 'NONE',  ( -1.000000000000000000, 0.000000000000000000, 1.224646799147353207E-16 ) ) ;
#114 = EDGE_LOOP ( 'NONE', ( #45, #200 ) ) ;
#115 = ORIENTED_EDGE ( 'NONE', *, *, #244, .F. ) ;
#116 =( CONVERSION_BASED_UNIT ( 'INCH', #141 ) LENGTH_UNIT ( ) NAMED_UNIT ( #42 ) );
#117 = FILL_AREA_STYLE_COLOUR ( '', #112 ) ;
#118 = AXIS2_PLACEMENT_3D ( 'NONE', #213, #281, #259 ) ;
#119 = UNCERTAINTY_MEASURE_WITH_UNIT (LENGTH_MEASURE( 1.000000000000000082E-05 ), #178, 'distance_accuracy_value', 'NONE');
#120 = SURFACE_STYLE_USAGE ( .BOTH. , #297 ) ;
#121 = CARTESIAN_POINT ( 'NONE',  ( 0.000000000000000000, 0.000000000000000000, 2.244094000000000033 ) ) ;
#122 = CARTESIAN_POINT ( 'NONE',  ( -0.1031100000000002570, 0.000000000000000000, 2.244094000000000033 ) ) ;
#123 = CARTESIAN_POINT ( 'NONE',  ( 0.1181100000000000066, 1.446430334472939084E-17, 2.244094000000000033 ) ) ;
#124 = CONICAL_SURFACE ( 'NONE', #79, 0.1031100000000002570, 0.7853981633974318477 ) ;
#125 = DIRECTION ( 'NONE',  ( -1.000000000000000000, 0.000000000000000000, 0.000000000000000000 ) ) ;
#126 = DIRECTION ( 'NONE',  ( 0.1736481776669313581, 0.000000000000000000, 0.9848077530122077983 ) ) ;
#127 = CARTESIAN_POINT ( 'NONE',  ( -0.1181100000000000066, 0.000000000000000000, 2.244094000000000033 ) ) ;
#128 = ORIENTED_EDGE ( 'NONE', *, *, #255, .T. ) ;
#129 = AXIS2_PLACEMENT_3D ( 'NONE', #4, #170, #81 ) ;
#130 = DIMENSIONAL_EXPONENTS ( 1.000000000000000000, 0.000000000000000000, 0.000000000000000000, 0.000000000000000000, 0.000000000000000000, 0.000000000000000000, 0.000000000000000000 ) ;
#131 = DIRECTION ( 'NONE',  ( -0.000000000000000000, -0.000000000000000000, -1.000000000000000000 ) ) ;
#132 = ORIENTED_EDGE ( 'NONE', *, *, #214, .F. ) ;
#133 = LINE ( 'NONE', #16, #292 ) ;
#134 = VERTEX_POINT ( 'NONE', #58 ) ;
#135 = EDGE_CURVE ( 'NONE', #266, #134, #238, .T. ) ;
#136 = VECTOR ( 'NONE', #2, 39.37007874015748143 ) ;
#137 =( NAMED_UNIT ( * ) SI_UNIT ( $, .STERADIAN. ) SOLID_ANGLE_UNIT ( ) );
#138 = CARTESIAN_POINT ( 'NONE',  ( 0.09832657500000008266, 0.000000000000000000, 0.6299209999999999532 ) ) ;
#139 = CARTESIAN_POINT ( 'NONE',  ( 1.474662427518848307E-33, 0.000000000000000000, 1.204153253448721512E-17 ) ) ;
#140 = APPLICATION_PROTOCOL_DEFINITION ( 'draft international standard', 'automotive_design', 1998, #235 ) ;
#141 = LENGTH_MEASURE_WITH_UNIT ( LENGTH_MEASURE( 0.02539999999999999897 ), #212 );
#142 = CYLINDRICAL_SURFACE ( 'NONE', #37, 0.09832657499999998552 ) ;
#143 = CIRCLE ( 'NONE', #264, 0.1181100000000000066 ) ;
#144 = EDGE_CURVE ( 'NONE', #75, #94, #103, .T. ) ;
#145 = CYLINDRICAL_SURFACE ( 'NONE', #51, 0.1181100000000000066 ) ;
#146 = CARTESIAN_POINT ( 'NONE',  ( 0.09832657500000008266, 0.000000000000000000, 0.6299209999999999532 ) ) ;
#147 = CARTESIAN_POINT ( 'NONE',  ( 9.088328968579682115E-17, 0.000000000000000000, 0.7421183785322699178 ) ) ;
#148 = ORIENTED_EDGE ( 'NONE', *, *, #254, .F. ) ;
#149 = EDGE_CURVE ( 'NONE', #249, #288, #242, .T. ) ;
#150 = APPLICATION_PROTOCOL_DEFINITION ( 'draft international standard', 'automotive_design', 1998, #159 ) ;
#151 = ORIENTED_EDGE ( 'NONE', *, *, #33, .F. ) ;
#152 = DIRECTION ( 'NONE',  ( 0.7071067811865358044, 8.659560562354788645E-17, -0.7071067811865590080 ) ) ;
#153 = ORIENTED_EDGE ( 'NONE', *, *, #50, .F. ) ;
#154 = DIRECTION ( 'NONE',  ( 1.000000000000000000, 0.000000000000000000, 0.000000000000000000 ) ) ;
#155 = DIRECTION ( 'NONE',  ( 1.224646799147353207E-16, 0.000000000000000000, 1.000000000000000000 ) ) ;
#156 = ORIENTED_EDGE ( 'NONE', *, *, #195, .F. ) ;
#157 = MECHANICAL_DESIGN_GEOMETRIC_PRESENTATION_REPRESENTATION (  '', ( #56 ), #172 ) ;
#158 = DIRECTION ( 'NONE',  ( -1.000000000000000000, 0.000000000000000000, 1.224646799147353207E-16 ) ) ;
#159 = APPLICATION_CONTEXT ( 'automotive_design' ) ;
#160 = LENGTH_MEASURE_WITH_UNIT ( LENGTH_MEASURE( 0.02539999999999999897 ), #99 );
#161 = FACE_OUTER_BOUND ( 'NONE', #19, .T. ) ;
#162 = DIRECTION ( 'NONE',  ( 0.000000000000000000, 0.000000000000000000, 1.000000000000000000 ) ) ;
#163 = CARTESIAN_POINT ( 'NONE',  ( -0.09832657499999990225, 1.204153253448721512E-17, 0.6299209999999999532 ) ) ;
#164 = CARTESIAN_POINT ( 'NONE',  ( 0.000000000000000000, 0.000000000000000000, 0.000000000000000000 ) ) ;
#165 = CONICAL_SURFACE ( 'NONE', #224, 0.09832657499999998552, 0.1745329251994338637 ) ;
#166 =( NAMED_UNIT ( * ) PLANE_ANGLE_UNIT ( ) SI_UNIT ( $, .RADIAN. ) );
#167 = SURFACE_STYLE_FILL_AREA ( #20 ) ;
#168 = ADVANCED_FACE ( 'NONE', ( #215 ), #145, .T. ) ;
#169 = LINE ( 'NONE', #122, #174 ) ;
#170 = DIRECTION ( 'NONE',  ( 0.000000000000000000, 0.000000000000000000, -1.000000000000000000 ) ) ;
#171 = PLANE ( 'NONE',  #60 ) ;
#172 =( GEOMETRIC_REPRESENTATION_CONTEXT ( 3 ) GLOBAL_UNCERTAINTY_ASSIGNED_CONTEXT ( ( #227 ) ) GLOBAL_UNIT_ASSIGNED_CONTEXT ( ( #116, #166, #137 ) ) REPRESENTATION_CONTEXT ( 'NONE', 'WORKASPACE' ) );
#173 = CARTESIAN_POINT ( 'NONE',  ( 7.714307363656999460E-17, 0.000000000000000000, 0.6299209999999999532 ) ) ;
#174 = VECTOR ( 'NONE', #187, 39.37007874015748854 ) ;
#175 =( GEOMETRIC_REPRESENTATION_CONTEXT ( 3 ) GLOBAL_UNCERTAINTY_ASSIGNED_CONTEXT ( ( #74 ) ) GLOBAL_UNIT_ASSIGNED_CONTEXT ( ( #252, #46, #52 ) ) REPRESENTATION_CONTEXT ( 'NONE', 'WORKASPACE' ) );
#176 = CARTESIAN_POINT ( 'NONE',  ( 7.714307363656999460E-17, 0.000000000000000000, 0.6299209999999999532 ) ) ;
#177 = ORIENTED_EDGE ( 'NONE', *, *, #135, .F. ) ;
#178 =( CONVERSION_BASED_UNIT ( 'INCH', #248 ) LENGTH_UNIT ( ) NAMED_UNIT ( #130 ) );
#179 = ORIENTED_EDGE ( 'NONE', *, *, #144, .F. ) ;
#180 = CONICAL_SURFACE ( 'NONE', #216, 0.09832657499999998552, 0.1745329251994338637 ) ;
#181 = MECHANICAL_DESIGN_GEOMETRIC_PRESENTATION_REPRESENTATION (  '', ( #32 ), #175 ) ;
#182 = DIRECTION ( 'NONE',  ( 1.000000000000000000, 0.000000000000000000, 0.000000000000000000 ) ) ;
#183 = ORIENTED_EDGE ( 'NONE', *, *, #6, .F. ) ;
#184 =( NAMED_UNIT ( * ) SI_UNIT ( $, .STERADIAN. ) SOLID_ANGLE_UNIT ( ) );
#185 = VERTEX_POINT ( 'NONE', #262 ) ;
#186 = AXIS2_PLACEMENT_3D ( 'NONE', #71, #48, #80 ) ;
#187 = DIRECTION ( 'NONE',  ( -0.7071067811865358044, 0.000000000000000000, -0.7071067811865590080 ) ) ;
#188 = PRESENTATION_STYLE_ASSIGNMENT (( #24 ) ) ;
#189 = PRESENTATION_LAYER_ASSIGNMENT (  '', '', ( #56 ) ) ;
#190 = AXIS2_PLACEMENT_3D ( 'NONE', #121, #278, #47 ) ;
#191 = DIRECTION ( 'NONE',  ( 1.000000000000000000, 0.000000000000000000, -0.000000000000000000 ) ) ;
#192 = DIRECTION ( 'NONE',  ( -1.000000000000000000, 0.000000000000000000, 0.000000000000000000 ) ) ;
#193 = CARTESIAN_POINT ( 'NONE',  ( 0.000000000000000000, 0.000000000000000000, 2.244094000000000033 ) ) ;
#194 = DIRECTION ( 'NONE',  ( 1.000000000000000000, 0.000000000000000000, 0.000000000000000000 ) ) ;
#195 = EDGE_CURVE ( 'NONE', #134, #266, #143, .T. ) ;
#196 = CIRCLE ( 'NONE', #28, 0.09832657499999998552 ) ;
#197 =( GEOMETRIC_REPRESENTATION_CONTEXT ( 3 ) GLOBAL_UNCERTAINTY_ASSIGNED_CONTEXT ( ( #119 ) ) GLOBAL_UNIT_ASSIGNED_CONTEXT ( ( #178, #62, #184 ) ) REPRESENTATION_CONTEXT ( 'NONE', 'WORKASPACE' ) );
#198 = CARTESIAN_POINT ( 'NONE',  ( -0.09832657499999990225, 1.325291793960830375E-17, 0.6299209999999999532 ) ) ;
#199 = DIRECTION ( 'NONE',  ( -0.000000000000000000, -0.000000000000000000, -1.000000000000000000 ) ) ;
#200 = ORIENTED_EDGE ( 'NONE', *, *, #243, .T. ) ;
#201 =( LENGTH_UNIT ( ) NAMED_UNIT ( * ) SI_UNIT ( $, .METRE. ) );
#202 = ORIENTED_EDGE ( 'NONE', *, *, #267, .T. ) ;
#203 = ORIENTED_EDGE ( 'NONE', *, *, #144, .T. ) ;
#204 = ORIENTED_EDGE ( 'NONE', *, *, #135, .T. ) ;
#205 = PRODUCT_CONTEXT ( 'NONE', #159, 'mechanical' ) ;
#206 = ORIENTED_EDGE ( 'NONE', *, *, #110, .T. ) ;
#207 = CIRCLE ( 'NONE', #8, 0.1181100000000000066 ) ;
#208 = CARTESIAN_POINT ( 'NONE',  ( -0.09832657499999998552, 0.000000000000000000, 1.204153253448721512E-17 ) ) ;
#209 = CARTESIAN_POINT ( 'NONE',  ( 0.000000000000000000, 0.000000000000000000, 2.244094000000000033 ) ) ;
#210 = ADVANCED_FACE ( 'NONE', ( #31 ), #142, .T. ) ;
#211 = CONICAL_SURFACE ( 'NONE', #190, 0.1031100000000002570, 0.7853981633974318477 ) ;
#212 =( LENGTH_UNIT ( ) NAMED_UNIT ( * ) SI_UNIT ( $, .METRE. ) );
#213 = CARTESIAN_POINT ( 'NONE',  ( 0.000000000000000000, 0.000000000000000000, 2.244094000000000033 ) ) ;
#214 = EDGE_CURVE ( 'NONE', #94, #90, #250, .T. ) ;
#215 = FACE_OUTER_BOUND ( 'NONE', #91, .T. ) ;
#216 = AXIS2_PLACEMENT_3D ( 'NONE', #176, #36, #154 ) ;
#217 = FACE_OUTER_BOUND ( 'NONE', #89, .T. ) ;
#218 = ORIENTED_EDGE ( 'NONE', *, *, #195, .T. ) ;
#219 = CARTESIAN_POINT ( 'NONE',  ( 1.474662427518848307E-33, 0.000000000000000000, 1.204153253448721512E-17 ) ) ;
#220 = VERTEX_POINT ( 'NONE', #102 ) ;
#221 = DIRECTION ( 'NONE',  ( 0.000000000000000000, 0.000000000000000000, 1.000000000000000000 ) ) ;
#222 = ORIENTED_EDGE ( 'NONE', *, *, #50, .T. ) ;
#223 = ORIENTED_EDGE ( 'NONE', *, *, #214, .T. ) ;
#224 = AXIS2_PLACEMENT_3D ( 'NONE', #92, #155, #11 ) ;
#225 = ORIENTED_EDGE ( 'NONE', *, *, #255, .F. ) ;
#226 = SURFACE_SIDE_STYLE ('',( #54 ) ) ;
#227 = UNCERTAINTY_MEASURE_WITH_UNIT (LENGTH_MEASURE( 1.000000000000000082E-05 ), #116, 'distance_accuracy_value', 'NONE');
#228 = AXIS2_PLACEMENT_3D ( 'NONE', #84, #3, #194 ) ;
#229 = ADVANCED_FACE ( 'NONE', ( #284 ), #171, .T. ) ;
#230 = DIRECTION ( 'NONE',  ( -1.224646799147353207E-16, -0.000000000000000000, -1.000000000000000000 ) ) ;
#231 = DIRECTION ( 'NONE',  ( -0.1736481776669311639, 2.126576849575783008E-17, 0.9848077530122080203 ) ) ;
#232 = CIRCLE ( 'NONE', #1, 0.09832657499999998552 ) ;
#233 = CARTESIAN_POINT ( 'NONE',  ( 0.000000000000000000, 0.000000000000000000, 0.000000000000000000 ) ) ;
#234 = ADVANCED_FACE ( 'NONE', ( #275 ), #69, .T. ) ;
#235 = APPLICATION_CONTEXT ( 'automotive_design' ) ;
#236 = DIRECTION ( 'NONE',  ( -1.000000000000000000, 0.000000000000000000, 1.224646799147353207E-16 ) ) ;
#237 = DIRECTION ( 'NONE',  ( 0.000000000000000000, 0.000000000000000000, -1.000000000000000000 ) ) ;
#238 = CIRCLE ( 'NONE', #129, 0.1181100000000000066 ) ;
#239 = DIRECTION ( 'NONE',  ( 0.000000000000000000, 0.000000000000000000, 1.000000000000000000 ) ) ;
#240 = DIRECTION ( 'NONE',  ( -1.000000000000000000, 0.000000000000000000, 0.000000000000000000 ) ) ;
#241 = ORIENTED_EDGE ( 'NONE', *, *, #25, .T. ) ;
#242 = CIRCLE ( 'NONE', #118, 0.1031100000000002570 ) ;
#243 = EDGE_CURVE ( 'NONE', #288, #249, #12, .T. ) ;
#244 = EDGE_CURVE ( 'NONE', #90, #94, #207, .T. ) ;
#245 = EDGE_LOOP ( 'NONE', ( #277, #77 ) ) ;
#246 = DIRECTION ( 'NONE',  ( -1.224646799147353207E-16, -0.000000000000000000, -1.000000000000000000 ) ) ;
#247 = ORIENTED_EDGE ( 'NONE', *, *, #149, .F. ) ;
#248 = LENGTH_MEASURE_WITH_UNIT ( LENGTH_MEASURE( 0.02539999999999999897 ), #201 );
#249 = VERTEX_POINT ( 'NONE', #61 ) ;
#250 = CIRCLE ( 'NONE', #228, 0.1181100000000000066 ) ;
#251 = FACE_OUTER_BOUND ( 'NONE', #269, .T. ) ;
#252 =( CONVERSION_BASED_UNIT ( 'INCH', #160 ) LENGTH_UNIT ( ) NAMED_UNIT ( #273 ) );
#253 = CYLINDRICAL_SURFACE ( 'NONE', #186, 0.09832657499999998552 ) ;
#254 = EDGE_CURVE ( 'NONE', #75, #220, #87, .T. ) ;
#255 = EDGE_CURVE ( 'NONE', #75, #291, #232, .T. ) ;
#256 = FACE_OUTER_BOUND ( 'NONE', #38, .T. ) ;
#257 = ORIENTED_EDGE ( 'NONE', *, *, #287, .F. ) ;
#258 = ORIENTED_EDGE ( 'NONE', *, *, #25, .F. ) ;
#259 = DIRECTION ( 'NONE',  ( 1.000000000000000000, 0.000000000000000000, 0.000000000000000000 ) ) ;
#260 = EDGE_CURVE ( 'NONE', #185, #220, #83, .T. ) ;
#261 = DIRECTION ( 'NONE',  ( -1.000000000000000000, 0.000000000000000000, 0.000000000000000000 ) ) ;
#262 = CARTESIAN_POINT ( 'NONE',  ( -0.09832657499999998552, 0.000000000000000000, 2.408306506897443024E-17 ) ) ;
#263 = ADVANCED_FACE ( 'NONE', ( #105 ), #180, .T. ) ;
#264 = AXIS2_PLACEMENT_3D ( 'NONE', #59, #237, #82 ) ;
#265 = DIRECTION ( 'NONE',  ( 1.000000000000000000, 0.000000000000000000, -0.000000000000000000 ) ) ;
#266 = VERTEX_POINT ( 'NONE', #41 ) ;
#267 = EDGE_CURVE ( 'NONE', #266, #90, #39, .T. ) ;
#268 = FILL_AREA_STYLE_COLOUR ( '', #271 ) ;
#269 = EDGE_LOOP ( 'NONE', ( #17, #111, #177, #153 ) ) ;
#270 = CIRCLE ( 'NONE', #65, 0.09832657499999998552 ) ;
#271 = COLOUR_RGB ( '',0.7921568627450980005, 0.8196078431372548767, 0.9333333333333333481 ) ;
#272 = CARTESIAN_POINT ( 'NONE',  ( 7.714307363656999460E-17, 0.000000000000000000, 0.6299209999999999532 ) ) ;
#273 = DIMENSIONAL_EXPONENTS ( 1.000000000000000000, 0.000000000000000000, 0.000000000000000000, 0.000000000000000000, 0.000000000000000000, 0.000000000000000000, 0.000000000000000000 ) ;
#274 = ORIENTED_EDGE ( 'NONE', *, *, #93, .F. ) ;
#275 = FACE_OUTER_BOUND ( 'NONE', #70, .T. ) ;
#276 = SHAPE_DEFINITION_REPRESENTATION ( #88, #293 ) ;
#277 = ORIENTED_EDGE ( 'NONE', *, *, #260, .T. ) ;
#278 = DIRECTION ( 'NONE',  ( 0.000000000000000000, 0.000000000000000000, -1.000000000000000000 ) ) ;
#279 = PLANE ( 'NONE',  #285 ) ;
#280 = CARTESIAN_POINT ( 'NONE',  ( 0.000000000000000000, 0.000000000000000000, 2.244094000000000033 ) ) ;
#281 = DIRECTION ( 'NONE',  ( 0.000000000000000000, 0.000000000000000000, 1.000000000000000000 ) ) ;
#282 = ADVANCED_FACE ( 'NONE', ( #217 ), #165, .T. ) ;
#283 = VECTOR ( 'NONE', #126, 39.37007874015748143 ) ;
#284 = FACE_OUTER_BOUND ( 'NONE', #114, .T. ) ;
#285 = AXIS2_PLACEMENT_3D ( 'NONE', #53, #95, #191 ) ;
#286 = DIRECTION ( 'NONE',  ( 1.000000000000000000, 0.000000000000000000, 0.000000000000000000 ) ) ;
#287 = EDGE_CURVE ( 'NONE', #288, #134, #133, .T. ) ;
#288 = VERTEX_POINT ( 'NONE', #290 ) ;
#289 = DIRECTION ( 'NONE',  ( -1.224646799147353207E-16, -0.000000000000000000, -1.000000000000000000 ) ) ;
#290 = CARTESIAN_POINT ( 'NONE',  ( 0.1031100000000002570, 1.354581824536888722E-17, 2.244094000000000033 ) ) ;
#291 = VERTEX_POINT ( 'NONE', #198 ) ;
#292 = VECTOR ( 'NONE', #152, 39.37007874015748854 ) ;
#293 = ADVANCED_BREP_SHAPE_REPRESENTATION ( 'Micro_AEMM-050-4', ( #10, #66 ), #197 ) ;
#294 = EDGE_LOOP ( 'NONE', ( #258, #225, #203, #223 ) ) ;
#295 = FACE_OUTER_BOUND ( 'NONE', #245, .T. ) ;
#296 = AXIS2_PLACEMENT_3D ( 'NONE', #64, #239, #182 ) ;
#297 = SURFACE_SIDE_STYLE ('',( #167 ) ) ;
#298 = EDGE_LOOP ( 'NONE', ( #206, #40, #63, #183 ) ) ;
#299 = CARTESIAN_POINT ( 'NONE',  ( 0.1181100000000000899, 1.446430334472940009E-17, 0.7421183785322699178 ) ) ;
ENDSEC;
END-ISO-10303-21;
