ISO-10303-21;
HEADER;
FILE_DESCRIPTION (( 'STEP AP214' ),
    '1' );
FILE_NAME ('Micro_KC-187-300-029.STEP',
    '2021-09-03T19:14:15',
    ( '' ),
    ( '' ),
    'SwSTEP 2.0',
    'SolidWorks 2020',
    '' );
FILE_SCHEMA (( 'AUTOMOTIVE_DESIGN' ));
ENDSEC;

DATA;
#1 = VERTEX_POINT ( 'NONE', #92 ) ;
#2 = ADVANCED_FACE ( 'NONE', ( #84 ), #250, .T. ) ;
#3 = PRODUCT ( 'Micro_KC-187-300-029', 'Micro_KC-187-300-029', '', ( #247 ) ) ;
#4 = AXIS2_PLACEMENT_3D ( 'NONE', #190, #284, #29 ) ;
#5 = AXIS2_PLACEMENT_3D ( 'NONE', #317, #290, #150 ) ;
#6 =( LENGTH_UNIT ( ) NAMED_UNIT ( * ) SI_UNIT ( $, .METRE. ) );
#7 = EDGE_CURVE ( 'NONE', #183, #209, #187, .T. ) ;
#8 = FACE_OUTER_BOUND ( 'NONE', #44, .T. ) ;
#9 = CARTESIAN_POINT ( 'NONE',  ( 0.0000000000000000000, 0.0000000000000000000, 0.2999999999999999889 ) ) ;
#10 = DIRECTION ( 'NONE',  ( -1.000000000000000000, 0.0000000000000000000, 0.0000000000000000000 ) ) ;
#11 = FILL_AREA_STYLE ('',( #265 ) ) ;
#12 = CARTESIAN_POINT ( 'NONE',  ( 0.0000000000000000000, 0.0000000000000000000, 2.000000000000000000 ) ) ;
#13 = SURFACE_STYLE_USAGE ( .BOTH. , #267 ) ;
#14 =( LENGTH_UNIT ( ) NAMED_UNIT ( * ) SI_UNIT ( $, .METRE. ) );
#15 = EDGE_CURVE ( 'NONE', #103, #165, #369, .T. ) ;
#16 = DIRECTION ( 'NONE',  ( -1.000000000000000000, 0.0000000000000000000, 0.0000000000000000000 ) ) ;
#17 = PRODUCT_DEFINITION_FORMATION_WITH_SPECIFIED_SOURCE ( 'ANY', '', #3, .NOT_KNOWN. ) ;
#18 = DIRECTION ( 'NONE',  ( 0.0000000000000000000, 0.0000000000000000000, 1.000000000000000000 ) ) ;
#19 = ORIENTED_EDGE ( 'NONE', *, *, #15, .T. ) ;
#20 = DIMENSIONAL_EXPONENTS ( 1.000000000000000000, 0.0000000000000000000, 0.0000000000000000000, 0.0000000000000000000, 0.0000000000000000000, 0.0000000000000000000, 0.0000000000000000000 ) ;
#21 = CYLINDRICAL_SURFACE ( 'NONE', #140, 0.09375000000000001388 ) ;
#22 = DIRECTION ( 'NONE',  ( -0.0000000000000000000, -0.0000000000000000000, -1.000000000000000000 ) ) ;
#23 = AXIS2_PLACEMENT_3D ( 'NONE', #177, #34, #37 ) ;
#24 = PRESENTATION_LAYER_ASSIGNMENT (  '', '', ( #198 ) ) ;
#25 = SHAPE_DEFINITION_REPRESENTATION ( #214, #256 ) ;
#26 = VERTEX_POINT ( 'NONE', #27 ) ;
#27 = CARTESIAN_POINT ( 'NONE',  ( -0.09375000000000001388, 0.0000000000000000000, 0.02900000000000000147 ) ) ;
#28 = CARTESIAN_POINT ( 'NONE',  ( -0.09375000000000001388, 0.0000000000000000000, 2.000000000000000000 ) ) ;
#29 = DIRECTION ( 'NONE',  ( 1.000000000000000000, 0.0000000000000000000, -0.0000000000000000000 ) ) ;
#30 = VECTOR ( 'NONE', #40, 39.37007874015748143 ) ;
#31 = ORIENTED_EDGE ( 'NONE', *, *, #314, .T. ) ;
#32 = DIRECTION ( 'NONE',  ( -1.000000000000000000, 0.0000000000000000000, 0.0000000000000000000 ) ) ;
#33 = EDGE_CURVE ( 'NONE', #165, #183, #285, .T. ) ;
#34 = DIRECTION ( 'NONE',  ( 0.0000000000000000000, 0.0000000000000000000, -1.000000000000000000 ) ) ;
#35 =( CONVERSION_BASED_UNIT ( 'INCH', #228 ) LENGTH_UNIT ( ) NAMED_UNIT ( #20 ) );
#36 = DIRECTION ( 'NONE',  ( 0.0000000000000000000, 0.0000000000000000000, 1.000000000000000000 ) ) ;
#37 = DIRECTION ( 'NONE',  ( 1.000000000000000000, 0.0000000000000000000, 0.0000000000000000000 ) ) ;
#38 = AXIS2_PLACEMENT_3D ( 'NONE', #94, #222, #139 ) ;
#39 = ORIENTED_EDGE ( 'NONE', *, *, #15, .F. ) ;
#40 = DIRECTION ( 'NONE',  ( -0.0000000000000000000, -0.0000000000000000000, -1.000000000000000000 ) ) ;
#41 = CARTESIAN_POINT ( 'NONE',  ( 0.09375000000000001388, 1.148106374200643863E-17, 2.000000000000000000 ) ) ;
#42 = EDGE_CURVE ( 'NONE', #366, #291, #219, .T. ) ;
#43 = EDGE_LOOP ( 'NONE', ( #151, #245, #333, #258 ) ) ;
#44 = EDGE_LOOP ( 'NONE', ( #101, #31, #158, #338 ) ) ;
#45 = DIRECTION ( 'NONE',  ( -1.000000000000000000, 0.0000000000000000000, 0.0000000000000000000 ) ) ;
#46 = MECHANICAL_DESIGN_GEOMETRIC_PRESENTATION_REPRESENTATION (  '', ( #309 ), #154 ) ;
#47 = ORIENTED_EDGE ( 'NONE', *, *, #167, .T. ) ;
#48 = ORIENTED_EDGE ( 'NONE', *, *, #7, .T. ) ;
#49 = EDGE_CURVE ( 'NONE', #199, #183, #141, .T. ) ;
#50 = ORIENTED_EDGE ( 'NONE', *, *, #202, .T. ) ;
#51 =( NAMED_UNIT ( * ) SI_UNIT ( $, .STERADIAN. ) SOLID_ANGLE_UNIT ( ) );
#52 = UNCERTAINTY_MEASURE_WITH_UNIT (LENGTH_MEASURE( 1.000000000000000082E-05 ), #229, 'distance_accuracy_value', 'NONE');
#53 =( NAMED_UNIT ( * ) PLANE_ANGLE_UNIT ( ) SI_UNIT ( $, .RADIAN. ) );
#54 = DIRECTION ( 'NONE',  ( 1.000000000000000000, 0.0000000000000000000, 0.0000000000000000000 ) ) ;
#55 = ORIENTED_EDGE ( 'NONE', *, *, #349, .F. ) ;
#56 = DIRECTION ( 'NONE',  ( 0.7071067811865463515, 8.659560562354916834E-17, -0.7071067811865486830 ) ) ;
#57 = ORIENTED_EDGE ( 'NONE', *, *, #282, .T. ) ;
#58 = DIRECTION ( 'NONE',  ( 0.0000000000000000000, 0.0000000000000000000, -1.000000000000000000 ) ) ;
#59 = ORIENTED_EDGE ( 'NONE', *, *, #61, .F. ) ;
#60 = AXIS2_PLACEMENT_3D ( 'NONE', #347, #288, #32 ) ;
#61 = EDGE_CURVE ( 'NONE', #209, #78, #170, .T. ) ;
#62 = DIRECTION ( 'NONE',  ( 0.0000000000000000000, 0.0000000000000000000, -1.000000000000000000 ) ) ;
#63 = DIRECTION ( 'NONE',  ( -1.000000000000000000, 0.0000000000000000000, 0.0000000000000000000 ) ) ;
#64 = EDGE_CURVE ( 'NONE', #81, #307, #117, .T. ) ;
#65 = AXIS2_PLACEMENT_3D ( 'NONE', #363, #301, #375 ) ;
#66 = CIRCLE ( 'NONE', #80, 0.04499999999999999833 ) ;
#67 =( NAMED_UNIT ( * ) SI_UNIT ( $, .STERADIAN. ) SOLID_ANGLE_UNIT ( ) );
#68 = ORIENTED_EDGE ( 'NONE', *, *, #42, .T. ) ;
#69 = CARTESIAN_POINT ( 'NONE',  ( -0.09375000000000001388, 0.0000000000000000000, 2.000000000000000000 ) ) ;
#70 = EDGE_LOOP ( 'NONE', ( #376, #272, #59, #129 ) ) ;
#71 = ADVANCED_FACE ( 'NONE', ( #259 ), #87, .T. ) ;
#72 = SURFACE_STYLE_USAGE ( .BOTH. , #235 ) ;
#73 = CONICAL_SURFACE ( 'NONE', #211, 0.04500000000000003303, 0.7853981633974506105 ) ;
#74 = ORIENTED_EDGE ( 'NONE', *, *, #305, .T. ) ;
#75 = LINE ( 'NONE', #41, #248 ) ;
#76 = EDGE_LOOP ( 'NONE', ( #39, #97, #302, #189 ) ) ;
#77 = FACE_OUTER_BOUND ( 'NONE', #373, .T. ) ;
#78 = VERTEX_POINT ( 'NONE', #90 ) ;
#79 = VECTOR ( 'NONE', #56, 39.37007874015748143 ) ;
#80 = AXIS2_PLACEMENT_3D ( 'NONE', #230, #145, #351 ) ;
#81 = VERTEX_POINT ( 'NONE', #212 ) ;
#82 = DIRECTION ( 'NONE',  ( 0.7071067811865491270, 0.0000000000000000000, 0.7071067811865459074 ) ) ;
#83 = ORIENTED_EDGE ( 'NONE', *, *, #282, .F. ) ;
#84 = FACE_OUTER_BOUND ( 'NONE', #132, .T. ) ;
#85 = CYLINDRICAL_SURFACE ( 'NONE', #107, 0.09375000000000001388 ) ;
#86 = EDGE_LOOP ( 'NONE', ( #296, #216 ) ) ;
#87 = PLANE ( 'NONE',  #4 ) ;
#88 = PRODUCT_DEFINITION ( 'UNKNOWN', '', #17, #339 ) ;
#89 = CARTESIAN_POINT ( 'NONE',  ( 0.09375000000000001388, 0.0000000000000000000, 0.02900000000000000147 ) ) ;
#90 = CARTESIAN_POINT ( 'NONE',  ( 0.09375000000000001388, 1.148106374200643863E-17, 0.3487499999999997824 ) ) ;
#91 = AXIS2_PLACEMENT_3D ( 'NONE', #89, #153, #136 ) ;
#92 = CARTESIAN_POINT ( 'NONE',  ( -0.04500000000000003303, 8.495987169084765633E-18, 0.2999999999999999889 ) ) ;
#93 = CIRCLE ( 'NONE', #23, 0.09375000000000001388 ) ;
#94 = CARTESIAN_POINT ( 'NONE',  ( 0.0000000000000000000, 0.0000000000000000000, 2.000000000000000000 ) ) ;
#95 = VECTOR ( 'NONE', #82, 39.37007874015748143 ) ;
#96 = FILL_AREA_STYLE ('',( #99 ) ) ;
#97 = ORIENTED_EDGE ( 'NONE', *, *, #115, .F. ) ;
#98 = PRESENTATION_STYLE_ASSIGNMENT (( #13 ) ) ;
#99 = FILL_AREA_STYLE_COLOUR ( '', #164 ) ;
#100 = DIRECTION ( 'NONE',  ( 1.000000000000000000, 0.0000000000000000000, 0.0000000000000000000 ) ) ;
#101 = ORIENTED_EDGE ( 'NONE', *, *, #42, .F. ) ;
#102 = CARTESIAN_POINT ( 'NONE',  ( 0.0000000000000000000, 0.0000000000000000000, 2.000000000000000000 ) ) ;
#103 = VERTEX_POINT ( 'NONE', #350 ) ;
#104 = DIRECTION ( 'NONE',  ( 1.000000000000000000, 0.0000000000000000000, -0.0000000000000000000 ) ) ;
#105 = DIRECTION ( 'NONE',  ( -0.7071067811865491270, 8.659560562354952580E-17, 0.7071067811865459074 ) ) ;
#106 = AXIS2_PLACEMENT_3D ( 'NONE', #217, #344, #226 ) ;
#107 = AXIS2_PLACEMENT_3D ( 'NONE', #160, #22, #162 ) ;
#108 = DIRECTION ( 'NONE',  ( 1.000000000000000000, 0.0000000000000000000, 0.0000000000000000000 ) ) ;
#109 = CARTESIAN_POINT ( 'NONE',  ( 0.09375000000000001388, 1.148106374200643863E-17, 2.000000000000000000 ) ) ;
#110 = ADVANCED_FACE ( 'NONE', ( #192 ), #378, .T. ) ;
#111 = CARTESIAN_POINT ( 'NONE',  ( 0.0000000000000000000, 0.0000000000000000000, 2.000000000000000000 ) ) ;
#112 = AXIS2_PLACEMENT_3D ( 'NONE', #161, #283, #63 ) ;
#113 = DIRECTION ( 'NONE',  ( -0.7071067811865463515, 0.0000000000000000000, -0.7071067811865486830 ) ) ;
#114 = AXIS2_PLACEMENT_3D ( 'NONE', #9, #175, #316 ) ;
#115 = EDGE_CURVE ( 'NONE', #199, #103, #148, .T. ) ;
#116 = EDGE_LOOP ( 'NONE', ( #57, #243, #186, #252 ) ) ;
#117 = CIRCLE ( 'NONE', #324, 0.09375000000000001388 ) ;
#118 = CIRCLE ( 'NONE', #325, 0.07874999999999980627 ) ;
#119 = DIRECTION ( 'NONE',  ( -0.0000000000000000000, -0.0000000000000000000, -1.000000000000000000 ) ) ;
#120 = EDGE_CURVE ( 'NONE', #135, #26, #260, .T. ) ;
#121 = CARTESIAN_POINT ( 'NONE',  ( 0.0000000000000000000, 0.0000000000000000000, 0.2999999999999999889 ) ) ;
#122 = SURFACE_STYLE_FILL_AREA ( #11 ) ;
#123 = DIRECTION ( 'NONE',  ( -0.0000000000000000000, -0.0000000000000000000, -1.000000000000000000 ) ) ;
#124 = ORIENTED_EDGE ( 'NONE', *, *, #120, .F. ) ;
#125 = AXIS2_PLACEMENT_3D ( 'NONE', #172, #374, #108 ) ;
#126 = DIRECTION ( 'NONE',  ( -0.0000000000000000000, -0.0000000000000000000, -1.000000000000000000 ) ) ;
#127 = ADVANCED_FACE ( 'NONE', ( #359 ), #73, .T. ) ;
#128 = CYLINDRICAL_SURFACE ( 'NONE', #178, 0.04500000000000001221 ) ;
#129 = ORIENTED_EDGE ( 'NONE', *, *, #7, .F. ) ;
#130 = DIRECTION ( 'NONE',  ( -0.0000000000000000000, -0.0000000000000000000, -1.000000000000000000 ) ) ;
#131 = CIRCLE ( 'NONE', #221, 0.04500000000000003303 ) ;
#132 = EDGE_LOOP ( 'NONE', ( #358, #68, #357, #55 ) ) ;
#133 =( CONVERSION_BASED_UNIT ( 'INCH', #362 ) LENGTH_UNIT ( ) NAMED_UNIT ( #320 ) );
#134 = PLANE ( 'NONE',  #318 ) ;
#135 = VERTEX_POINT ( 'NONE', #323 ) ;
#136 = DIRECTION ( 'NONE',  ( 1.000000000000000000, 0.0000000000000000000, -0.0000000000000000000 ) ) ;
#137 = PRESENTATION_LAYER_ASSIGNMENT (  '', '', ( #309 ) ) ;
#138 = CARTESIAN_POINT ( 'NONE',  ( 0.0000000000000000000, 0.0000000000000000000, 0.0000000000000000000 ) ) ;
#139 = DIRECTION ( 'NONE',  ( 1.000000000000000000, 0.0000000000000000000, 0.0000000000000000000 ) ) ;
#140 = AXIS2_PLACEMENT_3D ( 'NONE', #102, #207, #45 ) ;
#141 = LINE ( 'NONE', #246, #163 ) ;
#142 = MANIFOLD_SOLID_BREP ( 'Cut-Revolve1', #244 ) ;
#143 = EDGE_CURVE ( 'NONE', #165, #78, #75, .T. ) ;
#144 = VECTOR ( 'NONE', #292, 39.37007874015748143 ) ;
#145 = DIRECTION ( 'NONE',  ( -0.0000000000000000000, -0.0000000000000000000, -1.000000000000000000 ) ) ;
#146 = FACE_OUTER_BOUND ( 'NONE', #208, .T. ) ;
#147 = CARTESIAN_POINT ( 'NONE',  ( 0.09375000000000001388, 1.148106374200643863E-17, 1.984999999999999654 ) ) ;
#148 = CIRCLE ( 'NONE', #38, 0.07874999999999980627 ) ;
#149 = CARTESIAN_POINT ( 'NONE',  ( 0.04500000000000003303, 0.0000000000000000000, 0.2999999999999999889 ) ) ;
#150 = DIRECTION ( 'NONE',  ( 1.000000000000000000, 0.0000000000000000000, 0.0000000000000000000 ) ) ;
#151 = ORIENTED_EDGE ( 'NONE', *, *, #305, .F. ) ;
#152 = DIRECTION ( 'NONE',  ( -0.0000000000000000000, -0.0000000000000000000, -1.000000000000000000 ) ) ;
#153 = DIRECTION ( 'NONE',  ( 0.0000000000000000000, 0.0000000000000000000, 1.000000000000000000 ) ) ;
#154 =( GEOMETRIC_REPRESENTATION_CONTEXT ( 3 ) GLOBAL_UNCERTAINTY_ASSIGNED_CONTEXT ( ( #52 ) ) GLOBAL_UNIT_ASSIGNED_CONTEXT ( ( #229, #236, #67 ) ) REPRESENTATION_CONTEXT ( 'NONE', 'WORKASPACE' ) );
#155 = DIRECTION ( 'NONE',  ( -1.000000000000000000, 0.0000000000000000000, 0.0000000000000000000 ) ) ;
#156 = VERTEX_POINT ( 'NONE', #328 ) ;
#157 = CARTESIAN_POINT ( 'NONE',  ( -0.07874999999999980627, 0.0000000000000000000, 2.000000000000000000 ) ) ;
#158 = ORIENTED_EDGE ( 'NONE', *, *, #349, .T. ) ;
#159 = ADVANCED_FACE ( 'NONE', ( #201 ), #195, .T. ) ;
#160 = CARTESIAN_POINT ( 'NONE',  ( 0.0000000000000000000, 0.0000000000000000000, 2.000000000000000000 ) ) ;
#161 = CARTESIAN_POINT ( 'NONE',  ( 0.0000000000000000000, 0.0000000000000000000, 0.0000000000000000000 ) ) ;
#162 = DIRECTION ( 'NONE',  ( -1.000000000000000000, 0.0000000000000000000, 0.0000000000000000000 ) ) ;
#163 = VECTOR ( 'NONE', #113, 39.37007874015748143 ) ;
#164 = COLOUR_RGB ( '',0.7921568627450980005, 0.8196078431372548767, 0.9333333333333333481 ) ;
#165 = VERTEX_POINT ( 'NONE', #147 ) ;
#166 = ORIENTED_EDGE ( 'NONE', *, *, #171, .F. ) ;
#167 = EDGE_CURVE ( 'NONE', #26, #307, #200, .T. ) ;
#168 = DIRECTION ( 'NONE',  ( -1.000000000000000000, 0.0000000000000000000, 0.0000000000000000000 ) ) ;
#169 = CARTESIAN_POINT ( 'NONE',  ( 0.0000000000000000000, 0.0000000000000000000, 0.0000000000000000000 ) ) ;
#170 = CIRCLE ( 'NONE', #106, 0.09375000000000001388 ) ;
#171 = EDGE_CURVE ( 'NONE', #183, #165, #93, .T. ) ;
#172 = CARTESIAN_POINT ( 'NONE',  ( 0.0000000000000000000, 0.0000000000000000000, 1.984999999999999654 ) ) ;
#173 = AXIS2_PLACEMENT_3D ( 'NONE', #294, #126, #10 ) ;
#174 =( GEOMETRIC_REPRESENTATION_CONTEXT ( 3 ) GLOBAL_UNCERTAINTY_ASSIGNED_CONTEXT ( ( #303 ) ) GLOBAL_UNIT_ASSIGNED_CONTEXT ( ( #133, #53, #51 ) ) REPRESENTATION_CONTEXT ( 'NONE', 'WORKASPACE' ) );
#175 = DIRECTION ( 'NONE',  ( -0.0000000000000000000, -0.0000000000000000000, -1.000000000000000000 ) ) ;
#176 = PLANE ( 'NONE',  #91 ) ;
#177 = CARTESIAN_POINT ( 'NONE',  ( 0.0000000000000000000, 0.0000000000000000000, 1.984999999999999654 ) ) ;
#178 = AXIS2_PLACEMENT_3D ( 'NONE', #205, #123, #231 ) ;
#179 = LENGTH_MEASURE_WITH_UNIT ( LENGTH_MEASURE( 0.02539999999999999897 ), #14 );
#180 = EDGE_CURVE ( 'NONE', #78, #209, #238, .T. ) ;
#181 = ORIENTED_EDGE ( 'NONE', *, *, #202, .F. ) ;
#182 = DIRECTION ( 'NONE',  ( -0.0000000000000000000, -0.0000000000000000000, -1.000000000000000000 ) ) ;
#183 = VERTEX_POINT ( 'NONE', #266 ) ;
#184 = ADVANCED_FACE ( 'NONE', ( #146 ), #262, .T. ) ;
#185 = FACE_OUTER_BOUND ( 'NONE', #299, .T. ) ;
#186 = ORIENTED_EDGE ( 'NONE', *, *, #64, .T. ) ;
#187 = LINE ( 'NONE', #28, #232 ) ;
#188 = FACE_OUTER_BOUND ( 'NONE', #70, .T. ) ;
#189 = ORIENTED_EDGE ( 'NONE', *, *, #33, .F. ) ;
#190 = CARTESIAN_POINT ( 'NONE',  ( 0.0000000000000000000, 0.0000000000000000000, 2.000000000000000000 ) ) ;
#191 = VECTOR ( 'NONE', #105, 39.37007874015748143 ) ;
#192 = FACE_OUTER_BOUND ( 'NONE', #76, .T. ) ;
#193 = ADVANCED_FACE ( 'NONE', ( #8 ), #128, .T. ) ;
#194 =( LENGTH_UNIT ( ) NAMED_UNIT ( * ) SI_UNIT ( $, .METRE. ) );
#195 = CYLINDRICAL_SURFACE ( 'NONE', #173, 0.09375000000000001388 ) ;
#196 = ADVANCED_FACE ( 'NONE', ( #352, #319 ), #176, .T. ) ;
#197 = AXIS2_PLACEMENT_3D ( 'NONE', #310, #62, #168 ) ;
#198 = STYLED_ITEM ( 'NONE', ( #98 ), #256 ) ;
#199 = VERTEX_POINT ( 'NONE', #157 ) ;
#200 = LINE ( 'NONE', #69, #144 ) ;
#201 = FACE_OUTER_BOUND ( 'NONE', #116, .T. ) ;
#202 = EDGE_CURVE ( 'NONE', #307, #81, #313, .T. ) ;
#203 = AXIS2_PLACEMENT_3D ( 'NONE', #12, #152, #268 ) ;
#204 = MECHANICAL_DESIGN_GEOMETRIC_PRESENTATION_REPRESENTATION (  '', ( #198 ), #174 ) ;
#205 = CARTESIAN_POINT ( 'NONE',  ( 0.0000000000000000000, 0.0000000000000000000, 0.0000000000000000000 ) ) ;
#206 = DIMENSIONAL_EXPONENTS ( 1.000000000000000000, 0.0000000000000000000, 0.0000000000000000000, 0.0000000000000000000, 0.0000000000000000000, 0.0000000000000000000, 0.0000000000000000000 ) ;
#207 = DIRECTION ( 'NONE',  ( -0.0000000000000000000, -0.0000000000000000000, -1.000000000000000000 ) ) ;
#208 = EDGE_LOOP ( 'NONE', ( #269, #368, #48, #274 ) ) ;
#209 = VERTEX_POINT ( 'NONE', #304 ) ;
#210 = ORIENTED_EDGE ( 'NONE', *, *, #64, .F. ) ;
#211 = AXIS2_PLACEMENT_3D ( 'NONE', #121, #36, #100 ) ;
#212 = CARTESIAN_POINT ( 'NONE',  ( 0.09375000000000001388, 1.148106374200643863E-17, 0.0000000000000000000 ) ) ;
#213 = ORIENTED_EDGE ( 'NONE', *, *, #361, .F. ) ;
#214 = PRODUCT_DEFINITION_SHAPE ( 'NONE', 'NONE',  #88 ) ;
#215 = DIRECTION ( 'NONE',  ( 0.0000000000000000000, 0.0000000000000000000, 1.000000000000000000 ) ) ;
#216 = ORIENTED_EDGE ( 'NONE', *, *, #289, .T. ) ;
#217 = CARTESIAN_POINT ( 'NONE',  ( 0.0000000000000000000, 0.0000000000000000000, 0.3487499999999997824 ) ) ;
#218 = LINE ( 'NONE', #273, #191 ) ;
#219 = LINE ( 'NONE', #377, #334 ) ;
#220 = EDGE_CURVE ( 'NONE', #366, #78, #275, .T. ) ;
#221 = AXIS2_PLACEMENT_3D ( 'NONE', #332, #182, #312 ) ;
#222 = DIRECTION ( 'NONE',  ( 0.0000000000000000000, 0.0000000000000000000, 1.000000000000000000 ) ) ;
#223 = EDGE_CURVE ( 'NONE', #135, #81, #372, .T. ) ;
#224 = AXIS2_PLACEMENT_3D ( 'NONE', #251, #297, #239 ) ;
#225 = AXIS2_PLACEMENT_3D ( 'NONE', #371, #335, #277 ) ;
#226 = DIRECTION ( 'NONE',  ( 1.000000000000000000, 0.0000000000000000000, 0.0000000000000000000 ) ) ;
#227 = ADVANCED_FACE ( 'NONE', ( #185 ), #370, .T. ) ;
#228 = LENGTH_MEASURE_WITH_UNIT ( LENGTH_MEASURE( 0.02539999999999999897 ), #6 );
#229 =( CONVERSION_BASED_UNIT ( 'INCH', #179 ) LENGTH_UNIT ( ) NAMED_UNIT ( #206 ) );
#230 = CARTESIAN_POINT ( 'NONE',  ( 0.0000000000000000000, 0.0000000000000000000, 0.02900000000000000494 ) ) ;
#231 = DIRECTION ( 'NONE',  ( -1.000000000000000000, 0.0000000000000000000, 0.0000000000000000000 ) ) ;
#232 = VECTOR ( 'NONE', #119, 39.37007874015748143 ) ;
#233 = AXIS2_PLACEMENT_3D ( 'NONE', #138, #18, #54 ) ;
#234 = CARTESIAN_POINT ( 'NONE',  ( -0.04500000000000001221, 0.0000000000000000000, 0.0000000000000000000 ) ) ;
#235 = SURFACE_SIDE_STYLE ('',( #355 ) ) ;
#236 =( NAMED_UNIT ( * ) PLANE_ANGLE_UNIT ( ) SI_UNIT ( $, .RADIAN. ) );
#237 = ADVANCED_FACE ( 'NONE', ( #278 ), #85, .T. ) ;
#238 = CIRCLE ( 'NONE', #5, 0.09375000000000001388 ) ;
#239 = DIRECTION ( 'NONE',  ( 1.000000000000000000, 0.0000000000000000000, 0.0000000000000000000 ) ) ;
#240 = ORIENTED_EDGE ( 'NONE', *, *, #220, .F. ) ;
#241 = EDGE_CURVE ( 'NONE', #156, #291, #348, .T. ) ;
#242 = CARTESIAN_POINT ( 'NONE',  ( 0.0000000000000000000, 0.0000000000000000000, 0.0000000000000000000 ) ) ;
#243 = ORIENTED_EDGE ( 'NONE', *, *, #223, .T. ) ;
#244 = CLOSED_SHELL ( 'NONE', ( #159, #2, #127, #227, #295, #184, #71, #110, #257, #193, #196, #311, #237 ) ) ;
#245 = ORIENTED_EDGE ( 'NONE', *, *, #314, .F. ) ;
#246 = CARTESIAN_POINT ( 'NONE',  ( -0.07874999999999980627, 0.0000000000000000000, 2.000000000000000000 ) ) ;
#247 = PRODUCT_CONTEXT ( 'NONE', #329, 'mechanical' ) ;
#248 = VECTOR ( 'NONE', #322, 39.37007874015748143 ) ;
#249 = CARTESIAN_POINT ( 'NONE',  ( 0.0000000000000000000, 0.0000000000000000000, 0.02900000000000000494 ) ) ;
#250 = CYLINDRICAL_SURFACE ( 'NONE', #112, 0.04500000000000001221 ) ;
#251 = CARTESIAN_POINT ( 'NONE',  ( 0.0000000000000000000, 0.0000000000000000000, 0.2999999999999999889 ) ) ;
#252 = ORIENTED_EDGE ( 'NONE', *, *, #167, .F. ) ;
#253 = DIRECTION ( 'NONE',  ( 0.0000000000000000000, 0.0000000000000000000, 1.000000000000000000 ) ) ;
#254 = PRODUCT_RELATED_PRODUCT_CATEGORY ( 'part', '', ( #3 ) ) ;
#255 = APPLICATION_PROTOCOL_DEFINITION ( 'draft international standard', 'automotive_design', 1998, #329 ) ;
#256 = ADVANCED_BREP_SHAPE_REPRESENTATION ( 'Micro_KC-187-300-029', ( #142, #225 ), #264 ) ;
#257 = ADVANCED_FACE ( 'NONE', ( #367 ), #353, .T. ) ;
#258 = ORIENTED_EDGE ( 'NONE', *, *, #180, .T. ) ;
#259 = FACE_OUTER_BOUND ( 'NONE', #86, .T. ) ;
#260 = CIRCLE ( 'NONE', #60, 0.09375000000000001388 ) ;
#261 = LINE ( 'NONE', #234, #30 ) ;
#262 = CYLINDRICAL_SURFACE ( 'NONE', #203, 0.09375000000000001388 ) ;
#263 = PRESENTATION_STYLE_ASSIGNMENT (( #72 ) ) ;
#264 =( GEOMETRIC_REPRESENTATION_CONTEXT ( 3 ) GLOBAL_UNCERTAINTY_ASSIGNED_CONTEXT ( ( #331 ) ) GLOBAL_UNIT_ASSIGNED_CONTEXT ( ( #35, #321, #354 ) ) REPRESENTATION_CONTEXT ( 'NONE', 'WORKASPACE' ) );
#265 = FILL_AREA_STYLE_COLOUR ( '', #379 ) ;
#266 = CARTESIAN_POINT ( 'NONE',  ( -0.09375000000000001388, 0.0000000000000000000, 1.984999999999999654 ) ) ;
#267 = SURFACE_SIDE_STYLE ('',( #122 ) ) ;
#268 = DIRECTION ( 'NONE',  ( -1.000000000000000000, 0.0000000000000000000, 0.0000000000000000000 ) ) ;
#269 = ORIENTED_EDGE ( 'NONE', *, *, #143, .F. ) ;
#270 = CARTESIAN_POINT ( 'NONE',  ( 0.0000000000000000000, 0.0000000000000000000, 2.000000000000000000 ) ) ;
#271 = CIRCLE ( 'NONE', #114, 0.04500000000000003303 ) ;
#272 = ORIENTED_EDGE ( 'NONE', *, *, #143, .T. ) ;
#273 = CARTESIAN_POINT ( 'NONE',  ( -0.04500000000000003303, 5.510910596163093407E-18, 0.2999999999999999889 ) ) ;
#274 = ORIENTED_EDGE ( 'NONE', *, *, #180, .F. ) ;
#275 = LINE ( 'NONE', #336, #95 ) ;
#276 = EDGE_LOOP ( 'NONE', ( #364, #287, #47, #50 ) ) ;
#277 = DIRECTION ( 'NONE',  ( 1.000000000000000000, 0.0000000000000000000, 0.0000000000000000000 ) ) ;
#278 = FACE_OUTER_BOUND ( 'NONE', #276, .T. ) ;
#279 = DIRECTION ( 'NONE',  ( -0.0000000000000000000, -0.0000000000000000000, -1.000000000000000000 ) ) ;
#280 = ORIENTED_EDGE ( 'NONE', *, *, #346, .T. ) ;
#281 = CIRCLE ( 'NONE', #65, 0.09375000000000001388 ) ;
#282 = EDGE_CURVE ( 'NONE', #26, #135, #281, .T. ) ;
#283 = DIRECTION ( 'NONE',  ( -0.0000000000000000000, -0.0000000000000000000, -1.000000000000000000 ) ) ;
#284 = DIRECTION ( 'NONE',  ( 0.0000000000000000000, 0.0000000000000000000, 1.000000000000000000 ) ) ;
#285 = CIRCLE ( 'NONE', #125, 0.09375000000000001388 ) ;
#286 = AXIS2_PLACEMENT_3D ( 'NONE', #270, #58, #16 ) ;
#287 = ORIENTED_EDGE ( 'NONE', *, *, #120, .T. ) ;
#288 = DIRECTION ( 'NONE',  ( -0.0000000000000000000, -0.0000000000000000000, -1.000000000000000000 ) ) ;
#289 = EDGE_CURVE ( 'NONE', #103, #199, #118, .T. ) ;
#290 = DIRECTION ( 'NONE',  ( -0.0000000000000000000, -0.0000000000000000000, -1.000000000000000000 ) ) ;
#291 = VERTEX_POINT ( 'NONE', #330 ) ;
#292 = DIRECTION ( 'NONE',  ( -0.0000000000000000000, -0.0000000000000000000, -1.000000000000000000 ) ) ;
#293 = AXIS2_PLACEMENT_3D ( 'NONE', #249, #130, #155 ) ;
#294 = CARTESIAN_POINT ( 'NONE',  ( 0.0000000000000000000, 0.0000000000000000000, 2.000000000000000000 ) ) ;
#295 = ADVANCED_FACE ( 'NONE', ( #188 ), #21, .T. ) ;
#296 = ORIENTED_EDGE ( 'NONE', *, *, #115, .T. ) ;
#297 = DIRECTION ( 'NONE',  ( 0.0000000000000000000, 0.0000000000000000000, 1.000000000000000000 ) ) ;
#298 = APPLICATION_CONTEXT ( 'automotive_design' ) ;
#299 = EDGE_LOOP ( 'NONE', ( #360, #19, #166, #343 ) ) ;
#300 = APPLICATION_PROTOCOL_DEFINITION ( 'draft international standard', 'automotive_design', 1998, #298 ) ;
#301 = DIRECTION ( 'NONE',  ( -0.0000000000000000000, -0.0000000000000000000, -1.000000000000000000 ) ) ;
#302 = ORIENTED_EDGE ( 'NONE', *, *, #49, .T. ) ;
#303 = UNCERTAINTY_MEASURE_WITH_UNIT (LENGTH_MEASURE( 1.000000000000000082E-05 ), #133, 'distance_accuracy_value', 'NONE');
#304 = CARTESIAN_POINT ( 'NONE',  ( -0.09375000000000001388, 0.0000000000000000000, 0.3487499999999997824 ) ) ;
#305 = EDGE_CURVE ( 'NONE', #1, #209, #218, .T. ) ;
#306 = DIRECTION ( 'NONE',  ( -0.0000000000000000000, -0.0000000000000000000, -1.000000000000000000 ) ) ;
#307 = VERTEX_POINT ( 'NONE', #342 ) ;
#308 = EDGE_LOOP ( 'NONE', ( #83, #124 ) ) ;
#309 = STYLED_ITEM ( 'NONE', ( #263 ), #142 ) ;
#310 = CARTESIAN_POINT ( 'NONE',  ( 0.0000000000000000000, 0.0000000000000000000, 2.000000000000000000 ) ) ;
#311 = ADVANCED_FACE ( 'NONE', ( #77 ), #134, .F. ) ;
#312 = DIRECTION ( 'NONE',  ( -1.000000000000000000, 0.0000000000000000000, 0.0000000000000000000 ) ) ;
#313 = CIRCLE ( 'NONE', #233, 0.09375000000000001388 ) ;
#314 = EDGE_CURVE ( 'NONE', #366, #1, #131, .T. ) ;
#315 = CARTESIAN_POINT ( 'NONE',  ( 0.07874999999999980627, 9.644093543285380530E-18, 2.000000000000000000 ) ) ;
#316 = DIRECTION ( 'NONE',  ( -1.000000000000000000, 0.0000000000000000000, 0.0000000000000000000 ) ) ;
#317 = CARTESIAN_POINT ( 'NONE',  ( 0.0000000000000000000, 0.0000000000000000000, 0.3487499999999997824 ) ) ;
#318 = AXIS2_PLACEMENT_3D ( 'NONE', #242, #365, #104 ) ;
#319 = FACE_OUTER_BOUND ( 'NONE', #308, .T. ) ;
#320 = DIMENSIONAL_EXPONENTS ( 1.000000000000000000, 0.0000000000000000000, 0.0000000000000000000, 0.0000000000000000000, 0.0000000000000000000, 0.0000000000000000000, 0.0000000000000000000 ) ;
#321 =( NAMED_UNIT ( * ) PLANE_ANGLE_UNIT ( ) SI_UNIT ( $, .RADIAN. ) );
#322 = DIRECTION ( 'NONE',  ( -0.0000000000000000000, -0.0000000000000000000, -1.000000000000000000 ) ) ;
#323 = CARTESIAN_POINT ( 'NONE',  ( 0.09375000000000001388, 1.148106374200643863E-17, 0.02900000000000000147 ) ) ;
#324 = AXIS2_PLACEMENT_3D ( 'NONE', #169, #253, #341 ) ;
#325 = AXIS2_PLACEMENT_3D ( 'NONE', #111, #215, #340 ) ;
#326 = ORIENTED_EDGE ( 'NONE', *, *, #241, .T. ) ;
#327 = ORIENTED_EDGE ( 'NONE', *, *, #61, .T. ) ;
#328 = CARTESIAN_POINT ( 'NONE',  ( -0.04499999999999999833, 0.0000000000000000000, 0.02900000000000000494 ) ) ;
#329 = APPLICATION_CONTEXT ( 'automotive_design' ) ;
#330 = CARTESIAN_POINT ( 'NONE',  ( 0.04499999999999999833, 5.510910596163090326E-18, 0.02900000000000000494 ) ) ;
#331 = UNCERTAINTY_MEASURE_WITH_UNIT (LENGTH_MEASURE( 1.000000000000000082E-05 ), #35, 'distance_accuracy_value', 'NONE');
#332 = CARTESIAN_POINT ( 'NONE',  ( 0.0000000000000000000, 0.0000000000000000000, 0.2999999999999999889 ) ) ;
#333 = ORIENTED_EDGE ( 'NONE', *, *, #220, .T. ) ;
#334 = VECTOR ( 'NONE', #279, 39.37007874015748143 ) ;
#335 = DIRECTION ( 'NONE',  ( 0.0000000000000000000, 0.0000000000000000000, 1.000000000000000000 ) ) ;
#336 = CARTESIAN_POINT ( 'NONE',  ( 0.04500000000000003303, 0.0000000000000000000, 0.2999999999999999889 ) ) ;
#337 = EDGE_LOOP ( 'NONE', ( #213, #74, #327, #240 ) ) ;
#338 = ORIENTED_EDGE ( 'NONE', *, *, #346, .F. ) ;
#339 = PRODUCT_DEFINITION_CONTEXT ( 'detailed design', #298, 'design' ) ;
#340 = DIRECTION ( 'NONE',  ( 1.000000000000000000, 0.0000000000000000000, 0.0000000000000000000 ) ) ;
#341 = DIRECTION ( 'NONE',  ( 1.000000000000000000, 0.0000000000000000000, 0.0000000000000000000 ) ) ;
#342 = CARTESIAN_POINT ( 'NONE',  ( -0.09375000000000001388, 0.0000000000000000000, 0.0000000000000000000 ) ) ;
#343 = ORIENTED_EDGE ( 'NONE', *, *, #49, .F. ) ;
#344 = DIRECTION ( 'NONE',  ( -0.0000000000000000000, -0.0000000000000000000, -1.000000000000000000 ) ) ;
#345 = VECTOR ( 'NONE', #306, 39.37007874015748143 ) ;
#346 = EDGE_CURVE ( 'NONE', #291, #156, #66, .T. ) ;
#347 = CARTESIAN_POINT ( 'NONE',  ( 0.0000000000000000000, 0.0000000000000000000, 0.02900000000000000147 ) ) ;
#348 = CIRCLE ( 'NONE', #293, 0.04499999999999999833 ) ;
#349 = EDGE_CURVE ( 'NONE', #1, #156, #261, .T. ) ;
#350 = CARTESIAN_POINT ( 'NONE',  ( 0.07874999999999980627, 1.056257864264590573E-17, 2.000000000000000000 ) ) ;
#351 = DIRECTION ( 'NONE',  ( -1.000000000000000000, 0.0000000000000000000, 0.0000000000000000000 ) ) ;
#352 = FACE_BOUND ( 'NONE', #356, .T. ) ;
#353 = CONICAL_SURFACE ( 'NONE', #224, 0.04500000000000003303, 0.7853981633974506105 ) ;
#354 =( NAMED_UNIT ( * ) SI_UNIT ( $, .STERADIAN. ) SOLID_ANGLE_UNIT ( ) );
#355 = SURFACE_STYLE_FILL_AREA ( #96 ) ;
#356 = EDGE_LOOP ( 'NONE', ( #326, #280 ) ) ;
#357 = ORIENTED_EDGE ( 'NONE', *, *, #241, .F. ) ;
#358 = ORIENTED_EDGE ( 'NONE', *, *, #361, .T. ) ;
#359 = FACE_OUTER_BOUND ( 'NONE', #337, .T. ) ;
#360 = ORIENTED_EDGE ( 'NONE', *, *, #289, .F. ) ;
#361 = EDGE_CURVE ( 'NONE', #1, #366, #271, .T. ) ;
#362 = LENGTH_MEASURE_WITH_UNIT ( LENGTH_MEASURE( 0.02539999999999999897 ), #194 );
#363 = CARTESIAN_POINT ( 'NONE',  ( 0.0000000000000000000, 0.0000000000000000000, 0.02900000000000000147 ) ) ;
#364 = ORIENTED_EDGE ( 'NONE', *, *, #223, .F. ) ;
#365 = DIRECTION ( 'NONE',  ( 0.0000000000000000000, 0.0000000000000000000, 1.000000000000000000 ) ) ;
#366 = VERTEX_POINT ( 'NONE', #149 ) ;
#367 = FACE_OUTER_BOUND ( 'NONE', #43, .T. ) ;
#368 = ORIENTED_EDGE ( 'NONE', *, *, #33, .T. ) ;
#369 = LINE ( 'NONE', #315, #79 ) ;
#370 = CONICAL_SURFACE ( 'NONE', #286, 0.07874999999999980627, 0.7853981633974466137 ) ;
#371 = CARTESIAN_POINT ( 'NONE',  ( 0.0000000000000000000, 0.0000000000000000000, 0.0000000000000000000 ) ) ;
#372 = LINE ( 'NONE', #109, #345 ) ;
#373 = EDGE_LOOP ( 'NONE', ( #181, #210 ) ) ;
#374 = DIRECTION ( 'NONE',  ( 0.0000000000000000000, 0.0000000000000000000, -1.000000000000000000 ) ) ;
#375 = DIRECTION ( 'NONE',  ( -1.000000000000000000, 0.0000000000000000000, 0.0000000000000000000 ) ) ;
#376 = ORIENTED_EDGE ( 'NONE', *, *, #171, .T. ) ;
#377 = CARTESIAN_POINT ( 'NONE',  ( 0.04500000000000001221, 5.510910596163091096E-18, 0.0000000000000000000 ) ) ;
#378 = CONICAL_SURFACE ( 'NONE', #197, 0.07874999999999980627, 0.7853981633974466137 ) ;
#379 = COLOUR_RGB ( '',0.7921568627450980005, 0.8196078431372548767, 0.9333333333333333481 ) ;
ENDSEC;
END-ISO-10303-21;
