ISO-10303-21;
HEADER;
FILE_DESCRIPTION (( 'STEP AP214' ),
    '1' );
FILE_NAME ('59500.STEP',
    '2023-07-24T15:08:01',
    ( '' ),
    ( '' ),
    'SwSTEP 2.0',
    'SolidWorks 2023',
    '' );
FILE_SCHEMA (( 'AUTOMOTIVE_DESIGN' ));
ENDSEC;

DATA;
#1 = CARTESIAN_POINT ( 'NONE',  ( 0.000000000000000000, 0.000000000000000000, -6.000000000000000000 ) ) ;
#2 = FILL_AREA_STYLE ('',( #250 ) ) ;
#3 = DIRECTION ( 'NONE',  ( 0.000000000000000000, 0.000000000000000000, -1.000000000000000000 ) ) ;
#4 =( LENGTH_UNIT ( ) NAMED_UNIT ( * ) SI_UNIT ( .MILLI., .METRE. ) );
#5 =( NAMED_UNIT ( * ) SI_UNIT ( $, .STERADIAN. ) SOLID_ANGLE_UNIT ( ) );
#6 = PRESENTATION_LAYER_ASSIGNMENT (  '', '', ( #136 ) ) ;
#7 = FILL_AREA_STYLE_COLOUR ( '', #150 ) ;
#8 = VERTEX_POINT ( 'NONE', #288 ) ;
#9 = CARTESIAN_POINT ( 'NONE',  ( 0.000000000000000000, 0.000000000000000000, -5.500000000000000000 ) ) ;
#10 = CARTESIAN_POINT ( 'NONE',  ( 6.123233995736762930E-15, 75.00000000000000000, 0.000000000000000000 ) ) ;
#11 = SURFACE_SIDE_STYLE ('',( #153 ) ) ;
#12 = CARTESIAN_POINT ( 'NONE',  ( 5.421010862427522170E-15, 30.00000000000000000, 0.000000000000000000 ) ) ;
#13 =( NAMED_UNIT ( * ) SI_UNIT ( $, .STERADIAN. ) SOLID_ANGLE_UNIT ( ) );
#14 = ORIENTED_EDGE ( 'NONE', *, *, #306, .T. ) ;
#15 = DIRECTION ( 'NONE',  ( -1.000000000000000000, 0.000000000000000000, 0.000000000000000000 ) ) ;
#16 = AXIS2_PLACEMENT_3D ( 'NONE', #254, #249, #229 ) ;
#17 = ORIENTED_EDGE ( 'NONE', *, *, #161, .F. ) ;
#18 = ADVANCED_FACE ( 'NONE', ( #329 ), #275, .T. ) ;
#19 = ADVANCED_BREP_SHAPE_REPRESENTATION ( '59500', ( #333, #75, #217 ), #274 ) ;
#20 = CIRCLE ( 'NONE', #318, 5.999999999999994671 ) ;
#21 = AXIS2_PLACEMENT_3D ( 'NONE', #12, #295, #231 ) ;
#22 = MECHANICAL_DESIGN_GEOMETRIC_PRESENTATION_REPRESENTATION (  '', ( #51 ), #251 ) ;
#23 = DIRECTION ( 'NONE',  ( -0.000000000000000000, -1.000000000000000000, -0.000000000000000000 ) ) ;
#24 = DIRECTION ( 'NONE',  ( -0.000000000000000000, -1.000000000000000000, -0.000000000000000000 ) ) ;
#25 = LINE ( 'NONE', #246, #203 ) ;
#26 = ORIENTED_EDGE ( 'NONE', *, *, #307, .F. ) ;
#27 = SURFACE_SIDE_STYLE ('',( #285 ) ) ;
#28 = SURFACE_STYLE_USAGE ( .BOTH. , #350 ) ;
#29 = ORIENTED_EDGE ( 'NONE', *, *, #161, .T. ) ;
#30 = CARTESIAN_POINT ( 'NONE',  ( 5.421010862427522170E-15, 30.00000000000000000, 0.000000000000000000 ) ) ;
#31 = CARTESIAN_POINT ( 'NONE',  ( 0.000000000000000000, 0.5000000000000000000, 0.000000000000000000 ) ) ;
#32 = PRESENTATION_LAYER_ASSIGNMENT (  '', '', ( #273 ) ) ;
#33 = FILL_AREA_STYLE ('',( #174 ) ) ;
#34 = VECTOR ( 'NONE', #221, 1000.000000000000000 ) ;
#35 = EDGE_LOOP ( 'NONE', ( #121, #89 ) ) ;
#36 = DIRECTION ( 'NONE',  ( 0.000000000000000000, 0.000000000000000000, -1.000000000000000000 ) ) ;
#37 = STYLED_ITEM ( 'NONE', ( #180 ), #47 ) ;
#38 = DIRECTION ( 'NONE',  ( 0.000000000000000000, -1.000000000000000000, -0.000000000000000000 ) ) ;
#39 = SURFACE_STYLE_FILL_AREA ( #263 ) ;
#40 = VERTEX_POINT ( 'NONE', #125 ) ;
#41 = CARTESIAN_POINT ( 'NONE',  ( 0.000000000000000000, 0.5000000000000000000, 0.000000000000000000 ) ) ;
#42 = APPLICATION_PROTOCOL_DEFINITION ( 'draft international standard', 'automotive_design', 1998, #188 ) ;
#43 = COLOUR_RGB ( '',0.7921568627450980005, 0.8196078431372548767, 0.9333333333333333481 ) ;
#44 = CARTESIAN_POINT ( 'NONE',  ( 7.347880794884119736E-16, 0.000000000000000000, 6.000000000000000000 ) ) ;
#45 = CARTESIAN_POINT ( 'NONE',  ( 6.123233995736762930E-15, 75.00000000000000000, 0.000000000000000000 ) ) ;
#46 = EDGE_CURVE ( 'NONE', #181, #40, #334, .T. ) ;
#47 = ADVANCED_FACE ( 'NONE', ( #144 ), #148, .T. ) ;
#48 = DIRECTION ( 'NONE',  ( -1.000000000000000000, 0.000000000000000000, 0.000000000000000000 ) ) ;
#49 = FACE_OUTER_BOUND ( 'NONE', #321, .T. ) ;
#50 = COLOUR_RGB ( '',1.000000000000000000, 0.000000000000000000, 0.000000000000000000 ) ;
#51 = STYLED_ITEM ( 'NONE', ( #53 ), #70 ) ;
#52 = DIRECTION ( 'NONE',  ( 0.000000000000000000, 0.000000000000000000, -1.000000000000000000 ) ) ;
#53 = PRESENTATION_STYLE_ASSIGNMENT (( #28 ) ) ;
#54 = CARTESIAN_POINT ( 'NONE',  ( 0.000000000000000000, 30.00000000000000000, 0.000000000000000000 ) ) ;
#55 = LINE ( 'NONE', #44, #309 ) ;
#56 = ORIENTED_EDGE ( 'NONE', *, *, #187, .F. ) ;
#57 = SURFACE_STYLE_USAGE ( .BOTH. , #82 ) ;
#58 = CARTESIAN_POINT ( 'NONE',  ( 0.000000000000000000, 30.00000000000000000, 0.000000000000000000 ) ) ;
#59 = SURFACE_STYLE_USAGE ( .BOTH. , #120 ) ;
#60 =( LENGTH_UNIT ( ) NAMED_UNIT ( * ) SI_UNIT ( .MILLI., .METRE. ) );
#61 = DIRECTION ( 'NONE',  ( 0.000000000000000000, 0.000000000000000000, -1.000000000000000000 ) ) ;
#62 = AXIS2_PLACEMENT_3D ( 'NONE', #54, #24, #227 ) ;
#63 = DIRECTION ( 'NONE',  ( 0.000000000000000000, 0.000000000000000000, -1.000000000000000000 ) ) ;
#64 = ORIENTED_EDGE ( 'NONE', *, *, #137, .F. ) ;
#65 = EDGE_CURVE ( 'NONE', #293, #181, #114, .T. ) ;
#66 = EDGE_CURVE ( 'NONE', #99, #8, #106, .T. ) ;
#67 = DIRECTION ( 'NONE',  ( -0.000000000000000000, -1.000000000000000000, -0.000000000000000000 ) ) ;
#68 = UNCERTAINTY_MEASURE_WITH_UNIT (LENGTH_MEASURE( 1.000000000000000082E-05 ), #4, 'distance_accuracy_value', 'NONE');
#69 = MECHANICAL_DESIGN_GEOMETRIC_PRESENTATION_REPRESENTATION (  '', ( #225 ), #237 ) ;
#70 = ADVANCED_FACE ( 'NONE', ( #296 ), #291, .T. ) ;
#71 =( GEOMETRIC_REPRESENTATION_CONTEXT ( 3 ) GLOBAL_UNCERTAINTY_ASSIGNED_CONTEXT ( ( #162 ) ) GLOBAL_UNIT_ASSIGNED_CONTEXT ( ( #60, #95, #169 ) ) REPRESENTATION_CONTEXT ( 'NONE', 'WORKASPACE' ) );
#72 = AXIS2_PLACEMENT_3D ( 'NONE', #115, #124, #63 ) ;
#73 = CIRCLE ( 'NONE', #117, 6.000000000000000000 ) ;
#74 = ORIENTED_EDGE ( 'NONE', *, *, #103, .F. ) ;
#75 = MANIFOLD_SOLID_BREP ( 'Revolve - Tool Body (Straight Shanked)', #185 ) ;
#76 = CIRCLE ( 'NONE', #310, 5.999999999999993783 ) ;
#77 = CARTESIAN_POINT ( 'NONE',  ( 6.000000000000000888, 75.00000000000000000, 7.347880794884112834E-16 ) ) ;
#78 = ORIENTED_EDGE ( 'NONE', *, *, #272, .F. ) ;
#79 = PRESENTATION_LAYER_ASSIGNMENT (  '', '', ( #37 ) ) ;
#80 = FILL_AREA_STYLE_COLOUR ( '', #191 ) ;
#81 = DIRECTION ( 'NONE',  ( 0.000000000000000000, 0.000000000000000000, -1.000000000000000000 ) ) ;
#82 = SURFACE_SIDE_STYLE ('',( #193 ) ) ;
#83 = FACE_OUTER_BOUND ( 'NONE', #322, .T. ) ;
#84 = SURFACE_STYLE_FILL_AREA ( #342 ) ;
#85 = AXIS2_PLACEMENT_3D ( 'NONE', #197, #38, #317 ) ;
#86 = CARTESIAN_POINT ( 'NONE',  ( 5.421010862427522170E-15, 30.00000000000000000, 0.000000000000000000 ) ) ;
#87 = SURFACE_STYLE_USAGE ( .BOTH. , #219 ) ;
#88 = DIRECTION ( 'NONE',  ( 0.000000000000000000, 0.000000000000000000, -1.000000000000000000 ) ) ;
#89 = ORIENTED_EDGE ( 'NONE', *, *, #236, .T. ) ;
#90 = DIRECTION ( 'NONE',  ( -0.000000000000000000, -1.000000000000000000, -0.000000000000000000 ) ) ;
#91 = CARTESIAN_POINT ( 'NONE',  ( 0.000000000000000000, 0.000000000000000000, 0.000000000000000000 ) ) ;
#92 =( GEOMETRIC_REPRESENTATION_CONTEXT ( 3 ) GLOBAL_UNCERTAINTY_ASSIGNED_CONTEXT ( ( #308 ) ) GLOBAL_UNIT_ASSIGNED_CONTEXT ( ( #357, #113, #248 ) ) REPRESENTATION_CONTEXT ( 'NONE', 'WORKASPACE' ) );
#93 =( NAMED_UNIT ( * ) PLANE_ANGLE_UNIT ( ) SI_UNIT ( $, .RADIAN. ) );
#94 = DIRECTION ( 'NONE',  ( -0.000000000000000000, -1.000000000000000000, -0.000000000000000000 ) ) ;
#95 =( NAMED_UNIT ( * ) PLANE_ANGLE_UNIT ( ) SI_UNIT ( $, .RADIAN. ) );
#96 = COLOUR_RGB ( '',1.000000000000000000, 0.000000000000000000, 0.000000000000000000 ) ;
#97 = EDGE_LOOP ( 'NONE', ( #74, #29, #252, #200 ) ) ;
#98 = UNCERTAINTY_MEASURE_WITH_UNIT (LENGTH_MEASURE( 1.000000000000000082E-05 ), #312, 'distance_accuracy_value', 'NONE');
#99 = VERTEX_POINT ( 'NONE', #335 ) ;
#100 = PRESENTATION_LAYER_ASSIGNMENT (  '', '', ( #225 ) ) ;
#101 = PRESENTATION_LAYER_ASSIGNMENT (  '', '', ( #264 ) ) ;
#102 = AXIS2_PLACEMENT_3D ( 'NONE', #183, #94, #88 ) ;
#103 = EDGE_CURVE ( 'NONE', #8, #157, #55, .T. ) ;
#104 = PRESENTATION_STYLE_ASSIGNMENT (( #142 ) ) ;
#105 = EDGE_LOOP ( 'NONE', ( #261, #300 ) ) ;
#106 = CIRCLE ( 'NONE', #370, 6.000000000000000000 ) ;
#107 = PRESENTATION_STYLE_ASSIGNMENT (( #87 ) ) ;
#108 = PRODUCT ( '59500', '59500', '', ( #260 ) ) ;
#109 = CIRCLE ( 'NONE', #241, 6.000000000000000000 ) ;
#110 = DIRECTION ( 'NONE',  ( 1.560495851798313744E-17, 1.000000000000000000, -0.000000000000000000 ) ) ;
#111 = DIRECTION ( 'NONE',  ( -1.560495851798313744E-17, -1.000000000000000000, 0.000000000000000000 ) ) ;
#112 = LINE ( 'NONE', #77, #34 ) ;
#113 =( NAMED_UNIT ( * ) PLANE_ANGLE_UNIT ( ) SI_UNIT ( $, .RADIAN. ) );
#114 = CIRCLE ( 'NONE', #336, 0.5000000000000004441 ) ;
#115 = CARTESIAN_POINT ( 'NONE',  ( 0.000000000000000000, 0.000000000000000000, 0.000000000000000000 ) ) ;
#116 = VERTEX_POINT ( 'NONE', #173 ) ;
#117 = AXIS2_PLACEMENT_3D ( 'NONE', #178, #90, #36 ) ;
#118 = CARTESIAN_POINT ( 'NONE',  ( 6.000000000000000000, 75.00000000000000000, 7.347880794884112834E-16 ) ) ;
#119 = DIRECTION ( 'NONE',  ( 1.560495851798313744E-17, 1.000000000000000000, -0.000000000000000000 ) ) ;
#120 = SURFACE_SIDE_STYLE ('',( #368 ) ) ;
#121 = ORIENTED_EDGE ( 'NONE', *, *, #369, .T. ) ;
#122 = AXIS2_PLACEMENT_3D ( 'NONE', #41, #67, #267 ) ;
#123 = DIRECTION ( 'NONE',  ( 1.560495851798313744E-17, 1.000000000000000000, -0.000000000000000000 ) ) ;
#124 = DIRECTION ( 'NONE',  ( -0.000000000000000000, -1.000000000000000000, -0.000000000000000000 ) ) ;
#125 = CARTESIAN_POINT ( 'NONE',  ( 7.041719095097280880E-16, 0.000000000000000000, 5.500000000000000000 ) ) ;
#126 = EDGE_CURVE ( 'NONE', #331, #235, #20, .T. ) ;
#127 = PRESENTATION_STYLE_ASSIGNMENT (( #354 ) ) ;
#128 = ORIENTED_EDGE ( 'NONE', *, *, #134, .T. ) ;
#129 =( LENGTH_UNIT ( ) NAMED_UNIT ( * ) SI_UNIT ( .MILLI., .METRE. ) );
#130 = AXIS2_PLACEMENT_3D ( 'NONE', #289, #151, #258 ) ;
#131 = MECHANICAL_DESIGN_GEOMETRIC_PRESENTATION_REPRESENTATION (  '', ( #37 ), #92 ) ;
#132 = TOROIDAL_SURFACE ( 'NONE', #346, 5.500000000000000000, 0.5000000000000002220 ) ;
#133 = MECHANICAL_DESIGN_GEOMETRIC_PRESENTATION_REPRESENTATION (  '', ( #264 ), #71 ) ;
#134 = EDGE_CURVE ( 'NONE', #157, #40, #216, .T. ) ;
#135 = VERTEX_POINT ( 'NONE', #118 ) ;
#136 = STYLED_ITEM ( 'NONE', ( #104 ), #212 ) ;
#137 = EDGE_CURVE ( 'NONE', #99, #293, #277, .T. ) ;
#138 = DIRECTION ( 'NONE',  ( -1.000000000000000000, 0.000000000000000000, 0.000000000000000000 ) ) ;
#139 = DIRECTION ( 'NONE',  ( -1.000000000000000000, 0.000000000000000000, 0.000000000000000000 ) ) ;
#140 = CARTESIAN_POINT ( 'NONE',  ( 6.123233995736762930E-15, 75.00000000000000000, 0.000000000000000000 ) ) ;
#141 = ADVANCED_FACE ( 'NONE', ( #245 ), #367, .F. ) ;
#142 = SURFACE_STYLE_USAGE ( .BOTH. , #27 ) ;
#143 = CYLINDRICAL_SURFACE ( 'NONE', #195, 5.999999999999994671 ) ;
#144 = FACE_OUTER_BOUND ( 'NONE', #97, .T. ) ;
#145 = ORIENTED_EDGE ( 'NONE', *, *, #65, .F. ) ;
#146 = CIRCLE ( 'NONE', #62, 6.000000000000000000 ) ;
#147 = MECHANICAL_DESIGN_GEOMETRIC_PRESENTATION_REPRESENTATION (  '', ( #327 ), #164 ) ;
#148 = CYLINDRICAL_SURFACE ( 'NONE', #72, 6.000000000000000000 ) ;
#149 = ORIENTED_EDGE ( 'NONE', *, *, #242, .T. ) ;
#150 = COLOUR_RGB ( '',1.000000000000000000, 0.000000000000000000, 0.000000000000000000 ) ;
#151 = DIRECTION ( 'NONE',  ( 1.560495851798313744E-17, 1.000000000000000000, -0.000000000000000000 ) ) ;
#152 =( LENGTH_UNIT ( ) NAMED_UNIT ( * ) SI_UNIT ( .MILLI., .METRE. ) );
#153 = SURFACE_STYLE_FILL_AREA ( #33 ) ;
#154 = SHAPE_DEFINITION_REPRESENTATION ( #278, #19 ) ;
#155 = FILL_AREA_STYLE_COLOUR ( '', #345 ) ;
#156 = FILL_AREA_STYLE_COLOUR ( '', #238 ) ;
#157 = VERTEX_POINT ( 'NONE', #167 ) ;
#158 = DIRECTION ( 'NONE',  ( 0.000000000000000000, 0.000000000000000000, 1.000000000000000000 ) ) ;
#159 = UNCERTAINTY_MEASURE_WITH_UNIT (LENGTH_MEASURE( 1.000000000000000082E-05 ), #340, 'distance_accuracy_value', 'NONE');
#160 = AXIS2_PLACEMENT_3D ( 'NONE', #58, #168, #366 ) ;
#161 = EDGE_CURVE ( 'NONE', #8, #99, #146, .T. ) ;
#162 = UNCERTAINTY_MEASURE_WITH_UNIT (LENGTH_MEASURE( 1.000000000000000082E-05 ), #60, 'distance_accuracy_value', 'NONE');
#163 = MECHANICAL_DESIGN_GEOMETRIC_PRESENTATION_REPRESENTATION (  '', ( #273 ), #292 ) ;
#164 =( GEOMETRIC_REPRESENTATION_CONTEXT ( 3 ) GLOBAL_UNCERTAINTY_ASSIGNED_CONTEXT ( ( #330 ) ) GLOBAL_UNIT_ASSIGNED_CONTEXT ( ( #129, #255, #233 ) ) REPRESENTATION_CONTEXT ( 'NONE', 'WORKASPACE' ) );
#165 =( NAMED_UNIT ( * ) SI_UNIT ( $, .STERADIAN. ) SOLID_ANGLE_UNIT ( ) );
#166 = DIRECTION ( 'NONE',  ( 1.560495851798313744E-17, 1.000000000000000000, -0.000000000000000000 ) ) ;
#167 = CARTESIAN_POINT ( 'NONE',  ( 7.347880794884119736E-16, 0.5000000000000000000, 6.000000000000000000 ) ) ;
#168 = DIRECTION ( 'NONE',  ( 0.000000000000000000, 1.000000000000000000, 0.000000000000000000 ) ) ;
#169 =( NAMED_UNIT ( * ) SI_UNIT ( $, .STERADIAN. ) SOLID_ANGLE_UNIT ( ) );
#170 = DIRECTION ( 'NONE',  ( -0.000000000000000000, -1.000000000000000000, -0.000000000000000000 ) ) ;
#171 = PLANE ( 'NONE',  #160 ) ;
#172 = EDGE_LOOP ( 'NONE', ( #297, #17 ) ) ;
#173 = CARTESIAN_POINT ( 'NONE',  ( -5.999999999999987566, 75.00000000000000000, 0.000000000000000000 ) ) ;
#174 = FILL_AREA_STYLE_COLOUR ( '', #43 ) ;
#175 = PRODUCT_RELATED_PRODUCT_CATEGORY ( 'part', '', ( #108 ) ) ;
#176 = ORIENTED_EDGE ( 'NONE', *, *, #103, .T. ) ;
#177 = AXIS2_PLACEMENT_3D ( 'NONE', #45, #110, #139 ) ;
#178 = CARTESIAN_POINT ( 'NONE',  ( 0.000000000000000000, 0.5000000000000000000, 0.000000000000000000 ) ) ;
#179 = SURFACE_STYLE_USAGE ( .BOTH. , #323 ) ;
#180 = PRESENTATION_STYLE_ASSIGNMENT (( #59 ) ) ;
#181 = VERTEX_POINT ( 'NONE', #9 ) ;
#182 = ORIENTED_EDGE ( 'NONE', *, *, #206, .T. ) ;
#183 = CARTESIAN_POINT ( 'NONE',  ( 0.000000000000000000, 0.000000000000000000, 0.000000000000000000 ) ) ;
#184 = MECHANICAL_DESIGN_GEOMETRIC_PRESENTATION_REPRESENTATION (  '', ( #136 ), #244 ) ;
#185 = CLOSED_SHELL ( 'NONE', ( #214, #311, #209, #141 ) ) ;
#186 = CARTESIAN_POINT ( 'NONE',  ( 0.000000000000000000, 0.000000000000000000, 0.000000000000000000 ) ) ;
#187 = EDGE_CURVE ( 'NONE', #235, #331, #301, .T. ) ;
#188 = APPLICATION_CONTEXT ( 'automotive_design' ) ;
#189 = ADVANCED_FACE ( 'NONE', ( #220 ), #132, .T. ) ;
#190 = CIRCLE ( 'NONE', #177, 5.999999999999993783 ) ;
#191 = COLOUR_RGB ( '',1.000000000000000000, 0.000000000000000000, 0.000000000000000000 ) ;
#192 = DIRECTION ( 'NONE',  ( 0.000000000000000000, 0.000000000000000000, -1.000000000000000000 ) ) ;
#193 = SURFACE_STYLE_FILL_AREA ( #319 ) ;
#194 = DIRECTION ( 'NONE',  ( -0.000000000000000000, -1.000000000000000000, -0.000000000000000000 ) ) ;
#195 = AXIS2_PLACEMENT_3D ( 'NONE', #140, #119, #290 ) ;
#196 = FILL_AREA_STYLE ('',( #218 ) ) ;
#197 = CARTESIAN_POINT ( 'NONE',  ( 0.000000000000000000, 0.000000000000000000, 0.000000000000000000 ) ) ;
#198 = ORIENTED_EDGE ( 'NONE', *, *, #369, .F. ) ;
#199 = FACE_OUTER_BOUND ( 'NONE', #362, .T. ) ;
#200 = ORIENTED_EDGE ( 'NONE', *, *, #242, .F. ) ;
#201 = FILL_AREA_STYLE_COLOUR ( '', #50 ) ;
#202 = PRESENTATION_LAYER_ASSIGNMENT (  '', '', ( #325 ) ) ;
#203 = VECTOR ( 'NONE', #337, 1000.000000000000000 ) ;
#204 = SURFACE_STYLE_FILL_AREA ( #356 ) ;
#205 =( NAMED_UNIT ( * ) PLANE_ANGLE_UNIT ( ) SI_UNIT ( $, .RADIAN. ) );
#206 = EDGE_CURVE ( 'NONE', #293, #157, #73, .T. ) ;
#207 = EDGE_LOOP ( 'NONE', ( #182, #128, #239, #145 ) ) ;
#208 = ORIENTED_EDGE ( 'NONE', *, *, #206, .F. ) ;
#209 = ADVANCED_FACE ( 'NONE', ( #199 ), #294, .T. ) ;
#210 = PRODUCT_DEFINITION_CONTEXT ( 'detailed design', #188, 'design' ) ;
#211 = PRESENTATION_LAYER_ASSIGNMENT (  '', '', ( #51 ) ) ;
#212 = ADVANCED_FACE ( 'NONE', ( #313 ), #171, .T. ) ;
#213 = ORIENTED_EDGE ( 'NONE', *, *, #187, .T. ) ;
#214 = ADVANCED_FACE ( 'NONE', ( #344 ), #143, .T. ) ;
#215 = CARTESIAN_POINT ( 'NONE',  ( 0.000000000000000000, 0.5000000000000000000, -6.000000000000000000 ) ) ;
#216 = CIRCLE ( 'NONE', #16, 0.5000000000000004441 ) ;
#217 = AXIS2_PLACEMENT_3D ( 'NONE', #186, #158, #328 ) ;
#218 = FILL_AREA_STYLE_COLOUR ( '', #270 ) ;
#219 = SURFACE_SIDE_STYLE ('',( #276 ) ) ;
#220 = FACE_OUTER_BOUND ( 'NONE', #284, .T. ) ;
#221 = DIRECTION ( 'NONE',  ( 1.560495851798313744E-17, 1.000000000000000000, -0.000000000000000000 ) ) ;
#222 = PRESENTATION_STYLE_ASSIGNMENT (( #57 ) ) ;
#223 = DIRECTION ( 'NONE',  ( -0.000000000000000000, -1.000000000000000000, -0.000000000000000000 ) ) ;
#224 = DIRECTION ( 'NONE',  ( -1.000000000000000000, 0.000000000000000000, 0.000000000000000000 ) ) ;
#225 = STYLED_ITEM ( 'NONE', ( #127 ), #75 ) ;
#226 = ORIENTED_EDGE ( 'NONE', *, *, #126, .T. ) ;
#227 = DIRECTION ( 'NONE',  ( 0.000000000000000000, 0.000000000000000000, -1.000000000000000000 ) ) ;
#228 = ORIENTED_EDGE ( 'NONE', *, *, #134, .F. ) ;
#229 = DIRECTION ( 'NONE',  ( -1.224646799147353454E-16, 0.000000000000000000, -1.000000000000000000 ) ) ;
#230 = DIRECTION ( 'NONE',  ( 0.000000000000000000, 0.000000000000000000, 1.000000000000000000 ) ) ;
#231 = DIRECTION ( 'NONE',  ( -1.000000000000000000, 1.560495851798313744E-17, 0.000000000000000000 ) ) ;
#232 = ORIENTED_EDGE ( 'NONE', *, *, #65, .T. ) ;
#233 =( NAMED_UNIT ( * ) SI_UNIT ( $, .STERADIAN. ) SOLID_ANGLE_UNIT ( ) );
#234 = UNCERTAINTY_MEASURE_WITH_UNIT (LENGTH_MEASURE( 1.000000000000000082E-05 ), #324, 'distance_accuracy_value', 'NONE');
#235 = VERTEX_POINT ( 'NONE', #316 ) ;
#236 = EDGE_CURVE ( 'NONE', #135, #116, #190, .T. ) ;
#237 =( GEOMETRIC_REPRESENTATION_CONTEXT ( 3 ) GLOBAL_UNCERTAINTY_ASSIGNED_CONTEXT ( ( #303 ) ) GLOBAL_UNIT_ASSIGNED_CONTEXT ( ( #280, #305, #165 ) ) REPRESENTATION_CONTEXT ( 'NONE', 'WORKASPACE' ) );
#238 = COLOUR_RGB ( '',0.7921568627450980005, 0.8196078431372548767, 0.9333333333333333481 ) ;
#239 = ORIENTED_EDGE ( 'NONE', *, *, #46, .F. ) ;
#240 =( GEOMETRIC_REPRESENTATION_CONTEXT ( 3 ) GLOBAL_UNCERTAINTY_ASSIGNED_CONTEXT ( ( #98 ) ) GLOBAL_UNIT_ASSIGNED_CONTEXT ( ( #312, #286, #5 ) ) REPRESENTATION_CONTEXT ( 'NONE', 'WORKASPACE' ) );
#241 = AXIS2_PLACEMENT_3D ( 'NONE', #31, #247, #52 ) ;
#242 = EDGE_CURVE ( 'NONE', #157, #293, #109, .T. ) ;
#243 = ADVANCED_FACE ( 'NONE', ( #49 ), #279, .T. ) ;
#244 =( GEOMETRIC_REPRESENTATION_CONTEXT ( 3 ) GLOBAL_UNCERTAINTY_ASSIGNED_CONTEXT ( ( #159 ) ) GLOBAL_UNIT_ASSIGNED_CONTEXT ( ( #340, #314, #320 ) ) REPRESENTATION_CONTEXT ( 'NONE', 'WORKASPACE' ) );
#245 = FACE_OUTER_BOUND ( 'NONE', #35, .T. ) ;
#246 = CARTESIAN_POINT ( 'NONE',  ( -5.999999999999988454, 75.00000000000000000, 0.000000000000000000 ) ) ;
#247 = DIRECTION ( 'NONE',  ( -0.000000000000000000, -1.000000000000000000, -0.000000000000000000 ) ) ;
#248 =( NAMED_UNIT ( * ) SI_UNIT ( $, .STERADIAN. ) SOLID_ANGLE_UNIT ( ) );
#249 = DIRECTION ( 'NONE',  ( 1.000000000000000000, 0.000000000000000000, -1.224646799147353207E-16 ) ) ;
#250 = FILL_AREA_STYLE_COLOUR ( '', #96 ) ;
#251 =( GEOMETRIC_REPRESENTATION_CONTEXT ( 3 ) GLOBAL_UNCERTAINTY_ASSIGNED_CONTEXT ( ( #234 ) ) GLOBAL_UNIT_ASSIGNED_CONTEXT ( ( #324, #205, #13 ) ) REPRESENTATION_CONTEXT ( 'NONE', 'WORKASPACE' ) );
#252 = ORIENTED_EDGE ( 'NONE', *, *, #137, .T. ) ;
#253 = CIRCLE ( 'NONE', #302, 5.500000000000000000 ) ;
#254 = CARTESIAN_POINT ( 'NONE',  ( 6.735557395310442023E-16, 0.5000000000000000000, 5.500000000000000000 ) ) ;
#255 =( NAMED_UNIT ( * ) PLANE_ANGLE_UNIT ( ) SI_UNIT ( $, .RADIAN. ) );
#256 = CARTESIAN_POINT ( 'NONE',  ( 0.000000000000000000, 0.5000000000000000000, -5.500000000000000000 ) ) ;
#257 = SURFACE_SIDE_STYLE ('',( #39 ) ) ;
#258 = DIRECTION ( 'NONE',  ( -1.000000000000000000, 0.000000000000000000, 0.000000000000000000 ) ) ;
#259 =( NAMED_UNIT ( * ) PLANE_ANGLE_UNIT ( ) SI_UNIT ( $, .RADIAN. ) );
#260 = PRODUCT_CONTEXT ( 'NONE', #365, 'mechanical' ) ;
#261 = ORIENTED_EDGE ( 'NONE', *, *, #46, .T. ) ;
#262 = CARTESIAN_POINT ( 'NONE',  ( 6.000000000000000000, 30.00000000000000000, 7.347880794884112834E-16 ) ) ;
#263 = FILL_AREA_STYLE ('',( #155 ) ) ;
#264 = STYLED_ITEM ( 'NONE', ( #351 ), #18 ) ;
#265 = AXIS2_PLACEMENT_3D ( 'NONE', #339, #111, #352 ) ;
#266 = UNCERTAINTY_MEASURE_WITH_UNIT (LENGTH_MEASURE( 1.000000000000000082E-05 ), #152, 'distance_accuracy_value', 'NONE');
#267 = DIRECTION ( 'NONE',  ( 0.000000000000000000, 0.000000000000000000, -1.000000000000000000 ) ) ;
#268 =( NAMED_UNIT ( * ) SI_UNIT ( $, .STERADIAN. ) SOLID_ANGLE_UNIT ( ) );
#269 = ORIENTED_EDGE ( 'NONE', *, *, #126, .F. ) ;
#270 = COLOUR_RGB ( '',1.000000000000000000, 0.000000000000000000, 0.000000000000000000 ) ;
#271 = ORIENTED_EDGE ( 'NONE', *, *, #307, .T. ) ;
#272 = EDGE_CURVE ( 'NONE', #40, #181, #253, .T. ) ;
#273 = STYLED_ITEM ( 'NONE', ( #222 ), #189 ) ;
#274 =( GEOMETRIC_REPRESENTATION_CONTEXT ( 3 ) GLOBAL_UNCERTAINTY_ASSIGNED_CONTEXT ( ( #266 ) ) GLOBAL_UNIT_ASSIGNED_CONTEXT ( ( #152, #259, #268 ) ) REPRESENTATION_CONTEXT ( 'NONE', 'WORKASPACE' ) );
#275 = TOROIDAL_SURFACE ( 'NONE', #122, 5.500000000000000000, 0.5000000000000002220 ) ;
#276 = SURFACE_STYLE_FILL_AREA ( #2 ) ;
#277 = LINE ( 'NONE', #1, #364 ) ;
#278 = PRODUCT_DEFINITION_SHAPE ( 'NONE', 'NONE',  #363 ) ;
#279 = CYLINDRICAL_SURFACE ( 'NONE', #338, 6.000000000000000000 ) ;
#280 =( LENGTH_UNIT ( ) NAMED_UNIT ( * ) SI_UNIT ( .MILLI., .METRE. ) );
#281 = CLOSED_SHELL ( 'NONE', ( #243, #18, #70, #189, #47, #212 ) ) ;
#282 =( NAMED_UNIT ( * ) SI_UNIT ( $, .STERADIAN. ) SOLID_ANGLE_UNIT ( ) );
#283 = FILL_AREA_STYLE ('',( #7 ) ) ;
#284 = EDGE_LOOP ( 'NONE', ( #228, #149, #232, #78 ) ) ;
#285 = SURFACE_STYLE_FILL_AREA ( #196 ) ;
#286 =( NAMED_UNIT ( * ) PLANE_ANGLE_UNIT ( ) SI_UNIT ( $, .RADIAN. ) );
#287 = CARTESIAN_POINT ( 'NONE',  ( 0.000000000000000000, 30.00000000000000000, 0.000000000000000000 ) ) ;
#288 = CARTESIAN_POINT ( 'NONE',  ( 7.347880794884119736E-16, 30.00000000000000000, 6.000000000000000000 ) ) ;
#289 = CARTESIAN_POINT ( 'NONE',  ( 6.123233995736762930E-15, 75.00000000000000000, 0.000000000000000000 ) ) ;
#290 = DIRECTION ( 'NONE',  ( -1.000000000000000000, 0.000000000000000000, 0.000000000000000000 ) ) ;
#291 = PLANE ( 'NONE',  #85 ) ;
#292 =( GEOMETRIC_REPRESENTATION_CONTEXT ( 3 ) GLOBAL_UNCERTAINTY_ASSIGNED_CONTEXT ( ( #68 ) ) GLOBAL_UNIT_ASSIGNED_CONTEXT ( ( #4, #93, #282 ) ) REPRESENTATION_CONTEXT ( 'NONE', 'WORKASPACE' ) );
#293 = VERTEX_POINT ( 'NONE', #215 ) ;
#294 = CYLINDRICAL_SURFACE ( 'NONE', #130, 5.999999999999994671 ) ;
#295 = DIRECTION ( 'NONE',  ( 1.560495851798313744E-17, 1.000000000000000000, -0.000000000000000000 ) ) ;
#296 = FACE_OUTER_BOUND ( 'NONE', #105, .T. ) ;
#297 = ORIENTED_EDGE ( 'NONE', *, *, #66, .F. ) ;
#298 = PRESENTATION_STYLE_ASSIGNMENT (( #179 ) ) ;
#299 = APPLICATION_PROTOCOL_DEFINITION ( 'draft international standard', 'automotive_design', 1998, #365 ) ;
#300 = ORIENTED_EDGE ( 'NONE', *, *, #272, .T. ) ;
#301 = CIRCLE ( 'NONE', #360, 5.999999999999994671 ) ;
#302 = AXIS2_PLACEMENT_3D ( 'NONE', #91, #23, #81 ) ;
#303 = UNCERTAINTY_MEASURE_WITH_UNIT (LENGTH_MEASURE( 1.000000000000000082E-05 ), #280, 'distance_accuracy_value', 'NONE');
#304 = MECHANICAL_DESIGN_GEOMETRIC_PRESENTATION_REPRESENTATION (  '', ( #325 ), #240 ) ;
#305 =( NAMED_UNIT ( * ) PLANE_ANGLE_UNIT ( ) SI_UNIT ( $, .RADIAN. ) );
#306 = EDGE_CURVE ( 'NONE', #235, #116, #25, .T. ) ;
#307 = EDGE_CURVE ( 'NONE', #331, #135, #112, .T. ) ;
#308 = UNCERTAINTY_MEASURE_WITH_UNIT (LENGTH_MEASURE( 1.000000000000000082E-05 ), #357, 'distance_accuracy_value', 'NONE');
#309 = VECTOR ( 'NONE', #194, 1000.000000000000000 ) ;
#310 = AXIS2_PLACEMENT_3D ( 'NONE', #10, #123, #15 ) ;
#311 = ADVANCED_FACE ( 'NONE', ( #83 ), #353, .F. ) ;
#312 =( LENGTH_UNIT ( ) NAMED_UNIT ( * ) SI_UNIT ( .MILLI., .METRE. ) );
#313 = FACE_OUTER_BOUND ( 'NONE', #172, .T. ) ;
#314 =( NAMED_UNIT ( * ) PLANE_ANGLE_UNIT ( ) SI_UNIT ( $, .RADIAN. ) );
#315 = DIRECTION ( 'NONE',  ( -0.000000000000000000, -1.000000000000000000, -0.000000000000000000 ) ) ;
#316 = CARTESIAN_POINT ( 'NONE',  ( -5.999999999999989342, 30.00000000000000000, 0.000000000000000000 ) ) ;
#317 = DIRECTION ( 'NONE',  ( 0.000000000000000000, 0.000000000000000000, -1.000000000000000000 ) ) ;
#318 = AXIS2_PLACEMENT_3D ( 'NONE', #30, #166, #48 ) ;
#319 = FILL_AREA_STYLE ('',( #80 ) ) ;
#320 =( NAMED_UNIT ( * ) SI_UNIT ( $, .STERADIAN. ) SOLID_ANGLE_UNIT ( ) );
#321 = EDGE_LOOP ( 'NONE', ( #326, #176, #208, #64 ) ) ;
#322 = EDGE_LOOP ( 'NONE', ( #56, #269 ) ) ;
#323 = SURFACE_SIDE_STYLE ('',( #204 ) ) ;
#324 =( LENGTH_UNIT ( ) NAMED_UNIT ( * ) SI_UNIT ( .MILLI., .METRE. ) );
#325 = STYLED_ITEM ( 'NONE', ( #107 ), #243 ) ;
#326 = ORIENTED_EDGE ( 'NONE', *, *, #66, .T. ) ;
#327 = STYLED_ITEM ( 'NONE', ( #298 ), #333 ) ;
#328 = DIRECTION ( 'NONE',  ( 1.000000000000000000, 0.000000000000000000, 0.000000000000000000 ) ) ;
#329 = FACE_OUTER_BOUND ( 'NONE', #207, .T. ) ;
#330 = UNCERTAINTY_MEASURE_WITH_UNIT (LENGTH_MEASURE( 1.000000000000000082E-05 ), #129, 'distance_accuracy_value', 'NONE');
#331 = VERTEX_POINT ( 'NONE', #262 ) ;
#332 = PRODUCT_DEFINITION_FORMATION_WITH_SPECIFIED_SOURCE ( 'ANY', '', #108, .NOT_KNOWN. ) ;
#333 = MANIFOLD_SOLID_BREP ( 'Revolve - Cutting Edge', #281 ) ;
#334 = CIRCLE ( 'NONE', #102, 5.500000000000000000 ) ;
#335 = CARTESIAN_POINT ( 'NONE',  ( 0.000000000000000000, 30.00000000000000000, -6.000000000000000000 ) ) ;
#336 = AXIS2_PLACEMENT_3D ( 'NONE', #256, #224, #230 ) ;
#337 = DIRECTION ( 'NONE',  ( 1.560495851798313744E-17, 1.000000000000000000, -0.000000000000000000 ) ) ;
#338 = AXIS2_PLACEMENT_3D ( 'NONE', #349, #223, #192 ) ;
#339 = CARTESIAN_POINT ( 'NONE',  ( 6.000000000000000000, 75.00000000000000000, 0.000000000000000000 ) ) ;
#340 =( LENGTH_UNIT ( ) NAMED_UNIT ( * ) SI_UNIT ( .MILLI., .METRE. ) );
#341 = DIRECTION ( 'NONE',  ( 1.560495851798313744E-17, 1.000000000000000000, -0.000000000000000000 ) ) ;
#342 = FILL_AREA_STYLE ('',( #201 ) ) ;
#343 = CARTESIAN_POINT ( 'NONE',  ( 0.000000000000000000, 0.5000000000000000000, 0.000000000000000000 ) ) ;
#344 = FACE_OUTER_BOUND ( 'NONE', #358, .T. ) ;
#345 = COLOUR_RGB ( '',1.000000000000000000, 0.000000000000000000, 0.000000000000000000 ) ;
#346 = AXIS2_PLACEMENT_3D ( 'NONE', #343, #170, #61 ) ;
#347 = DIRECTION ( 'NONE',  ( -0.000000000000000000, -1.000000000000000000, -0.000000000000000000 ) ) ;
#348 = ORIENTED_EDGE ( 'NONE', *, *, #236, .F. ) ;
#349 = CARTESIAN_POINT ( 'NONE',  ( 0.000000000000000000, 0.000000000000000000, 0.000000000000000000 ) ) ;
#350 = SURFACE_SIDE_STYLE ('',( #84 ) ) ;
#351 = PRESENTATION_STYLE_ASSIGNMENT (( #355 ) ) ;
#352 = DIRECTION ( 'NONE',  ( 1.000000000000000000, -1.560495851798313744E-17, 0.000000000000000000 ) ) ;
#353 = PLANE ( 'NONE',  #21 ) ;
#354 = SURFACE_STYLE_USAGE ( .BOTH. , #11 ) ;
#355 = SURFACE_STYLE_USAGE ( .BOTH. , #257 ) ;
#356 = FILL_AREA_STYLE ('',( #156 ) ) ;
#357 =( LENGTH_UNIT ( ) NAMED_UNIT ( * ) SI_UNIT ( .MILLI., .METRE. ) );
#358 = EDGE_LOOP ( 'NONE', ( #213, #271, #198, #359 ) ) ;
#359 = ORIENTED_EDGE ( 'NONE', *, *, #306, .F. ) ;
#360 = AXIS2_PLACEMENT_3D ( 'NONE', #86, #341, #138 ) ;
#361 = PRESENTATION_LAYER_ASSIGNMENT (  '', '', ( #327 ) ) ;
#362 = EDGE_LOOP ( 'NONE', ( #26, #226, #14, #348 ) ) ;
#363 = PRODUCT_DEFINITION ( 'UNKNOWN', '', #332, #210 ) ;
#364 = VECTOR ( 'NONE', #315, 1000.000000000000000 ) ;
#365 = APPLICATION_CONTEXT ( 'automotive_design' ) ;
#366 = DIRECTION ( 'NONE',  ( 0.000000000000000000, -0.000000000000000000, 1.000000000000000000 ) ) ;
#367 = PLANE ( 'NONE',  #265 ) ;
#368 = SURFACE_STYLE_FILL_AREA ( #283 ) ;
#369 = EDGE_CURVE ( 'NONE', #116, #135, #76, .T. ) ;
#370 = AXIS2_PLACEMENT_3D ( 'NONE', #287, #347, #3 ) ;
ENDSEC;
END-ISO-10303-21;
