ISO-10303-21;
HEADER;
FILE_DESCRIPTION (( 'STEP AP214' ),
    '1' );
FILE_NAME ('Micro_BEM-500-04X.STEP',
    '2021-09-03T13:16:20',
    ( '' ),
    ( '' ),
    'SwSTEP 2.0',
    'SolidWorks 2020',
    '' );
FILE_SCHEMA (( 'AUTOMOTIVE_DESIGN' ));
ENDSEC;

DATA;
#1 = ORIENTED_EDGE ( 'NONE', *, *, #43, .F. ) ;
#2 = DIRECTION ( 'NONE',  ( 0.0000000000000000000, 0.0000000000000000000, -1.000000000000000000 ) ) ;
#3 = AXIS2_PLACEMENT_3D ( 'NONE', #186, #38, #267 ) ;
#4 = FACE_OUTER_BOUND ( 'NONE', #217, .T. ) ;
#5 = ORIENTED_EDGE ( 'NONE', *, *, #262, .F. ) ;
#6 = APPLICATION_PROTOCOL_DEFINITION ( 'draft international standard', 'automotive_design', 1998, #98 ) ;
#7 = VERTEX_POINT ( 'NONE', #234 ) ;
#8 = ADVANCED_FACE ( 'NONE', ( #184 ), #113, .T. ) ;
#9 =( GEOMETRIC_REPRESENTATION_CONTEXT ( 3 ) GLOBAL_UNCERTAINTY_ASSIGNED_CONTEXT ( ( #18 ) ) GLOBAL_UNIT_ASSIGNED_CONTEXT ( ( #183, #211, #107 ) ) REPRESENTATION_CONTEXT ( 'NONE', 'WORKASPACE' ) );
#10 = MECHANICAL_DESIGN_GEOMETRIC_PRESENTATION_REPRESENTATION (  '', ( #321 ), #146 ) ;
#11 = DIRECTION ( 'NONE',  ( -1.000000000000000000, 0.0000000000000000000, 1.224646799147353700E-16 ) ) ;
#12 = SURFACE_STYLE_FILL_AREA ( #260 ) ;
#13 = VECTOR ( 'NONE', #127, 39.37007874015748143 ) ;
#14 = CARTESIAN_POINT ( 'NONE',  ( 4.587833071305773041E-17, 0.0000000000000000000, 0.0000000000000000000 ) ) ;
#15 = DIRECTION ( 'NONE',  ( 1.000000000000000000, 0.0000000000000000000, 0.0000000000000000000 ) ) ;
#16 = EDGE_CURVE ( 'NONE', #130, #229, #309, .T. ) ;
#17 = FACE_OUTER_BOUND ( 'NONE', #134, .T. ) ;
#18 = UNCERTAINTY_MEASURE_WITH_UNIT (LENGTH_MEASURE( 1.000000000000000082E-05 ), #183, 'distance_accuracy_value', 'NONE');
#19 = DIRECTION ( 'NONE',  ( 0.0000000000000000000, 0.0000000000000000000, 1.000000000000000000 ) ) ;
#20 = AXIS2_PLACEMENT_3D ( 'NONE', #27, #173, #23 ) ;
#21 = DIRECTION ( 'NONE',  ( 1.000000000000000000, 0.0000000000000000000, 0.0000000000000000000 ) ) ;
#22 = PRODUCT_DEFINITION ( 'UNKNOWN', '', #90, #179 ) ;
#23 = DIRECTION ( 'NONE',  ( 1.000000000000000000, 0.0000000000000000000, 0.0000000000000000000 ) ) ;
#24 = CARTESIAN_POINT ( 'NONE',  ( 0.0000000000000000000, 0.0000000000000000000, 2.985000000000001208 ) ) ;
#25 = ORIENTED_EDGE ( 'NONE', *, *, #43, .T. ) ;
#26 = CONICAL_SURFACE ( 'NONE', #213, 0.2497499999999999998, 0.1745329251994339192 ) ;
#27 = CARTESIAN_POINT ( 'NONE',  ( 3.058555380870515566E-17, 0.0000000000000000000, 0.2497499999999999998 ) ) ;
#28 = ORIENTED_EDGE ( 'NONE', *, *, #222, .F. ) ;
#29 = ORIENTED_EDGE ( 'NONE', *, *, #101, .T. ) ;
#30 = DIRECTION ( 'NONE',  ( 1.224646799147353454E-16, 0.0000000000000000000, 1.000000000000000000 ) ) ;
#31 = UNCERTAINTY_MEASURE_WITH_UNIT (LENGTH_MEASURE( 1.000000000000000082E-05 ), #216, 'distance_accuracy_value', 'NONE');
#32 = CARTESIAN_POINT ( 'NONE',  ( -0.2500000000000000000, 0.0000000000000000000, 3.000000000000000444 ) ) ;
#33 = EDGE_LOOP ( 'NONE', ( #135, #264, #236, #151 ) ) ;
#34 = CYLINDRICAL_SURFACE ( 'NONE', #67, 0.2500000000000000000 ) ;
#35 = DIMENSIONAL_EXPONENTS ( 1.000000000000000000, 0.0000000000000000000, 0.0000000000000000000, 0.0000000000000000000, 0.0000000000000000000, 0.0000000000000000000, 0.0000000000000000000 ) ;
#36 = UNCERTAINTY_MEASURE_WITH_UNIT (LENGTH_MEASURE( 1.000000000000000082E-05 ), #53, 'distance_accuracy_value', 'NONE');
#37 = CIRCLE ( 'NONE', #160, 0.2500000000000000000 ) ;
#38 = DIRECTION ( 'NONE',  ( 1.224646799147353454E-16, 0.0000000000000000000, 1.000000000000000000 ) ) ;
#39 = ADVANCED_FACE ( 'NONE', ( #181 ), #261, .T. ) ;
#40 = CARTESIAN_POINT ( 'NONE',  ( 3.058555380870515566E-17, 0.0000000000000000000, 0.2497499999999999998 ) ) ;
#41 = DIRECTION ( 'NONE',  ( -1.000000000000000000, 0.0000000000000000000, 1.224646799147353700E-16 ) ) ;
#42 = AXIS2_PLACEMENT_3D ( 'NONE', #242, #317, #71 ) ;
#43 = EDGE_CURVE ( 'NONE', #215, #82, #290, .T. ) ;
#44 = CARTESIAN_POINT ( 'NONE',  ( 0.2497500000000001386, 0.0000000000000000000, 1.000000000000000000 ) ) ;
#45 = ORIENTED_EDGE ( 'NONE', *, *, #101, .F. ) ;
#46 = CYLINDRICAL_SURFACE ( 'NONE', #279, 0.2497499999999999998 ) ;
#47 = FACE_OUTER_BOUND ( 'NONE', #244, .T. ) ;
#48 = ADVANCED_FACE ( 'NONE', ( #177 ), #34, .T. ) ;
#49 = AXIS2_PLACEMENT_3D ( 'NONE', #132, #87, #11 ) ;
#50 = CARTESIAN_POINT ( 'NONE',  ( 0.2497500000000000553, 3.058555380870514950E-17, 0.2497499999999999720 ) ) ;
#51 = VECTOR ( 'NONE', #189, 39.37007874015748854 ) ;
#52 = CARTESIAN_POINT ( 'NONE',  ( -0.2497499999999998888, 3.058555380870514950E-17, 1.000000000000000000 ) ) ;
#53 =( CONVERSION_BASED_UNIT ( 'INCH', #57 ) LENGTH_UNIT ( ) NAMED_UNIT ( #35 ) );
#54 = DIRECTION ( 'NONE',  ( 1.000000000000000000, 0.0000000000000000000, 0.0000000000000000000 ) ) ;
#55 = ADVANCED_FACE ( 'NONE', ( #65 ), #302, .T. ) ;
#56 = AXIS2_PLACEMENT_3D ( 'NONE', #88, #111, #182 ) ;
#57 = LENGTH_MEASURE_WITH_UNIT ( LENGTH_MEASURE( 0.02539999999999999897 ), #200 );
#58 = MANIFOLD_SOLID_BREP ( 'Fillet1', #136 ) ;
#59 = VERTEX_POINT ( 'NONE', #14 ) ;
#60 = CARTESIAN_POINT ( 'NONE',  ( 0.0000000000000000000, 0.0000000000000000000, 2.985000000000001208 ) ) ;
#61 = EDGE_CURVE ( 'NONE', #174, #138, #105, .T. ) ;
#62 = VECTOR ( 'NONE', #147, 39.37007874015748143 ) ;
#63 =( NAMED_UNIT ( * ) PLANE_ANGLE_UNIT ( ) SI_UNIT ( $, .RADIAN. ) );
#64 = DIRECTION ( 'NONE',  ( -0.0000000000000000000, -0.0000000000000000000, -1.000000000000000000 ) ) ;
#65 = FACE_OUTER_BOUND ( 'NONE', #265, .T. ) ;
#66 = CONICAL_SURFACE ( 'NONE', #199, 0.2350000000000011524, 0.7853981633974380649 ) ;
#67 = AXIS2_PLACEMENT_3D ( 'NONE', #92, #64, #158 ) ;
#68 = PRODUCT_CONTEXT ( 'NONE', #207, 'mechanical' ) ;
#69 = DIRECTION ( 'NONE',  ( -0.0000000000000000000, -0.0000000000000000000, -1.000000000000000000 ) ) ;
#70 = SURFACE_STYLE_USAGE ( .BOTH. , #294 ) ;
#71 = DIRECTION ( 'NONE',  ( 1.000000000000000000, 0.0000000000000000000, 0.0000000000000000000 ) ) ;
#72 = EDGE_LOOP ( 'NONE', ( #176, #86, #108 ) ) ;
#73 = STYLED_ITEM ( 'NONE', ( #256 ), #248 ) ;
#74 = CARTESIAN_POINT ( 'NONE',  ( -0.2497499999999999998, 0.0000000000000000000, 3.058555380870515566E-17 ) ) ;
#75 = DIRECTION ( 'NONE',  ( 1.224646799147353454E-16, 0.0000000000000000000, 1.000000000000000000 ) ) ;
#76 = EDGE_CURVE ( 'NONE', #138, #174, #83, .T. ) ;
#77 = CARTESIAN_POINT ( 'NONE',  ( 3.058555380870515566E-17, 0.0000000000000000000, 0.2497499999999999998 ) ) ;
#78 = DIRECTION ( 'NONE',  ( -1.000000000000000000, 0.0000000000000000000, 0.0000000000000000000 ) ) ;
#79 = DIRECTION ( 'NONE',  ( -1.000000000000000000, 0.0000000000000000000, 0.0000000000000000000 ) ) ;
#80 = DIRECTION ( 'NONE',  ( -0.1736481776669312194, 2.126576849575783625E-17, 0.9848077530122080203 ) ) ;
#81 = EDGE_LOOP ( 'NONE', ( #312, #287 ) ) ;
#82 = VERTEX_POINT ( 'NONE', #168 ) ;
#83 = CIRCLE ( 'NONE', #263, 0.2497499999999999998 ) ;
#84 = VECTOR ( 'NONE', #293, 39.37007874015748854 ) ;
#85 = CARTESIAN_POINT ( 'NONE',  ( 0.2500000000000000000, 3.061616997868382402E-17, 3.000000000000000444 ) ) ;
#86 = ORIENTED_EDGE ( 'NONE', *, *, #198, .T. ) ;
#87 = DIRECTION ( 'NONE',  ( -1.224646799147353454E-16, -0.0000000000000000000, -1.000000000000000000 ) ) ;
#88 = CARTESIAN_POINT ( 'NONE',  ( 0.0000000000000000000, 0.0000000000000000000, 3.000000000000000444 ) ) ;
#89 = ORIENTED_EDGE ( 'NONE', *, *, #282, .F. ) ;
#90 = PRODUCT_DEFINITION_FORMATION_WITH_SPECIFIED_SOURCE ( 'ANY', '', #272, .NOT_KNOWN. ) ;
#91 = AXIS2_PLACEMENT_3D ( 'NONE', #142, #301, #245 ) ;
#92 = CARTESIAN_POINT ( 'NONE',  ( 0.0000000000000000000, 0.0000000000000000000, 3.000000000000000444 ) ) ;
#93 = CARTESIAN_POINT ( 'NONE',  ( 0.0000000000000000000, 0.0000000000000000000, 3.000000000000000444 ) ) ;
#94 = CARTESIAN_POINT ( 'NONE',  ( 0.0000000000000000000, 0.0000000000000000000, 3.000000000000000444 ) ) ;
#95 = EDGE_CURVE ( 'NONE', #125, #130, #300, .T. ) ;
#96 = SPHERICAL_SURFACE ( 'NONE', #42, 0.2497499999999999998 ) ;
#97 = DIRECTION ( 'NONE',  ( -1.000000000000000000, 0.0000000000000000000, 1.367291288120251888E-16 ) ) ;
#98 = APPLICATION_CONTEXT ( 'automotive_design' ) ;
#99 = DIRECTION ( 'NONE',  ( -1.224646799147353454E-16, -0.0000000000000000000, -1.000000000000000000 ) ) ;
#100 = AXIS2_PLACEMENT_3D ( 'NONE', #131, #157, #180 ) ;
#101 = EDGE_CURVE ( 'NONE', #304, #138, #268, .T. ) ;
#102 = SPHERICAL_SURFACE ( 'NONE', #20, 0.2497499999999999998 ) ;
#103 = ORIENTED_EDGE ( 'NONE', *, *, #274, .T. ) ;
#104 = SURFACE_STYLE_USAGE ( .BOTH. , #152 ) ;
#105 = CIRCLE ( 'NONE', #218, 0.2497499999999999998 ) ;
#106 = ORIENTED_EDGE ( 'NONE', *, *, #126, .F. ) ;
#107 =( NAMED_UNIT ( * ) SI_UNIT ( $, .STERADIAN. ) SOLID_ANGLE_UNIT ( ) );
#108 = ORIENTED_EDGE ( 'NONE', *, *, #61, .F. ) ;
#109 = EDGE_LOOP ( 'NONE', ( #5, #210, #159, #153 ) ) ;
#110 = EDGE_CURVE ( 'NONE', #7, #229, #37, .T. ) ;
#111 = DIRECTION ( 'NONE',  ( 0.0000000000000000000, 0.0000000000000000000, 1.000000000000000000 ) ) ;
#112 = PRODUCT_RELATED_PRODUCT_CATEGORY ( 'part', '', ( #272 ) ) ;
#113 = CYLINDRICAL_SURFACE ( 'NONE', #49, 0.2497499999999999998 ) ;
#114 = CIRCLE ( 'NONE', #204, 0.2350000000000011524 ) ;
#115 = LINE ( 'NONE', #191, #62 ) ;
#116 = CARTESIAN_POINT ( 'NONE',  ( -0.2499999999999998612, 0.0000000000000000000, 1.001417820454904462 ) ) ;
#117 = EDGE_CURVE ( 'NONE', #238, #174, #115, .T. ) ;
#118 = CARTESIAN_POINT ( 'NONE',  ( 0.2350000000000011524, 2.969768487932338510E-17, 3.000000000000000444 ) ) ;
#119 = DIRECTION ( 'NONE',  ( -0.0000000000000000000, -0.0000000000000000000, -1.000000000000000000 ) ) ;
#120 = DIRECTION ( 'NONE',  ( 0.0000000000000000000, 0.0000000000000000000, -1.000000000000000000 ) ) ;
#121 = ORIENTED_EDGE ( 'NONE', *, *, #190, .T. ) ;
#122 = VECTOR ( 'NONE', #80, 39.37007874015747433 ) ;
#123 =( NAMED_UNIT ( * ) PLANE_ANGLE_UNIT ( ) SI_UNIT ( $, .RADIAN. ) );
#124 = AXIS2_PLACEMENT_3D ( 'NONE', #165, #270, #139 ) ;
#125 = VERTEX_POINT ( 'NONE', #318 ) ;
#126 = EDGE_CURVE ( 'NONE', #215, #125, #254, .T. ) ;
#127 = DIRECTION ( 'NONE',  ( 0.1736481776669314137, 0.0000000000000000000, 0.9848077530122077983 ) ) ;
#128 = CIRCLE ( 'NONE', #227, 0.2500000000000000000 ) ;
#129 = PRESENTATION_STYLE_ASSIGNMENT (( #70 ) ) ;
#130 = VERTEX_POINT ( 'NONE', #141 ) ;
#131 = CARTESIAN_POINT ( 'NONE',  ( 0.0000000000000000000, 0.0000000000000000000, 0.0000000000000000000 ) ) ;
#132 = CARTESIAN_POINT ( 'NONE',  ( 0.0000000000000000000, 0.0000000000000000000, 0.0000000000000000000 ) ) ;
#133 = VECTOR ( 'NONE', #167, 39.37007874015748143 ) ;
#134 = EDGE_LOOP ( 'NONE', ( #269, #316, #29, #289 ) ) ;
#135 = ORIENTED_EDGE ( 'NONE', *, *, #274, .F. ) ;
#136 = CLOSED_SHELL ( 'NONE', ( #219, #8, #252, #230, #246, #48, #39, #314, #55, #156, #325 ) ) ;
#137 = DIMENSIONAL_EXPONENTS ( 1.000000000000000000, 0.0000000000000000000, 0.0000000000000000000, 0.0000000000000000000, 0.0000000000000000000, 0.0000000000000000000, 0.0000000000000000000 ) ;
#138 = VERTEX_POINT ( 'NONE', #170 ) ;
#139 = DIRECTION ( 'NONE',  ( -1.000000000000000000, 0.0000000000000000000, 0.0000000000000000000 ) ) ;
#140 = ORIENTED_EDGE ( 'NONE', *, *, #198, .F. ) ;
#141 = CARTESIAN_POINT ( 'NONE',  ( -0.2500000000000000000, 0.0000000000000000000, 2.985000000000001208 ) ) ;
#142 = CARTESIAN_POINT ( 'NONE',  ( 3.058555380870515566E-17, 0.0000000000000000000, 0.2497499999999999998 ) ) ;
#143 = EDGE_CURVE ( 'NONE', #125, #215, #114, .T. ) ;
#144 = CARTESIAN_POINT ( 'NONE',  ( 0.0000000000000000000, 0.0000000000000000000, 3.000000000000000444 ) ) ;
#145 = COLOUR_RGB ( '',0.7921568627450980005, 0.8196078431372548767, 0.9333333333333333481 ) ;
#146 =( GEOMETRIC_REPRESENTATION_CONTEXT ( 3 ) GLOBAL_UNCERTAINTY_ASSIGNED_CONTEXT ( ( #31 ) ) GLOBAL_UNIT_ASSIGNED_CONTEXT ( ( #216, #63, #235 ) ) REPRESENTATION_CONTEXT ( 'NONE', 'WORKASPACE' ) );
#147 = DIRECTION ( 'NONE',  ( -1.224646799147353454E-16, -0.0000000000000000000, -1.000000000000000000 ) ) ;
#148 = LINE ( 'NONE', #201, #13 ) ;
#149 = CARTESIAN_POINT ( 'NONE',  ( -0.2497499999999998888, 3.060086189369449292E-17, 1.000000000000000000 ) ) ;
#150 = AXIS2_PLACEMENT_3D ( 'NONE', #94, #19, #247 ) ;
#151 = ORIENTED_EDGE ( 'NONE', *, *, #288, .F. ) ;
#152 = SURFACE_SIDE_STYLE ('',( #283 ) ) ;
#153 = ORIENTED_EDGE ( 'NONE', *, *, #110, .F. ) ;
#154 = FILL_AREA_STYLE_COLOUR ( '', #145 ) ;
#155 = ORIENTED_EDGE ( 'NONE', *, *, #76, .F. ) ;
#156 = ADVANCED_FACE ( 'NONE', ( #17 ), #46, .T. ) ;
#157 = DIRECTION ( 'NONE',  ( 0.0000000000000000000, 0.0000000000000000000, 1.000000000000000000 ) ) ;
#158 = DIRECTION ( 'NONE',  ( -1.000000000000000000, 0.0000000000000000000, 0.0000000000000000000 ) ) ;
#159 = ORIENTED_EDGE ( 'NONE', *, *, #16, .T. ) ;
#160 = AXIS2_PLACEMENT_3D ( 'NONE', #224, #197, #21 ) ;
#161 = CIRCLE ( 'NONE', #306, 0.2497499999999999998 ) ;
#162 = SHAPE_DEFINITION_REPRESENTATION ( #194, #248 ) ;
#163 = CARTESIAN_POINT ( 'NONE',  ( 0.2350000000000011524, 2.877919977996294002E-17, 3.000000000000000444 ) ) ;
#164 = FACE_OUTER_BOUND ( 'NONE', #72, .T. ) ;
#165 = CARTESIAN_POINT ( 'NONE',  ( 0.0000000000000000000, 0.0000000000000000000, 3.000000000000000444 ) ) ;
#166 = ORIENTED_EDGE ( 'NONE', *, *, #319, .F. ) ;
#167 = DIRECTION ( 'NONE',  ( -1.224646799147353454E-16, -0.0000000000000000000, -1.000000000000000000 ) ) ;
#168 = CARTESIAN_POINT ( 'NONE',  ( 0.2500000000000000000, 3.061616997868382402E-17, 2.985000000000001208 ) ) ;
#169 = ORIENTED_EDGE ( 'NONE', *, *, #16, .F. ) ;
#170 = CARTESIAN_POINT ( 'NONE',  ( -0.2497499999999999720, 0.0000000000000000000, 0.2497500000000000553 ) ) ;
#171 = DIRECTION ( 'NONE',  ( -1.224646799147353454E-16, -0.0000000000000000000, -1.000000000000000000 ) ) ;
#172 = ORIENTED_EDGE ( 'NONE', *, *, #117, .T. ) ;
#173 = DIRECTION ( 'NONE',  ( 0.0000000000000000000, 1.000000000000000000, 0.0000000000000000000 ) ) ;
#174 = VERTEX_POINT ( 'NONE', #50 ) ;
#175 = CARTESIAN_POINT ( 'NONE',  ( 1.224646799147353454E-16, 0.0000000000000000000, 1.000000000000000000 ) ) ;
#176 = ORIENTED_EDGE ( 'NONE', *, *, #190, .F. ) ;
#177 = FACE_OUTER_BOUND ( 'NONE', #109, .T. ) ;
#178 = AXIS2_PLACEMENT_3D ( 'NONE', #277, #295, #249 ) ;
#179 = PRODUCT_DEFINITION_CONTEXT ( 'detailed design', #98, 'design' ) ;
#180 = DIRECTION ( 'NONE',  ( 1.000000000000000000, 0.0000000000000000000, 0.0000000000000000000 ) ) ;
#181 = FACE_OUTER_BOUND ( 'NONE', #81, .T. ) ;
#182 = DIRECTION ( 'NONE',  ( 1.000000000000000000, 0.0000000000000000000, -0.0000000000000000000 ) ) ;
#183 =( CONVERSION_BASED_UNIT ( 'INCH', #237 ) LENGTH_UNIT ( ) NAMED_UNIT ( #137 ) );
#184 = FACE_OUTER_BOUND ( 'NONE', #276, .T. ) ;
#185 = ORIENTED_EDGE ( 'NONE', *, *, #285, .F. ) ;
#186 = CARTESIAN_POINT ( 'NONE',  ( 1.224646799147353454E-16, 0.0000000000000000000, 1.000000000000000000 ) ) ;
#187 = ORIENTED_EDGE ( 'NONE', *, *, #305, .F. ) ;
#188 = ORIENTED_EDGE ( 'NONE', *, *, #305, .T. ) ;
#189 = DIRECTION ( 'NONE',  ( -0.7071067811865402453, 0.0000000000000000000, -0.7071067811865546782 ) ) ;
#190 = EDGE_CURVE ( 'NONE', #59, #174, #193, .T. ) ;
#191 = CARTESIAN_POINT ( 'NONE',  ( 0.2497499999999999998, 3.058555380870514950E-17, -3.058555380870515566E-17 ) ) ;
#192 = AXIS2_PLACEMENT_3D ( 'NONE', #24, #120, #54 ) ;
#193 = CIRCLE ( 'NONE', #91, 0.2497499999999999998 ) ;
#194 = PRODUCT_DEFINITION_SHAPE ( 'NONE', 'NONE',  #22 ) ;
#195 = CARTESIAN_POINT ( 'NONE',  ( 1.226383128429217700E-16, 0.0000000000000000000, 1.001417820454904462 ) ) ;
#196 = FACE_OUTER_BOUND ( 'NONE', #33, .T. ) ;
#197 = DIRECTION ( 'NONE',  ( -1.224646799147353454E-16, -0.0000000000000000000, -1.000000000000000000 ) ) ;
#198 = EDGE_CURVE ( 'NONE', #59, #138, #324, .T. ) ;
#199 = AXIS2_PLACEMENT_3D ( 'NONE', #303, #2, #78 ) ;
#200 =( LENGTH_UNIT ( ) NAMED_UNIT ( * ) SI_UNIT ( $, .METRE. ) );
#201 = CARTESIAN_POINT ( 'NONE',  ( 0.2497500000000001386, 0.0000000000000000000, 1.000000000000000000 ) ) ;
#202 = APPLICATION_PROTOCOL_DEFINITION ( 'draft international standard', 'automotive_design', 1998, #207 ) ;
#203 = AXIS2_PLACEMENT_3D ( 'NONE', #175, #208, #79 ) ;
#204 = AXIS2_PLACEMENT_3D ( 'NONE', #93, #221, #15 ) ;
#205 = DIRECTION ( 'NONE',  ( 1.000000000000000000, 0.0000000000000000000, 0.0000000000000000000 ) ) ;
#206 = MECHANICAL_DESIGN_GEOMETRIC_PRESENTATION_REPRESENTATION (  '', ( #73 ), #9 ) ;
#207 = APPLICATION_CONTEXT ( 'automotive_design' ) ;
#208 = DIRECTION ( 'NONE',  ( -1.224646799147353454E-16, -0.0000000000000000000, -1.000000000000000000 ) ) ;
#209 = ORIENTED_EDGE ( 'NONE', *, *, #61, .T. ) ;
#210 = ORIENTED_EDGE ( 'NONE', *, *, #285, .T. ) ;
#211 =( NAMED_UNIT ( * ) PLANE_ANGLE_UNIT ( ) SI_UNIT ( $, .RADIAN. ) );
#212 = LENGTH_MEASURE_WITH_UNIT ( LENGTH_MEASURE( 0.02539999999999999897 ), #241 );
#213 = AXIS2_PLACEMENT_3D ( 'NONE', #255, #30, #205 ) ;
#214 =( LENGTH_UNIT ( ) NAMED_UNIT ( * ) SI_UNIT ( $, .METRE. ) );
#215 = VERTEX_POINT ( 'NONE', #118 ) ;
#216 =( CONVERSION_BASED_UNIT ( 'INCH', #212 ) LENGTH_UNIT ( ) NAMED_UNIT ( #240 ) );
#217 = EDGE_LOOP ( 'NONE', ( #1, #308, #284, #185 ) ) ;
#218 = AXIS2_PLACEMENT_3D ( 'NONE', #40, #220, #97 ) ;
#219 = ADVANCED_FACE ( 'NONE', ( #164 ), #96, .T. ) ;
#220 = DIRECTION ( 'NONE',  ( 1.224646799147353454E-16, 0.0000000000000000000, 1.000000000000000000 ) ) ;
#221 = DIRECTION ( 'NONE',  ( 0.0000000000000000000, 0.0000000000000000000, 1.000000000000000000 ) ) ;
#222 = EDGE_CURVE ( 'NONE', #229, #7, #128, .T. ) ;
#223 = DIRECTION ( 'NONE',  ( -1.000000000000000000, 0.0000000000000000000, 0.0000000000000000000 ) ) ;
#224 = CARTESIAN_POINT ( 'NONE',  ( 1.226383128429217700E-16, 0.0000000000000000000, 1.001417820454904462 ) ) ;
#225 = DIRECTION ( 'NONE',  ( -1.000000000000000000, 0.0000000000000000000, 0.0000000000000000000 ) ) ;
#226 = CIRCLE ( 'NONE', #203, 0.2497499999999999998 ) ;
#227 = AXIS2_PLACEMENT_3D ( 'NONE', #195, #243, #298 ) ;
#228 =( NAMED_UNIT ( * ) SI_UNIT ( $, .STERADIAN. ) SOLID_ANGLE_UNIT ( ) );
#229 = VERTEX_POINT ( 'NONE', #116 ) ;
#230 = ADVANCED_FACE ( 'NONE', ( #275 ), #239, .T. ) ;
#231 = FILL_AREA_STYLE ('',( #154 ) ) ;
#232 = PRESENTATION_LAYER_ASSIGNMENT (  '', '', ( #321 ) ) ;
#233 = FACE_OUTER_BOUND ( 'NONE', #310, .T. ) ;
#234 = CARTESIAN_POINT ( 'NONE',  ( 0.2500000000000001110, 3.061616997868383634E-17, 1.001417820454904462 ) ) ;
#235 =( NAMED_UNIT ( * ) SI_UNIT ( $, .STERADIAN. ) SOLID_ANGLE_UNIT ( ) );
#236 = ORIENTED_EDGE ( 'NONE', *, *, #222, .T. ) ;
#237 = LENGTH_MEASURE_WITH_UNIT ( LENGTH_MEASURE( 0.02539999999999999897 ), #214 );
#238 = VERTEX_POINT ( 'NONE', #44 ) ;
#239 = CONICAL_SURFACE ( 'NONE', #124, 0.2350000000000011524, 0.7853981633974380649 ) ;
#240 = DIMENSIONAL_EXPONENTS ( 1.000000000000000000, 0.0000000000000000000, 0.0000000000000000000, 0.0000000000000000000, 0.0000000000000000000, 0.0000000000000000000, 0.0000000000000000000 ) ;
#241 =( LENGTH_UNIT ( ) NAMED_UNIT ( * ) SI_UNIT ( $, .METRE. ) );
#242 = CARTESIAN_POINT ( 'NONE',  ( 3.058555380870515566E-17, 0.0000000000000000000, 0.2497499999999999998 ) ) ;
#243 = DIRECTION ( 'NONE',  ( -1.224646799147353454E-16, -0.0000000000000000000, -1.000000000000000000 ) ) ;
#244 = EDGE_LOOP ( 'NONE', ( #188, #313, #28, #169 ) ) ;
#245 = DIRECTION ( 'NONE',  ( 0.0000000000000000000, 0.0000000000000000000, -1.000000000000000000 ) ) ;
#246 = ADVANCED_FACE ( 'NONE', ( #47 ), #297, .T. ) ;
#247 = DIRECTION ( 'NONE',  ( 1.000000000000000000, 0.0000000000000000000, 0.0000000000000000000 ) ) ;
#248 = ADVANCED_BREP_SHAPE_REPRESENTATION ( 'Micro_BEM-500-04X', ( #58, #100 ), #323 ) ;
#249 = DIRECTION ( 'NONE',  ( -1.000000000000000000, 1.224646799147353454E-16, 0.0000000000000000000 ) ) ;
#250 = CARTESIAN_POINT ( 'NONE',  ( 1.224646799147353454E-16, 0.0000000000000000000, 1.000000000000000000 ) ) ;
#251 = DIRECTION ( 'NONE',  ( 1.000000000000000000, 0.0000000000000000000, 0.0000000000000000000 ) ) ;
#252 = ADVANCED_FACE ( 'NONE', ( #196 ), #26, .T. ) ;
#253 = ORIENTED_EDGE ( 'NONE', *, *, #110, .T. ) ;
#254 = CIRCLE ( 'NONE', #150, 0.2350000000000011524 ) ;
#255 = CARTESIAN_POINT ( 'NONE',  ( 1.224646799147353454E-16, 0.0000000000000000000, 1.000000000000000000 ) ) ;
#256 = PRESENTATION_STYLE_ASSIGNMENT (( #104 ) ) ;
#257 = EDGE_LOOP ( 'NONE', ( #106, #25, #187, #315 ) ) ;
#258 = DIRECTION ( 'NONE',  ( -0.0000000000000000000, -0.0000000000000000000, -1.000000000000000000 ) ) ;
#259 = COLOUR_RGB ( '',0.7921568627450980005, 0.8196078431372548767, 0.9333333333333333481 ) ;
#260 = FILL_AREA_STYLE ('',( #286 ) ) ;
#261 = PLANE ( 'NONE',  #56 ) ;
#262 = EDGE_CURVE ( 'NONE', #82, #7, #307, .T. ) ;
#263 = AXIS2_PLACEMENT_3D ( 'NONE', #77, #75, #320 ) ;
#264 = ORIENTED_EDGE ( 'NONE', *, *, #282, .T. ) ;
#265 = EDGE_LOOP ( 'NONE', ( #89, #166, #299, #253 ) ) ;
#266 = PRESENTATION_LAYER_ASSIGNMENT (  '', '', ( #73 ) ) ;
#267 = DIRECTION ( 'NONE',  ( 1.000000000000000000, 0.0000000000000000000, 0.0000000000000000000 ) ) ;
#268 = LINE ( 'NONE', #74, #133 ) ;
#269 = ORIENTED_EDGE ( 'NONE', *, *, #117, .F. ) ;
#270 = DIRECTION ( 'NONE',  ( 0.0000000000000000000, 0.0000000000000000000, -1.000000000000000000 ) ) ;
#271 = VECTOR ( 'NONE', #258, 39.37007874015748143 ) ;
#272 = PRODUCT ( 'Micro_BEM-500-04X', 'Micro_BEM-500-04X', '', ( #68 ) ) ;
#273 = CARTESIAN_POINT ( 'NONE',  ( 0.0000000000000000000, 0.0000000000000000000, 0.0000000000000000000 ) ) ;
#274 = EDGE_CURVE ( 'NONE', #304, #238, #226, .T. ) ;
#275 = FACE_OUTER_BOUND ( 'NONE', #257, .T. ) ;
#276 = EDGE_LOOP ( 'NONE', ( #103, #172, #209, #45 ) ) ;
#277 = CARTESIAN_POINT ( 'NONE',  ( 3.058555380870515566E-17, 0.0000000000000000000, 0.2497499999999999998 ) ) ;
#278 = CIRCLE ( 'NONE', #192, 0.2500000000000000000 ) ;
#279 = AXIS2_PLACEMENT_3D ( 'NONE', #273, #99, #41 ) ;
#280 = LINE ( 'NONE', #52, #122 ) ;
#281 = DIRECTION ( 'NONE',  ( 0.0000000000000000000, 0.0000000000000000000, -1.000000000000000000 ) ) ;
#282 = EDGE_CURVE ( 'NONE', #304, #229, #280, .T. ) ;
#283 = SURFACE_STYLE_FILL_AREA ( #231 ) ;
#284 = ORIENTED_EDGE ( 'NONE', *, *, #95, .T. ) ;
#285 = EDGE_CURVE ( 'NONE', #82, #130, #296, .T. ) ;
#286 = FILL_AREA_STYLE_COLOUR ( '', #259 ) ;
#287 = ORIENTED_EDGE ( 'NONE', *, *, #126, .T. ) ;
#288 = EDGE_CURVE ( 'NONE', #238, #7, #148, .T. ) ;
#289 = ORIENTED_EDGE ( 'NONE', *, *, #76, .T. ) ;
#290 = LINE ( 'NONE', #163, #84 ) ;
#291 = AXIS2_PLACEMENT_3D ( 'NONE', #60, #281, #251 ) ;
#292 = VECTOR ( 'NONE', #69, 39.37007874015748143 ) ;
#293 = DIRECTION ( 'NONE',  ( 0.7071067811865402453, 8.659560562354845344E-17, -0.7071067811865546782 ) ) ;
#294 = SURFACE_SIDE_STYLE ('',( #12 ) ) ;
#295 = DIRECTION ( 'NONE',  ( 1.224646799147353207E-16, 1.000000000000000000, -0.0000000000000000000 ) ) ;
#296 = CIRCLE ( 'NONE', #291, 0.2500000000000000000 ) ;
#297 = CYLINDRICAL_SURFACE ( 'NONE', #311, 0.2500000000000000000 ) ;
#298 = DIRECTION ( 'NONE',  ( 1.000000000000000000, 0.0000000000000000000, 0.0000000000000000000 ) ) ;
#299 = ORIENTED_EDGE ( 'NONE', *, *, #288, .T. ) ;
#300 = LINE ( 'NONE', #322, #51 ) ;
#301 = DIRECTION ( 'NONE',  ( 0.0000000000000000000, -1.000000000000000000, 0.0000000000000000000 ) ) ;
#302 = CONICAL_SURFACE ( 'NONE', #3, 0.2497499999999999998, 0.1745329251994339192 ) ;
#303 = CARTESIAN_POINT ( 'NONE',  ( 0.0000000000000000000, 0.0000000000000000000, 3.000000000000000444 ) ) ;
#304 = VERTEX_POINT ( 'NONE', #149 ) ;
#305 = EDGE_CURVE ( 'NONE', #130, #82, #278, .T. ) ;
#306 = AXIS2_PLACEMENT_3D ( 'NONE', #250, #171, #225 ) ;
#307 = LINE ( 'NONE', #85, #271 ) ;
#308 = ORIENTED_EDGE ( 'NONE', *, *, #143, .F. ) ;
#309 = LINE ( 'NONE', #32, #292 ) ;
#310 = EDGE_LOOP ( 'NONE', ( #140, #121, #155 ) ) ;
#311 = AXIS2_PLACEMENT_3D ( 'NONE', #144, #119, #223 ) ;
#312 = ORIENTED_EDGE ( 'NONE', *, *, #143, .T. ) ;
#313 = ORIENTED_EDGE ( 'NONE', *, *, #262, .T. ) ;
#314 = ADVANCED_FACE ( 'NONE', ( #4 ), #66, .T. ) ;
#315 = ORIENTED_EDGE ( 'NONE', *, *, #95, .F. ) ;
#316 = ORIENTED_EDGE ( 'NONE', *, *, #319, .T. ) ;
#317 = DIRECTION ( 'NONE',  ( 0.0000000000000000000, 1.000000000000000000, 0.0000000000000000000 ) ) ;
#318 = CARTESIAN_POINT ( 'NONE',  ( -0.2350000000000011524, 0.0000000000000000000, 3.000000000000000444 ) ) ;
#319 = EDGE_CURVE ( 'NONE', #238, #304, #161, .T. ) ;
#320 = DIRECTION ( 'NONE',  ( -1.000000000000000000, 0.0000000000000000000, 1.367291288120251888E-16 ) ) ;
#321 = STYLED_ITEM ( 'NONE', ( #129 ), #58 ) ;
#322 = CARTESIAN_POINT ( 'NONE',  ( -0.2350000000000011524, 0.0000000000000000000, 3.000000000000000444 ) ) ;
#323 =( GEOMETRIC_REPRESENTATION_CONTEXT ( 3 ) GLOBAL_UNCERTAINTY_ASSIGNED_CONTEXT ( ( #36 ) ) GLOBAL_UNIT_ASSIGNED_CONTEXT ( ( #53, #123, #228 ) ) REPRESENTATION_CONTEXT ( 'NONE', 'WORKASPACE' ) );
#324 = CIRCLE ( 'NONE', #178, 0.2497499999999999998 ) ;
#325 = ADVANCED_FACE ( 'NONE', ( #233 ), #102, .T. ) ;
ENDSEC;
END-ISO-10303-21;
