ISO-10303-21;
HEADER;
FILE_DESCRIPTION (( 'STEP AP214' ),
    '1' );
FILE_NAME ('81677.STEP',
    '2023-06-30T22:31:14',
    ( '' ),
    ( '' ),
    'SwSTEP 2.0',
    'SolidWorks 2023',
    '' );
FILE_SCHEMA (( 'AUTOMOTIVE_DESIGN' ));
ENDSEC;

DATA;
#1 = AXIS2_PLACEMENT_3D ( 'NONE', #227, #346, #83 ) ;
#2 = SURFACE_STYLE_USAGE ( .BOTH. , #58 ) ;
#3 = SHAPE_DEFINITION_REPRESENTATION ( #305, #13 ) ;
#4 = AXIS2_PLACEMENT_3D ( 'NONE', #173, #213, #39 ) ;
#5 = PRESENTATION_STYLE_ASSIGNMENT (( #261 ) ) ;
#6 = FACE_OUTER_BOUND ( 'NONE', #107, .T. ) ;
#7 = SURFACE_STYLE_USAGE ( .BOTH. , #177 ) ;
#8 =( GEOMETRIC_REPRESENTATION_CONTEXT ( 3 ) GLOBAL_UNCERTAINTY_ASSIGNED_CONTEXT ( ( #208 ) ) GLOBAL_UNIT_ASSIGNED_CONTEXT ( ( #247, #309, #319 ) ) REPRESENTATION_CONTEXT ( 'NONE', 'WORKASPACE' ) );
#9 =( LENGTH_UNIT ( ) NAMED_UNIT ( * ) SI_UNIT ( $, .METRE. ) );
#10 = FACE_OUTER_BOUND ( 'NONE', #151, .T. ) ;
#11 = FACE_OUTER_BOUND ( 'NONE', #310, .T. ) ;
#12 = DIRECTION ( 'NONE',  ( -0.000000000000000000, -1.000000000000000000, -0.000000000000000000 ) ) ;
#13 = ADVANCED_BREP_SHAPE_REPRESENTATION ( '81677', ( #167, #55, #267 ), #54 ) ;
#14 = LENGTH_MEASURE_WITH_UNIT ( LENGTH_MEASURE( 0.02539999999999999897 ), #122 );
#15 = EDGE_CURVE ( 'NONE', #256, #186, #339, .T. ) ;
#16 = CYLINDRICAL_SURFACE ( 'NONE', #169, 0.1249999999999997918 ) ;
#17 = ORIENTED_EDGE ( 'NONE', *, *, #332, .F. ) ;
#18 = CARTESIAN_POINT ( 'NONE',  ( 0.1249999999999998473, 1.250000000000000000, 1.530808498934189660E-17 ) ) ;
#19 = EDGE_CURVE ( 'NONE', #186, #74, #89, .T. ) ;
#20 =( NAMED_UNIT ( * ) SI_UNIT ( $, .STERADIAN. ) SOLID_ANGLE_UNIT ( ) );
#21 = SURFACE_STYLE_USAGE ( .BOTH. , #134 ) ;
#22 =( GEOMETRIC_REPRESENTATION_CONTEXT ( 3 ) GLOBAL_UNCERTAINTY_ASSIGNED_CONTEXT ( ( #155 ) ) GLOBAL_UNIT_ASSIGNED_CONTEXT ( ( #245, #70, #20 ) ) REPRESENTATION_CONTEXT ( 'NONE', 'WORKASPACE' ) );
#23 = AXIS2_PLACEMENT_3D ( 'NONE', #290, #52, #158 ) ;
#24 = FILL_AREA_STYLE_COLOUR ( '', #226 ) ;
#25 =( NAMED_UNIT ( * ) SI_UNIT ( $, .STERADIAN. ) SOLID_ANGLE_UNIT ( ) );
#26 = FACE_OUTER_BOUND ( 'NONE', #110, .T. ) ;
#27 = CARTESIAN_POINT ( 'NONE',  ( -0.1250000000000000000, 0.1250000000000000278, 1.530808498934191201E-17 ) ) ;
#28 = STYLED_ITEM ( 'NONE', ( #75 ), #316 ) ;
#29 =( CONVERSION_BASED_UNIT ( 'INCH', #317 ) LENGTH_UNIT ( ) NAMED_UNIT ( #159 ) );
#30 = CARTESIAN_POINT ( 'NONE',  ( 0.1249999999999998473, 3.000000000000000444, 1.530808498934189660E-17 ) ) ;
#31 = PRESENTATION_STYLE_ASSIGNMENT (( #114 ) ) ;
#32 = PRESENTATION_STYLE_ASSIGNMENT (( #2 ) ) ;
#33 = DIRECTION ( 'NONE',  ( 1.000000000000000000, 0.000000000000000000, 0.000000000000000000 ) ) ;
#34 = VERTEX_POINT ( 'NONE', #30 ) ;
#35 = DIRECTION ( 'NONE',  ( 0.000000000000000000, 0.000000000000000000, 1.000000000000000000 ) ) ;
#36 = EDGE_CURVE ( 'NONE', #262, #63, #182, .T. ) ;
#37 = CARTESIAN_POINT ( 'NONE',  ( 1.530808498934189968E-17, 1.250000000000000000, 0.1249999999999998473 ) ) ;
#38 = PLANE ( 'NONE',  #266 ) ;
#39 = DIRECTION ( 'NONE',  ( -1.000000000000000000, 0.000000000000000000, 0.000000000000000000 ) ) ;
#40 = LENGTH_MEASURE_WITH_UNIT ( LENGTH_MEASURE( 0.02539999999999999897 ), #9 );
#41 = SURFACE_SIDE_STYLE ('',( #172 ) ) ;
#42 = PRODUCT_DEFINITION ( 'UNKNOWN', '', #73, #241 ) ;
#43 = DIRECTION ( 'NONE',  ( 1.000000000000000000, 0.000000000000000000, -1.224646799147353207E-16 ) ) ;
#44 = COLOUR_RGB ( '',1.000000000000000000, 0.000000000000000000, 0.000000000000000000 ) ;
#45 = COLOUR_RGB ( '',1.000000000000000000, 0.000000000000000000, 0.000000000000000000 ) ;
#46 = ORIENTED_EDGE ( 'NONE', *, *, #332, .T. ) ;
#47 = SURFACE_STYLE_FILL_AREA ( #129 ) ;
#48 = CARTESIAN_POINT ( 'NONE',  ( -1.530808498934191509E-17, 0.1250000000000000000, 0.000000000000000000 ) ) ;
#49 = CARTESIAN_POINT ( 'NONE',  ( 0.000000000000000000, 0.1250000000000000278, 0.000000000000000000 ) ) ;
#50 = CARTESIAN_POINT ( 'NONE',  ( -6.123233995736772199E-17, 3.000000000000000444, 0.000000000000000000 ) ) ;
#51 = EDGE_LOOP ( 'NONE', ( #216, #361 ) ) ;
#52 = DIRECTION ( 'NONE',  ( -1.238947070684728634E-16, 1.000000000000000000, -0.000000000000000000 ) ) ;
#53 = DIMENSIONAL_EXPONENTS ( 1.000000000000000000, 0.000000000000000000, 0.000000000000000000, 0.000000000000000000, 0.000000000000000000, 0.000000000000000000, 0.000000000000000000 ) ;
#54 =( GEOMETRIC_REPRESENTATION_CONTEXT ( 3 ) GLOBAL_UNCERTAINTY_ASSIGNED_CONTEXT ( ( #329 ) ) GLOBAL_UNIT_ASSIGNED_CONTEXT ( ( #265, #355, #205 ) ) REPRESENTATION_CONTEXT ( 'NONE', 'WORKASPACE' ) );
#55 = MANIFOLD_SOLID_BREP ( 'Revolve - Tool Body (Straight Shanked)', #130 ) ;
#56 = CYLINDRICAL_SURFACE ( 'NONE', #23, 0.1249999999999997918 ) ;
#57 = ORIENTED_EDGE ( 'NONE', *, *, #207, .T. ) ;
#58 = SURFACE_SIDE_STYLE ('',( #268 ) ) ;
#59 = PRODUCT_CONTEXT ( 'NONE', #231, 'mechanical' ) ;
#60 = AXIS2_PLACEMENT_3D ( 'NONE', #326, #257, #324 ) ;
#61 = AXIS2_PLACEMENT_3D ( 'NONE', #49, #280, #194 ) ;
#62 = ORIENTED_EDGE ( 'NONE', *, *, #145, .F. ) ;
#63 = VERTEX_POINT ( 'NONE', #87 ) ;
#64 = STYLED_ITEM ( 'NONE', ( #92 ), #167 ) ;
#65 = MECHANICAL_DESIGN_GEOMETRIC_PRESENTATION_REPRESENTATION (  '', ( #64 ), #8 ) ;
#66 = EDGE_CURVE ( 'NONE', #251, #298, #184, .T. ) ;
#67 = PRESENTATION_LAYER_ASSIGNMENT (  '', '', ( #306 ) ) ;
#68 = CARTESIAN_POINT ( 'NONE',  ( 1.530808498934191509E-17, 0.1250000000000000278, 0.1249999999999999861 ) ) ;
#69 = SURFACE_STYLE_FILL_AREA ( #214 ) ;
#70 =( NAMED_UNIT ( * ) PLANE_ANGLE_UNIT ( ) SI_UNIT ( $, .RADIAN. ) );
#71 = ORIENTED_EDGE ( 'NONE', *, *, #253, .T. ) ;
#72 = EDGE_CURVE ( 'NONE', #334, #298, #206, .T. ) ;
#73 = PRODUCT_DEFINITION_FORMATION_WITH_SPECIFIED_SOURCE ( 'ANY', '', #210, .NOT_KNOWN. ) ;
#74 = VERTEX_POINT ( 'NONE', #68 ) ;
#75 = PRESENTATION_STYLE_ASSIGNMENT (( #21 ) ) ;
#76 = UNCERTAINTY_MEASURE_WITH_UNIT (LENGTH_MEASURE( 1.000000000000000082E-05 ), #237, 'distance_accuracy_value', 'NONE');
#77 = ORIENTED_EDGE ( 'NONE', *, *, #145, .T. ) ;
#78 =( LENGTH_UNIT ( ) NAMED_UNIT ( * ) SI_UNIT ( $, .METRE. ) );
#79 = ORIENTED_EDGE ( 'NONE', *, *, #238, .F. ) ;
#80 = AXIS2_PLACEMENT_3D ( 'NONE', #327, #209, #174 ) ;
#81 =( NAMED_UNIT ( * ) SI_UNIT ( $, .STERADIAN. ) SOLID_ANGLE_UNIT ( ) );
#82 = PLANE ( 'NONE',  #212 ) ;
#83 = DIRECTION ( 'NONE',  ( -1.000000000000000000, 0.000000000000000000, 0.000000000000000000 ) ) ;
#84 = CARTESIAN_POINT ( 'NONE',  ( -1.530808498934191509E-17, 0.1250000000000000000, 0.000000000000000000 ) ) ;
#85 = ADVANCED_FACE ( 'NONE', ( #6 ), #38, .F. ) ;
#86 = STYLED_ITEM ( 'NONE', ( #5 ), #137 ) ;
#87 = CARTESIAN_POINT ( 'NONE',  ( -0.1249999999999995420, 1.250000000000000000, 0.000000000000000000 ) ) ;
#88 = APPLICATION_PROTOCOL_DEFINITION ( 'draft international standard', 'automotive_design', 1998, #231 ) ;
#89 = LINE ( 'NONE', #113, #168 ) ;
#90 = SURFACE_SIDE_STYLE ('',( #202 ) ) ;
#91 = APPLICATION_CONTEXT ( 'automotive_design' ) ;
#92 = PRESENTATION_STYLE_ASSIGNMENT (( #274 ) ) ;
#93 =( LENGTH_UNIT ( ) NAMED_UNIT ( * ) SI_UNIT ( $, .METRE. ) );
#94 = AXIS2_PLACEMENT_3D ( 'NONE', #97, #271, #236 ) ;
#95 = ADVANCED_FACE ( 'NONE', ( #11 ), #189, .T. ) ;
#96 = ADVANCED_FACE ( 'NONE', ( #10 ), #368, .T. ) ;
#97 = CARTESIAN_POINT ( 'NONE',  ( 0.000000000000000000, 0.1250000000000000278, 0.000000000000000000 ) ) ;
#98 = CIRCLE ( 'NONE', #80, 0.1249999999999998473 ) ;
#99 = LINE ( 'NONE', #359, #351 ) ;
#100 = LINE ( 'NONE', #187, #196 ) ;
#101 = DIRECTION ( 'NONE',  ( -1.238947070684728634E-16, 1.000000000000000000, -0.000000000000000000 ) ) ;
#102 = DIMENSIONAL_EXPONENTS ( 1.000000000000000000, 0.000000000000000000, 0.000000000000000000, 0.000000000000000000, 0.000000000000000000, 0.000000000000000000, 0.000000000000000000 ) ;
#103 = DIRECTION ( 'NONE',  ( -1.000000000000000000, 0.000000000000000000, 0.000000000000000000 ) ) ;
#104 =( GEOMETRIC_REPRESENTATION_CONTEXT ( 3 ) GLOBAL_UNCERTAINTY_ASSIGNED_CONTEXT ( ( #76 ) ) GLOBAL_UNIT_ASSIGNED_CONTEXT ( ( #237, #223, #25 ) ) REPRESENTATION_CONTEXT ( 'NONE', 'WORKASPACE' ) );
#105 = AXIS2_PLACEMENT_3D ( 'NONE', #255, #282, #315 ) ;
#106 =( NAMED_UNIT ( * ) PLANE_ANGLE_UNIT ( ) SI_UNIT ( $, .RADIAN. ) );
#107 = EDGE_LOOP ( 'NONE', ( #157, #331 ) ) ;
#108 = CARTESIAN_POINT ( 'NONE',  ( -7.654042494670957545E-18, 0.000000000000000000, 0.000000000000000000 ) ) ;
#109 = SURFACE_STYLE_USAGE ( .BOTH. , #156 ) ;
#110 = EDGE_LOOP ( 'NONE', ( #365, #77 ) ) ;
#111 = DIRECTION ( 'NONE',  ( 0.000000000000000000, -0.000000000000000000, 1.000000000000000000 ) ) ;
#112 = ORIENTED_EDGE ( 'NONE', *, *, #188, .F. ) ;
#113 = CARTESIAN_POINT ( 'NONE',  ( 1.530808498934190893E-17, 0.000000000000000000, 0.1249999999999999306 ) ) ;
#114 = SURFACE_STYLE_USAGE ( .BOTH. , #90 ) ;
#115 = MECHANICAL_DESIGN_GEOMETRIC_PRESENTATION_REPRESENTATION (  '', ( #28 ), #136 ) ;
#116 = UNCERTAINTY_MEASURE_WITH_UNIT (LENGTH_MEASURE( 1.000000000000000082E-05 ), #295, 'distance_accuracy_value', 'NONE');
#117 = CARTESIAN_POINT ( 'NONE',  ( -1.530808498934191509E-17, 0.1250000000000000000, 0.000000000000000000 ) ) ;
#118 = AXIS2_PLACEMENT_3D ( 'NONE', #141, #170, #373 ) ;
#119 = FILL_AREA_STYLE_COLOUR ( '', #195 ) ;
#120 = COLOUR_RGB ( '',0.7921568627450980005, 0.8196078431372548767, 0.9333333333333333481 ) ;
#121 = ADVANCED_FACE ( 'NONE', ( #278 ), #16, .T. ) ;
#122 =( LENGTH_UNIT ( ) NAMED_UNIT ( * ) SI_UNIT ( $, .METRE. ) );
#123 = LENGTH_MEASURE_WITH_UNIT ( LENGTH_MEASURE( 0.02539999999999999897 ), #148 );
#124 = ORIENTED_EDGE ( 'NONE', *, *, #19, .T. ) ;
#125 = DIMENSIONAL_EXPONENTS ( 1.000000000000000000, 0.000000000000000000, 0.000000000000000000, 0.000000000000000000, 0.000000000000000000, 0.000000000000000000, 0.000000000000000000 ) ;
#126 = ORIENTED_EDGE ( 'NONE', *, *, #152, .T. ) ;
#127 = CARTESIAN_POINT ( 'NONE',  ( -0.1249999999999999861, 3.000000000000000444, 0.000000000000000000 ) ) ;
#128 = AXIS2_PLACEMENT_3D ( 'NONE', #198, #372, #297 ) ;
#129 = FILL_AREA_STYLE ('',( #338 ) ) ;
#130 = CLOSED_SHELL ( 'NONE', ( #328, #85, #121, #340 ) ) ;
#131 = PRESENTATION_LAYER_ASSIGNMENT (  '', '', ( #86 ) ) ;
#132 = FILL_AREA_STYLE ('',( #24 ) ) ;
#133 = EDGE_LOOP ( 'NONE', ( #221, #367, #193, #71 ) ) ;
#134 = SURFACE_SIDE_STYLE ('',( #47 ) ) ;
#135 =( NAMED_UNIT ( * ) PLANE_ANGLE_UNIT ( ) SI_UNIT ( $, .RADIAN. ) );
#136 =( GEOMETRIC_REPRESENTATION_CONTEXT ( 3 ) GLOBAL_UNCERTAINTY_ASSIGNED_CONTEXT ( ( #296 ) ) GLOBAL_UNIT_ASSIGNED_CONTEXT ( ( #252, #106, #81 ) ) REPRESENTATION_CONTEXT ( 'NONE', 'WORKASPACE' ) );
#137 = ADVANCED_FACE ( 'NONE', ( #218 ), #333, .T. ) ;
#138 = LENGTH_MEASURE_WITH_UNIT ( LENGTH_MEASURE( 0.02539999999999999897 ), #93 );
#139 = LENGTH_MEASURE_WITH_UNIT ( LENGTH_MEASURE( 0.02539999999999999897 ), #347 );
#140 =( GEOMETRIC_REPRESENTATION_CONTEXT ( 3 ) GLOBAL_UNCERTAINTY_ASSIGNED_CONTEXT ( ( #320 ) ) GLOBAL_UNIT_ASSIGNED_CONTEXT ( ( #29, #135, #291 ) ) REPRESENTATION_CONTEXT ( 'NONE', 'WORKASPACE' ) );
#141 = CARTESIAN_POINT ( 'NONE',  ( 1.555833974124598198E-16, 1.250000000000000000, 0.000000000000000000 ) ) ;
#142 = DIRECTION ( 'NONE',  ( 1.000000000000000000, 0.000000000000000000, 0.000000000000000000 ) ) ;
#143 = CARTESIAN_POINT ( 'NONE',  ( 0.000000000000000000, 0.1250000000000000278, -0.1250000000000000000 ) ) ;
#144 = LINE ( 'NONE', #330, #284 ) ;
#145 = EDGE_CURVE ( 'NONE', #34, #311, #350, .T. ) ;
#146 = COLOUR_RGB ( '',1.000000000000000000, 0.000000000000000000, 0.000000000000000000 ) ;
#147 = CARTESIAN_POINT ( 'NONE',  ( 0.000000000000000000, 0.1250000000000000278, 0.000000000000000000 ) ) ;
#148 =( LENGTH_UNIT ( ) NAMED_UNIT ( * ) SI_UNIT ( $, .METRE. ) );
#149 = MECHANICAL_DESIGN_GEOMETRIC_PRESENTATION_REPRESENTATION (  '', ( #176 ), #22 ) ;
#150 = DIMENSIONAL_EXPONENTS ( 1.000000000000000000, 0.000000000000000000, 0.000000000000000000, 0.000000000000000000, 0.000000000000000000, 0.000000000000000000, 0.000000000000000000 ) ;
#151 = EDGE_LOOP ( 'NONE', ( #260, #126, #314, #312, #224 ) ) ;
#152 = EDGE_CURVE ( 'NONE', #186, #256, #98, .T. ) ;
#153 = EDGE_LOOP ( 'NONE', ( #57, #190, #191, #286 ) ) ;
#154 = DIMENSIONAL_EXPONENTS ( 1.000000000000000000, 0.000000000000000000, 0.000000000000000000, 0.000000000000000000, 0.000000000000000000, 0.000000000000000000, 0.000000000000000000 ) ;
#155 = UNCERTAINTY_MEASURE_WITH_UNIT (LENGTH_MEASURE( 1.000000000000000082E-05 ), #245, 'distance_accuracy_value', 'NONE');
#156 = SURFACE_SIDE_STYLE ('',( #336 ) ) ;
#157 = ORIENTED_EDGE ( 'NONE', *, *, #207, .F. ) ;
#158 = DIRECTION ( 'NONE',  ( -1.000000000000000000, 0.000000000000000000, 0.000000000000000000 ) ) ;
#159 = DIMENSIONAL_EXPONENTS ( 1.000000000000000000, 0.000000000000000000, 0.000000000000000000, 0.000000000000000000, 0.000000000000000000, 0.000000000000000000, 0.000000000000000000 ) ;
#160 = DIRECTION ( 'NONE',  ( 0.000000000000000000, 0.000000000000000000, -1.000000000000000000 ) ) ;
#161 = FILL_AREA_STYLE ('',( #164 ) ) ;
#162 = FILL_AREA_STYLE ('',( #292 ) ) ;
#163 = CIRCLE ( 'NONE', #105, 0.1249999999999999167 ) ;
#164 = FILL_AREA_STYLE_COLOUR ( '', #217 ) ;
#165 = CARTESIAN_POINT ( 'NONE',  ( 0.000000000000000000, 0.000000000000000000, 0.000000000000000000 ) ) ;
#166 = VERTEX_POINT ( 'NONE', #143 ) ;
#167 = MANIFOLD_SOLID_BREP ( 'Revolve - Cutting Edge', #348 ) ;
#168 = VECTOR ( 'NONE', #203, 39.37007874015748143 ) ;
#169 = AXIS2_PLACEMENT_3D ( 'NONE', #50, #360, #103 ) ;
#170 = DIRECTION ( 'NONE',  ( -1.238947070684728634E-16, 1.000000000000000000, -0.000000000000000000 ) ) ;
#171 =( NAMED_UNIT ( * ) PLANE_ANGLE_UNIT ( ) SI_UNIT ( $, .RADIAN. ) );
#172 = SURFACE_STYLE_FILL_AREA ( #240 ) ;
#173 = CARTESIAN_POINT ( 'NONE',  ( 1.555833974124598198E-16, 1.250000000000000000, 0.000000000000000000 ) ) ;
#174 = DIRECTION ( 'NONE',  ( 0.000000000000000000, 0.000000000000000000, -1.000000000000000000 ) ) ;
#175 = EDGE_CURVE ( 'NONE', #63, #311, #99, .T. ) ;
#176 = STYLED_ITEM ( 'NONE', ( #180 ), #96 ) ;
#177 = SURFACE_SIDE_STYLE ('',( #69 ) ) ;
#178 = CIRCLE ( 'NONE', #323, 0.1250000000000000000 ) ;
#179 = CARTESIAN_POINT ( 'NONE',  ( 0.000000000000000000, 1.250000000000000000, -0.1249999999999998473 ) ) ;
#180 = PRESENTATION_STYLE_ASSIGNMENT (( #109 ) ) ;
#181 = DIMENSIONAL_EXPONENTS ( 1.000000000000000000, 0.000000000000000000, 0.000000000000000000, 0.000000000000000000, 0.000000000000000000, 0.000000000000000000, 0.000000000000000000 ) ;
#182 = CIRCLE ( 'NONE', #118, 0.1249999999999996947 ) ;
#183 = DIRECTION ( 'NONE',  ( 0.000000000000000000, 0.000000000000000000, 1.000000000000000000 ) ) ;
#184 = CIRCLE ( 'NONE', #60, 0.1250000000000000000 ) ;
#185 =( GEOMETRIC_REPRESENTATION_CONTEXT ( 3 ) GLOBAL_UNCERTAINTY_ASSIGNED_CONTEXT ( ( #116 ) ) GLOBAL_UNIT_ASSIGNED_CONTEXT ( ( #295, #171, #204 ) ) REPRESENTATION_CONTEXT ( 'NONE', 'WORKASPACE' ) );
#186 = VERTEX_POINT ( 'NONE', #37 ) ;
#187 = CARTESIAN_POINT ( 'NONE',  ( 0.1249999999999997224, 3.000000000000000444, 1.530808498934189044E-17 ) ) ;
#188 = EDGE_CURVE ( 'NONE', #262, #34, #100, .T. ) ;
#189 = SPHERICAL_SURFACE ( 'NONE', #250, 0.1250000000000000000 ) ;
#190 = ORIENTED_EDGE ( 'NONE', *, *, #188, .T. ) ;
#191 = ORIENTED_EDGE ( 'NONE', *, *, #299, .F. ) ;
#192 = FACE_OUTER_BOUND ( 'NONE', #153, .T. ) ;
#193 = ORIENTED_EDGE ( 'NONE', *, *, #66, .F. ) ;
#194 = DIRECTION ( 'NONE',  ( 0.000000000000000000, 0.000000000000000000, -1.000000000000000000 ) ) ;
#195 = COLOUR_RGB ( '',1.000000000000000000, 0.000000000000000000, 0.000000000000000000 ) ;
#196 = VECTOR ( 'NONE', #101, 39.37007874015748143 ) ;
#197 = ORIENTED_EDGE ( 'NONE', *, *, #15, .T. ) ;
#198 = CARTESIAN_POINT ( 'NONE',  ( 0.000000000000000000, 1.250000000000000000, 0.000000000000000000 ) ) ;
#199 = SPHERICAL_SURFACE ( 'NONE', #232, 0.1250000000000000000 ) ;
#200 = PRESENTATION_LAYER_ASSIGNMENT (  '', '', ( #28 ) ) ;
#201 =( LENGTH_UNIT ( ) NAMED_UNIT ( * ) SI_UNIT ( $, .METRE. ) );
#202 = SURFACE_STYLE_FILL_AREA ( #162 ) ;
#203 = DIRECTION ( 'NONE',  ( -0.000000000000000000, -1.000000000000000000, -0.000000000000000000 ) ) ;
#204 =( NAMED_UNIT ( * ) SI_UNIT ( $, .STERADIAN. ) SOLID_ANGLE_UNIT ( ) );
#205 =( NAMED_UNIT ( * ) SI_UNIT ( $, .STERADIAN. ) SOLID_ANGLE_UNIT ( ) );
#206 = CIRCLE ( 'NONE', #258, 0.1250000000000000000 ) ;
#207 = EDGE_CURVE ( 'NONE', #63, #262, #358, .T. ) ;
#208 = UNCERTAINTY_MEASURE_WITH_UNIT (LENGTH_MEASURE( 1.000000000000000082E-05 ), #247, 'distance_accuracy_value', 'NONE');
#209 = DIRECTION ( 'NONE',  ( -0.000000000000000000, -1.000000000000000000, -0.000000000000000000 ) ) ;
#210 = PRODUCT ( '81677', '81677', '', ( #59 ) ) ;
#211 = DIRECTION ( 'NONE',  ( 0.000000000000000000, 0.000000000000000000, -1.000000000000000000 ) ) ;
#212 = AXIS2_PLACEMENT_3D ( 'NONE', #308, #321, #353 ) ;
#213 = DIRECTION ( 'NONE',  ( -1.238947070684728634E-16, 1.000000000000000000, -0.000000000000000000 ) ) ;
#214 = FILL_AREA_STYLE ('',( #119 ) ) ;
#215 = DIRECTION ( 'NONE',  ( 1.000000000000000000, 0.000000000000000000, 0.000000000000000000 ) ) ;
#216 = ORIENTED_EDGE ( 'NONE', *, *, #15, .F. ) ;
#217 = COLOUR_RGB ( '',0.7921568627450980005, 0.8196078431372548767, 0.9333333333333333481 ) ;
#218 = FACE_OUTER_BOUND ( 'NONE', #343, .T. ) ;
#219 = ORIENTED_EDGE ( 'NONE', *, *, #175, .T. ) ;
#220 = DIRECTION ( 'NONE',  ( -0.000000000000000000, -1.000000000000000000, -0.000000000000000000 ) ) ;
#221 = ORIENTED_EDGE ( 'NONE', *, *, #244, .T. ) ;
#222 = DIRECTION ( 'NONE',  ( 0.000000000000000000, 1.000000000000000000, 0.000000000000000000 ) ) ;
#223 =( NAMED_UNIT ( * ) PLANE_ANGLE_UNIT ( ) SI_UNIT ( $, .RADIAN. ) );
#224 = ORIENTED_EDGE ( 'NONE', *, *, #244, .F. ) ;
#225 = LENGTH_MEASURE_WITH_UNIT ( LENGTH_MEASURE( 0.02539999999999999897 ), #78 );
#226 = COLOUR_RGB ( '',1.000000000000000000, 0.000000000000000000, 0.000000000000000000 ) ;
#227 = CARTESIAN_POINT ( 'NONE',  ( -6.123233995736772199E-17, 3.000000000000000444, 0.000000000000000000 ) ) ;
#228 = PRODUCT_RELATED_PRODUCT_CATEGORY ( 'part', '', ( #210 ) ) ;
#229 = CARTESIAN_POINT ( 'NONE',  ( 0.000000000000000000, 0.000000000000000000, 0.000000000000000000 ) ) ;
#230 = PRESENTATION_LAYER_ASSIGNMENT (  '', '', ( #283 ) ) ;
#231 = APPLICATION_CONTEXT ( 'automotive_design' ) ;
#232 = AXIS2_PLACEMENT_3D ( 'NONE', #117, #35, #33 ) ;
#233 =( NAMED_UNIT ( * ) PLANE_ANGLE_UNIT ( ) SI_UNIT ( $, .RADIAN. ) );
#234 = FACE_OUTER_BOUND ( 'NONE', #133, .T. ) ;
#235 = PRESENTATION_STYLE_ASSIGNMENT (( #7 ) ) ;
#236 = DIRECTION ( 'NONE',  ( 0.000000000000000000, 0.000000000000000000, -1.000000000000000000 ) ) ;
#237 =( CONVERSION_BASED_UNIT ( 'INCH', #40 ) LENGTH_UNIT ( ) NAMED_UNIT ( #102 ) );
#238 = EDGE_CURVE ( 'NONE', #256, #166, #144, .T. ) ;
#239 = DIRECTION ( 'NONE',  ( -0.000000000000000000, -1.000000000000000000, -0.000000000000000000 ) ) ;
#240 = FILL_AREA_STYLE ('',( #269 ) ) ;
#241 = PRODUCT_DEFINITION_CONTEXT ( 'detailed design', #91, 'design' ) ;
#242 = MECHANICAL_DESIGN_GEOMETRIC_PRESENTATION_REPRESENTATION (  '', ( #283 ), #104 ) ;
#243 = PRESENTATION_LAYER_ASSIGNMENT (  '', '', ( #356 ) ) ;
#244 = EDGE_CURVE ( 'NONE', #74, #334, #276, .T. ) ;
#245 =( CONVERSION_BASED_UNIT ( 'INCH', #123 ) LENGTH_UNIT ( ) NAMED_UNIT ( #362 ) );
#246 = ORIENTED_EDGE ( 'NONE', *, *, #72, .F. ) ;
#247 =( CONVERSION_BASED_UNIT ( 'INCH', #14 ) LENGTH_UNIT ( ) NAMED_UNIT ( #181 ) );
#248 = DIRECTION ( 'NONE',  ( 0.000000000000000000, 0.000000000000000000, -1.000000000000000000 ) ) ;
#249 = FILL_AREA_STYLE ('',( #341 ) ) ;
#250 = AXIS2_PLACEMENT_3D ( 'NONE', #48, #183, #215 ) ;
#251 = VERTEX_POINT ( 'NONE', #301 ) ;
#252 =( CONVERSION_BASED_UNIT ( 'INCH', #225 ) LENGTH_UNIT ( ) NAMED_UNIT ( #125 ) );
#253 = EDGE_CURVE ( 'NONE', #251, #74, #178, .T. ) ;
#254 = ORIENTED_EDGE ( 'NONE', *, *, #277, .T. ) ;
#255 = CARTESIAN_POINT ( 'NONE',  ( -6.123233995736772199E-17, 3.000000000000000444, 0.000000000000000000 ) ) ;
#256 = VERTEX_POINT ( 'NONE', #179 ) ;
#257 = DIRECTION ( 'NONE',  ( 0.000000000000000000, 0.000000000000000000, -1.000000000000000000 ) ) ;
#258 = AXIS2_PLACEMENT_3D ( 'NONE', #84, #352, #43 ) ;
#259 = MECHANICAL_DESIGN_GEOMETRIC_PRESENTATION_REPRESENTATION (  '', ( #356 ), #185 ) ;
#260 = ORIENTED_EDGE ( 'NONE', *, *, #19, .F. ) ;
#261 = SURFACE_STYLE_USAGE ( .BOTH. , #294 ) ;
#262 = VERTEX_POINT ( 'NONE', #18 ) ;
#263 = DIRECTION ( 'NONE',  ( 0.000000000000000000, 0.000000000000000000, 1.000000000000000000 ) ) ;
#264 =( CONVERSION_BASED_UNIT ( 'INCH', #318 ) LENGTH_UNIT ( ) NAMED_UNIT ( #154 ) );
#265 =( CONVERSION_BASED_UNIT ( 'INCH', #139 ) LENGTH_UNIT ( ) NAMED_UNIT ( #150 ) );
#266 = AXIS2_PLACEMENT_3D ( 'NONE', #273, #270, #300 ) ;
#267 = AXIS2_PLACEMENT_3D ( 'NONE', #165, #263, #142 ) ;
#268 = SURFACE_STYLE_FILL_AREA ( #161 ) ;
#269 = FILL_AREA_STYLE_COLOUR ( '', #120 ) ;
#270 = DIRECTION ( 'NONE',  ( -1.238947070684728634E-16, 1.000000000000000000, 0.000000000000000000 ) ) ;
#271 = DIRECTION ( 'NONE',  ( -0.000000000000000000, -1.000000000000000000, -0.000000000000000000 ) ) ;
#272 = CIRCLE ( 'NONE', #293, 0.1250000000000000000 ) ;
#273 = CARTESIAN_POINT ( 'NONE',  ( 1.555833974124598198E-16, 1.250000000000000000, 0.000000000000000000 ) ) ;
#274 = SURFACE_STYLE_USAGE ( .BOTH. , #41 ) ;
#275 = AXIS2_PLACEMENT_3D ( 'NONE', #229, #371, #349 ) ;
#276 = CIRCLE ( 'NONE', #94, 0.1250000000000000000 ) ;
#277 = EDGE_CURVE ( 'NONE', #334, #166, #307, .T. ) ;
#278 = FACE_OUTER_BOUND ( 'NONE', #279, .T. ) ;
#279 = EDGE_LOOP ( 'NONE', ( #112, #337, #219, #62 ) ) ;
#280 = DIRECTION ( 'NONE',  ( -0.000000000000000000, -1.000000000000000000, -0.000000000000000000 ) ) ;
#281 = UNCERTAINTY_MEASURE_WITH_UNIT (LENGTH_MEASURE( 1.000000000000000082E-05 ), #264, 'distance_accuracy_value', 'NONE');
#282 = DIRECTION ( 'NONE',  ( -1.238947070684728634E-16, 1.000000000000000000, -0.000000000000000000 ) ) ;
#283 = STYLED_ITEM ( 'NONE', ( #235 ), #95 ) ;
#284 = VECTOR ( 'NONE', #12, 39.37007874015748143 ) ;
#285 = FACE_OUTER_BOUND ( 'NONE', #51, .T. ) ;
#286 = ORIENTED_EDGE ( 'NONE', *, *, #175, .F. ) ;
#287 = DIRECTION ( 'NONE',  ( -0.000000000000000000, -1.000000000000000000, -0.000000000000000000 ) ) ;
#288 =( LENGTH_UNIT ( ) NAMED_UNIT ( * ) SI_UNIT ( $, .METRE. ) );
#289 = ORIENTED_EDGE ( 'NONE', *, *, #66, .T. ) ;
#290 = CARTESIAN_POINT ( 'NONE',  ( -6.123233995736772199E-17, 3.000000000000000444, 0.000000000000000000 ) ) ;
#291 =( NAMED_UNIT ( * ) SI_UNIT ( $, .STERADIAN. ) SOLID_ANGLE_UNIT ( ) );
#292 = FILL_AREA_STYLE_COLOUR ( '', #146 ) ;
#293 = AXIS2_PLACEMENT_3D ( 'NONE', #345, #287, #160 ) ;
#294 = SURFACE_SIDE_STYLE ('',( #366 ) ) ;
#295 =( CONVERSION_BASED_UNIT ( 'INCH', #138 ) LENGTH_UNIT ( ) NAMED_UNIT ( #53 ) );
#296 = UNCERTAINTY_MEASURE_WITH_UNIT (LENGTH_MEASURE( 1.000000000000000082E-05 ), #252, 'distance_accuracy_value', 'NONE');
#297 = DIRECTION ( 'NONE',  ( 0.000000000000000000, 0.000000000000000000, -1.000000000000000000 ) ) ;
#298 = VERTEX_POINT ( 'NONE', #108 ) ;
#299 = EDGE_CURVE ( 'NONE', #311, #34, #163, .T. ) ;
#300 = DIRECTION ( 'NONE',  ( -1.000000000000000000, -1.238947070684728634E-16, 0.000000000000000000 ) ) ;
#301 = CARTESIAN_POINT ( 'NONE',  ( 0.1250000000000000000, 0.1250000000000000278, 0.000000000000000000 ) ) ;
#302 = MECHANICAL_DESIGN_GEOMETRIC_PRESENTATION_REPRESENTATION (  '', ( #306 ), #357 ) ;
#303 = AXIS2_PLACEMENT_3D ( 'NONE', #364, #220, #248 ) ;
#304 = DIRECTION ( 'NONE',  ( -1.238947070684728634E-16, 1.000000000000000000, -0.000000000000000000 ) ) ;
#305 = PRODUCT_DEFINITION_SHAPE ( 'NONE', 'NONE',  #42 ) ;
#306 = STYLED_ITEM ( 'NONE', ( #32 ), #55 ) ;
#307 = CIRCLE ( 'NONE', #61, 0.1250000000000000000 ) ;
#308 = CARTESIAN_POINT ( 'NONE',  ( 0.1249999999999998473, 3.000000000000000444, 0.000000000000000000 ) ) ;
#309 =( NAMED_UNIT ( * ) PLANE_ANGLE_UNIT ( ) SI_UNIT ( $, .RADIAN. ) );
#310 = EDGE_LOOP ( 'NONE', ( #246, #254, #46, #289 ) ) ;
#311 = VERTEX_POINT ( 'NONE', #127 ) ;
#312 = ORIENTED_EDGE ( 'NONE', *, *, #277, .F. ) ;
#313 = PLANE ( 'NONE',  #370 ) ;
#314 = ORIENTED_EDGE ( 'NONE', *, *, #238, .T. ) ;
#315 = DIRECTION ( 'NONE',  ( -1.000000000000000000, 0.000000000000000000, 0.000000000000000000 ) ) ;
#316 = ADVANCED_FACE ( 'NONE', ( #285 ), #313, .T. ) ;
#317 = LENGTH_MEASURE_WITH_UNIT ( LENGTH_MEASURE( 0.02539999999999999897 ), #288 );
#318 = LENGTH_MEASURE_WITH_UNIT ( LENGTH_MEASURE( 0.02539999999999999897 ), #201 );
#319 =( NAMED_UNIT ( * ) SI_UNIT ( $, .STERADIAN. ) SOLID_ANGLE_UNIT ( ) );
#320 = UNCERTAINTY_MEASURE_WITH_UNIT (LENGTH_MEASURE( 1.000000000000000082E-05 ), #29, 'distance_accuracy_value', 'NONE');
#321 = DIRECTION ( 'NONE',  ( 1.238947070684728634E-16, -1.000000000000000000, 0.000000000000000000 ) ) ;
#322 = PRESENTATION_LAYER_ASSIGNMENT (  '', '', ( #176 ) ) ;
#323 = AXIS2_PLACEMENT_3D ( 'NONE', #147, #239, #211 ) ;
#324 = DIRECTION ( 'NONE',  ( -1.000000000000000000, 0.000000000000000000, 0.000000000000000000 ) ) ;
#325 = APPLICATION_PROTOCOL_DEFINITION ( 'draft international standard', 'automotive_design', 1998, #91 ) ;
#326 = CARTESIAN_POINT ( 'NONE',  ( -1.530808498934191509E-17, 0.1250000000000000000, 0.000000000000000000 ) ) ;
#327 = CARTESIAN_POINT ( 'NONE',  ( 0.000000000000000000, 1.250000000000000000, 0.000000000000000000 ) ) ;
#328 = ADVANCED_FACE ( 'NONE', ( #192 ), #56, .T. ) ;
#329 = UNCERTAINTY_MEASURE_WITH_UNIT (LENGTH_MEASURE( 1.000000000000000082E-05 ), #265, 'distance_accuracy_value', 'NONE');
#330 = CARTESIAN_POINT ( 'NONE',  ( 0.000000000000000000, 0.000000000000000000, -0.1249999999999999306 ) ) ;
#331 = ORIENTED_EDGE ( 'NONE', *, *, #36, .F. ) ;
#332 = EDGE_CURVE ( 'NONE', #166, #251, #272, .T. ) ;
#333 = CYLINDRICAL_SURFACE ( 'NONE', #275, 0.1249999999999999306 ) ;
#334 = VERTEX_POINT ( 'NONE', #27 ) ;
#335 = CARTESIAN_POINT ( 'NONE',  ( 0.000000000000000000, 1.250000000000000000, 0.000000000000000000 ) ) ;
#336 = SURFACE_STYLE_FILL_AREA ( #249 ) ;
#337 = ORIENTED_EDGE ( 'NONE', *, *, #36, .T. ) ;
#338 = FILL_AREA_STYLE_COLOUR ( '', #45 ) ;
#339 = CIRCLE ( 'NONE', #128, 0.1249999999999998473 ) ;
#340 = ADVANCED_FACE ( 'NONE', ( #26 ), #82, .F. ) ;
#341 = FILL_AREA_STYLE_COLOUR ( '', #44 ) ;
#342 = PRESENTATION_LAYER_ASSIGNMENT (  '', '', ( #64 ) ) ;
#343 = EDGE_LOOP ( 'NONE', ( #197, #124, #369, #17, #79 ) ) ;
#344 = ADVANCED_FACE ( 'NONE', ( #234 ), #199, .T. ) ;
#345 = CARTESIAN_POINT ( 'NONE',  ( 0.000000000000000000, 0.1250000000000000278, 0.000000000000000000 ) ) ;
#346 = DIRECTION ( 'NONE',  ( -1.238947070684728634E-16, 1.000000000000000000, -0.000000000000000000 ) ) ;
#347 =( LENGTH_UNIT ( ) NAMED_UNIT ( * ) SI_UNIT ( $, .METRE. ) );
#348 = CLOSED_SHELL ( 'NONE', ( #344, #137, #316, #96, #95 ) ) ;
#349 = DIRECTION ( 'NONE',  ( 0.000000000000000000, 0.000000000000000000, -1.000000000000000000 ) ) ;
#350 = CIRCLE ( 'NONE', #1, 0.1249999999999999167 ) ;
#351 = VECTOR ( 'NONE', #304, 39.37007874015748143 ) ;
#352 = DIRECTION ( 'NONE',  ( 1.224646799147353207E-16, -0.000000000000000000, 1.000000000000000000 ) ) ;
#353 = DIRECTION ( 'NONE',  ( 1.000000000000000000, 1.238947070684728634E-16, 0.000000000000000000 ) ) ;
#354 =( NAMED_UNIT ( * ) SI_UNIT ( $, .STERADIAN. ) SOLID_ANGLE_UNIT ( ) );
#355 =( NAMED_UNIT ( * ) PLANE_ANGLE_UNIT ( ) SI_UNIT ( $, .RADIAN. ) );
#356 = STYLED_ITEM ( 'NONE', ( #31 ), #344 ) ;
#357 =( GEOMETRIC_REPRESENTATION_CONTEXT ( 3 ) GLOBAL_UNCERTAINTY_ASSIGNED_CONTEXT ( ( #281 ) ) GLOBAL_UNIT_ASSIGNED_CONTEXT ( ( #264, #233, #354 ) ) REPRESENTATION_CONTEXT ( 'NONE', 'WORKASPACE' ) );
#358 = CIRCLE ( 'NONE', #4, 0.1249999999999996947 ) ;
#359 = CARTESIAN_POINT ( 'NONE',  ( -0.1249999999999998612, 3.000000000000000444, 0.000000000000000000 ) ) ;
#360 = DIRECTION ( 'NONE',  ( -1.238947070684728634E-16, 1.000000000000000000, -0.000000000000000000 ) ) ;
#361 = ORIENTED_EDGE ( 'NONE', *, *, #152, .F. ) ;
#362 = DIMENSIONAL_EXPONENTS ( 1.000000000000000000, 0.000000000000000000, 0.000000000000000000, 0.000000000000000000, 0.000000000000000000, 0.000000000000000000, 0.000000000000000000 ) ;
#363 = MECHANICAL_DESIGN_GEOMETRIC_PRESENTATION_REPRESENTATION (  '', ( #86 ), #140 ) ;
#364 = CARTESIAN_POINT ( 'NONE',  ( 0.000000000000000000, 0.000000000000000000, 0.000000000000000000 ) ) ;
#365 = ORIENTED_EDGE ( 'NONE', *, *, #299, .T. ) ;
#366 = SURFACE_STYLE_FILL_AREA ( #132 ) ;
#367 = ORIENTED_EDGE ( 'NONE', *, *, #72, .T. ) ;
#368 = CYLINDRICAL_SURFACE ( 'NONE', #303, 0.1249999999999999306 ) ;
#369 = ORIENTED_EDGE ( 'NONE', *, *, #253, .F. ) ;
#370 = AXIS2_PLACEMENT_3D ( 'NONE', #335, #222, #111 ) ;
#371 = DIRECTION ( 'NONE',  ( -0.000000000000000000, -1.000000000000000000, -0.000000000000000000 ) ) ;
#372 = DIRECTION ( 'NONE',  ( -0.000000000000000000, -1.000000000000000000, -0.000000000000000000 ) ) ;
#373 = DIRECTION ( 'NONE',  ( -1.000000000000000000, 0.000000000000000000, 0.000000000000000000 ) ) ;
ENDSEC;
END-ISO-10303-21;
