ISO-10303-21;
HEADER;
FILE_DESCRIPTION (( 'STEP AP214' ),
    '1' );
FILE_NAME ('Micro_SBMM-020-406.STEP',
    '2021-09-02T17:05:20',
    ( '' ),
    ( '' ),
    'SwSTEP 2.0',
    'SolidWorks 2020',
    '' );
FILE_SCHEMA (( 'AUTOMOTIVE_DESIGN' ));
ENDSEC;

DATA;
#1 = APPLICATION_PROTOCOL_DEFINITION ( 'draft international standard', 'automotive_design', 1998, #111 ) ;
#2 = VERTEX_POINT ( 'NONE', #50 ) ;
#3 = VECTOR ( 'NONE', #20, 39.37007874015748854 ) ;
#4 = CARTESIAN_POINT ( 'NONE',  ( -0.02559049999999997438, 0.0000000000000000000, 0.0000000000000000000 ) ) ;
#5 = DIMENSIONAL_EXPONENTS ( 1.000000000000000000, 0.0000000000000000000, 0.0000000000000000000, 0.0000000000000000000, 0.0000000000000000000, 0.0000000000000000000, 0.0000000000000000000 ) ;
#6 = PRESENTATION_STYLE_ASSIGNMENT (( #58 ) ) ;
#7 = DIRECTION ( 'NONE',  ( -0.0000000000000000000, -0.0000000000000000000, -1.000000000000000000 ) ) ;
#8 = CIRCLE ( 'NONE', #301, 0.1181100000000000344 ) ;
#9 = DIRECTION ( 'NONE',  ( -1.000000000000000000, 0.0000000000000000000, 0.0000000000000000000 ) ) ;
#10 = EDGE_CURVE ( 'NONE', #312, #333, #215, .T. ) ;
#11 = EDGE_LOOP ( 'NONE', ( #258, #134, #131, #89 ) ) ;
#12 = LINE ( 'NONE', #33, #269 ) ;
#13 = DIRECTION ( 'NONE',  ( 0.0000000000000000000, 0.0000000000000000000, -1.000000000000000000 ) ) ;
#14 = ADVANCED_BREP_SHAPE_REPRESENTATION ( 'Micro_SBMM-020-406', ( #158, #247 ), #107 ) ;
#15 = EDGE_CURVE ( 'NONE', #104, #53, #176, .T. ) ;
#16 = ORIENTED_EDGE ( 'NONE', *, *, #171, .T. ) ;
#17 = DIRECTION ( 'NONE',  ( 1.000000000000000000, 1.224646799147353207E-16, -0.0000000000000000000 ) ) ;
#18 = EDGE_CURVE ( 'NONE', #343, #159, #40, .T. ) ;
#19 = CARTESIAN_POINT ( 'NONE',  ( 0.0000000000000000000, 0.0000000000000000000, 2.952755999999999936 ) ) ;
#20 = DIRECTION ( 'NONE',  ( 0.09001740739397517954, 0.0000000000000000000, 0.9959401921631976240 ) ) ;
#21 = COLOUR_RGB ( '',0.7921568627450980005, 0.8196078431372548767, 0.9333333333333333481 ) ;
#22 = DIRECTION ( 'NONE',  ( 1.000000000000000000, 0.0000000000000000000, 0.0000000000000000000 ) ) ;
#23 = EDGE_CURVE ( 'NONE', #170, #173, #94, .T. ) ;
#24 = AXIS2_PLACEMENT_3D ( 'NONE', #235, #67, #172 ) ;
#25 = DIRECTION ( 'NONE',  ( 1.000000000000000000, 0.0000000000000000000, 0.0000000000000000000 ) ) ;
#26 = FACE_OUTER_BOUND ( 'NONE', #177, .T. ) ;
#27 = DIRECTION ( 'NONE',  ( -1.000000000000000000, 0.0000000000000000000, 0.0000000000000000000 ) ) ;
#28 = AXIS2_PLACEMENT_3D ( 'NONE', #205, #316, #41 ) ;
#29 = ORIENTED_EDGE ( 'NONE', *, *, #294, .T. ) ;
#30 = AXIS2_PLACEMENT_3D ( 'NONE', #221, #84, #9 ) ;
#31 = ADVANCED_FACE ( 'NONE', ( #100 ), #273, .T. ) ;
#32 = CARTESIAN_POINT ( 'NONE',  ( -0.1031099999999991745, 0.0000000000000000000, 2.952755999999999936 ) ) ;
#33 = CARTESIAN_POINT ( 'NONE',  ( -0.1299209999999997589, 1.591073367920229727E-17, 1.390518276595741343 ) ) ;
#34 = DIRECTION ( 'NONE',  ( -0.0000000000000000000, -0.0000000000000000000, -1.000000000000000000 ) ) ;
#35 = ORIENTED_EDGE ( 'NONE', *, *, #23, .F. ) ;
#36 = FACE_OUTER_BOUND ( 'NONE', #73, .T. ) ;
#37 = UNCERTAINTY_MEASURE_WITH_UNIT (LENGTH_MEASURE( 1.000000000000000082E-05 ), #220, 'distance_accuracy_value', 'NONE');
#38 = ORIENTED_EDGE ( 'NONE', *, *, #10, .T. ) ;
#39 = FACE_OUTER_BOUND ( 'NONE', #315, .T. ) ;
#40 = CIRCLE ( 'NONE', #248, 0.1031099999999991745 ) ;
#41 = DIRECTION ( 'NONE',  ( -1.000000000000000000, 0.0000000000000000000, 0.0000000000000000000 ) ) ;
#42 = DIRECTION ( 'NONE',  ( -0.0000000000000000000, -0.0000000000000000000, -1.000000000000000000 ) ) ;
#43 = DIRECTION ( 'NONE',  ( 1.000000000000000000, 0.0000000000000000000, -0.0000000000000000000 ) ) ;
#44 = PRODUCT_DEFINITION_SHAPE ( 'NONE', 'NONE',  #302 ) ;
#45 = ADVANCED_FACE ( 'NONE', ( #321 ), #132, .T. ) ;
#46 = MECHANICAL_DESIGN_GEOMETRIC_PRESENTATION_REPRESENTATION (  '', ( #194 ), #140 ) ;
#47 = DIRECTION ( 'NONE',  ( 0.0000000000000000000, 0.0000000000000000000, 1.000000000000000000 ) ) ;
#48 = PRODUCT ( 'Micro_SBMM-020-406', 'Micro_SBMM-020-406', '', ( #75 ) ) ;
#49 = ADVANCED_FACE ( 'NONE', ( #160 ), #115, .T. ) ;
#50 = CARTESIAN_POINT ( 'NONE',  ( 0.02559049999999998479, 3.133932391358032475E-18, 0.06928860975630385388 ) ) ;
#51 = PRODUCT_DEFINITION_FORMATION_WITH_SPECIFIED_SOURCE ( 'ANY', '', #48, .NOT_KNOWN. ) ;
#52 = SHAPE_DEFINITION_REPRESENTATION ( #44, #14 ) ;
#53 = VERTEX_POINT ( 'NONE', #80 ) ;
#54 = CARTESIAN_POINT ( 'NONE',  ( 0.0000000000000000000, 0.0000000000000000000, 0.03937000000000000915 ) ) ;
#55 = DIRECTION ( 'NONE',  ( -1.000000000000000000, 0.0000000000000000000, 0.0000000000000000000 ) ) ;
#56 = ADVANCED_FACE ( 'NONE', ( #26 ), #214, .T. ) ;
#57 = PRESENTATION_LAYER_ASSIGNMENT (  '', '', ( #194 ) ) ;
#58 = SURFACE_STYLE_USAGE ( .BOTH. , #145 ) ;
#59 = DIRECTION ( 'NONE',  ( 1.000000000000000000, 0.0000000000000000000, 0.0000000000000000000 ) ) ;
#60 = ORIENTED_EDGE ( 'NONE', *, *, #126, .F. ) ;
#61 =( LENGTH_UNIT ( ) NAMED_UNIT ( * ) SI_UNIT ( $, .METRE. ) );
#62 = VECTOR ( 'NONE', #7, 39.37007874015748143 ) ;
#63 = EDGE_LOOP ( 'NONE', ( #60, #193, #255, #35 ) ) ;
#64 = FILL_AREA_STYLE_COLOUR ( '', #21 ) ;
#65 = ORIENTED_EDGE ( 'NONE', *, *, #210, .T. ) ;
#66 = EDGE_CURVE ( 'NONE', #170, #336, #189, .T. ) ;
#67 = DIRECTION ( 'NONE',  ( 0.0000000000000000000, 0.0000000000000000000, 1.000000000000000000 ) ) ;
#68 = LENGTH_MEASURE_WITH_UNIT ( LENGTH_MEASURE( 0.02539999999999999897 ), #257 );
#69 = AXIS2_PLACEMENT_3D ( 'NONE', #19, #310, #43 ) ;
#70 = ORIENTED_EDGE ( 'NONE', *, *, #289, .F. ) ;
#71 = ORIENTED_EDGE ( 'NONE', *, *, #136, .T. ) ;
#72 = DIRECTION ( 'NONE',  ( -0.0000000000000000000, -0.0000000000000000000, -1.000000000000000000 ) ) ;
#73 = EDGE_LOOP ( 'NONE', ( #29, #163, #185, #305 ) ) ;
#74 = CYLINDRICAL_SURFACE ( 'NONE', #28, 0.1181100000000000344 ) ;
#75 = PRODUCT_CONTEXT ( 'NONE', #242, 'mechanical' ) ;
#76 = SURFACE_SIDE_STYLE ('',( #323 ) ) ;
#77 = DIRECTION ( 'NONE',  ( 1.000000000000000000, 0.0000000000000000000, 0.0000000000000000000 ) ) ;
#78 = DIRECTION ( 'NONE',  ( 0.0000000000000000000, 0.0000000000000000000, 1.000000000000000000 ) ) ;
#79 = ADVANCED_FACE ( 'NONE', ( #36 ), #192, .T. ) ;
#80 = CARTESIAN_POINT ( 'NONE',  ( 0.0000000000000000000, 2.410717224121564242E-18, 1.707404996040164512E-17 ) ) ;
#81 = DIRECTION ( 'NONE',  ( -0.0000000000000000000, -0.0000000000000000000, -1.000000000000000000 ) ) ;
#82 = AXIS2_PLACEMENT_3D ( 'NONE', #212, #272, #55 ) ;
#83 = CARTESIAN_POINT ( 'NONE',  ( 0.02559049999999997091, 0.0000000000000000000, 0.2362200000000000688 ) ) ;
#84 = DIRECTION ( 'NONE',  ( -0.0000000000000000000, -0.0000000000000000000, -1.000000000000000000 ) ) ;
#85 = DIMENSIONAL_EXPONENTS ( 1.000000000000000000, 0.0000000000000000000, 0.0000000000000000000, 0.0000000000000000000, 0.0000000000000000000, 0.0000000000000000000, 0.0000000000000000000 ) ;
#86 = SURFACE_STYLE_FILL_AREA ( #223 ) ;
#87 = EDGE_LOOP ( 'NONE', ( #249, #268, #216, #144 ) ) ;
#88 = FACE_OUTER_BOUND ( 'NONE', #63, .T. ) ;
#89 = ORIENTED_EDGE ( 'NONE', *, *, #113, .F. ) ;
#90 = CARTESIAN_POINT ( 'NONE',  ( -0.02559049999999998479, 0.0000000000000000000, 0.06928860975630385388 ) ) ;
#91 = EDGE_LOOP ( 'NONE', ( #234, #317, #295, #153 ) ) ;
#92 = DIRECTION ( 'NONE',  ( 0.7071067811865486830, 8.659560562354947649E-17, -0.7071067811865462405 ) ) ;
#93 = DIRECTION ( 'NONE',  ( -0.0000000000000000000, -0.0000000000000000000, -1.000000000000000000 ) ) ;
#94 = LINE ( 'NONE', #263, #3 ) ;
#95 = DIRECTION ( 'NONE',  ( -0.0000000000000000000, -0.0000000000000000000, -1.000000000000000000 ) ) ;
#96 = ORIENTED_EDGE ( 'NONE', *, *, #294, .F. ) ;
#97 = DIRECTION ( 'NONE',  ( -1.000000000000000000, 0.0000000000000000000, 0.0000000000000000000 ) ) ;
#98 = CONICAL_SURFACE ( 'NONE', #225, 0.1299209999999997589, 0.09013942335351884938 ) ;
#99 = FILL_AREA_STYLE_COLOUR ( '', #306 ) ;
#100 = FACE_OUTER_BOUND ( 'NONE', #11, .T. ) ;
#101 = DIRECTION ( 'NONE',  ( 0.0000000000000000000, 0.0000000000000000000, -1.000000000000000000 ) ) ;
#102 = EDGE_CURVE ( 'NONE', #336, #142, #12, .T. ) ;
#103 = CIRCLE ( 'NONE', #108, 0.02559049999999997091 ) ;
#104 = VERTEX_POINT ( 'NONE', #139 ) ;
#105 = LINE ( 'NONE', #138, #62 ) ;
#106 = LINE ( 'NONE', #166, #319 ) ;
#107 =( GEOMETRIC_REPRESENTATION_CONTEXT ( 3 ) GLOBAL_UNCERTAINTY_ASSIGNED_CONTEXT ( ( #252 ) ) GLOBAL_UNIT_ASSIGNED_CONTEXT ( ( #335, #151, #209 ) ) REPRESENTATION_CONTEXT ( 'NONE', 'WORKASPACE' ) );
#108 = AXIS2_PLACEMENT_3D ( 'NONE', #109, #34, #169 ) ;
#109 = CARTESIAN_POINT ( 'NONE',  ( 0.0000000000000000000, 0.0000000000000000000, 0.2362200000000000688 ) ) ;
#110 = ORIENTED_EDGE ( 'NONE', *, *, #125, .F. ) ;
#111 = APPLICATION_CONTEXT ( 'automotive_design' ) ;
#112 = ORIENTED_EDGE ( 'NONE', *, *, #246, .T. ) ;
#113 = EDGE_CURVE ( 'NONE', #159, #312, #106, .T. ) ;
#114 = DIRECTION ( 'NONE',  ( -1.000000000000000000, 0.0000000000000000000, 0.0000000000000000000 ) ) ;
#115 = CONICAL_SURFACE ( 'NONE', #308, 0.1031099999999991745, 0.7853981633974500554 ) ;
#116 = PRESENTATION_LAYER_ASSIGNMENT (  '', '', ( #147 ) ) ;
#117 = ORIENTED_EDGE ( 'NONE', *, *, #344, .T. ) ;
#118 = DIRECTION ( 'NONE',  ( -1.000000000000000000, 0.0000000000000000000, 0.0000000000000000000 ) ) ;
#119 = ORIENTED_EDGE ( 'NONE', *, *, #126, .T. ) ;
#120 = DIRECTION ( 'NONE',  ( 0.0000000000000000000, 0.0000000000000000000, 1.000000000000000000 ) ) ;
#121 = CARTESIAN_POINT ( 'NONE',  ( 0.0000000000000000000, 0.0000000000000000000, 1.259842999999999602 ) ) ;
#122 = AXIS2_PLACEMENT_3D ( 'NONE', #241, #299, #25 ) ;
#123 = DIRECTION ( 'NONE',  ( -1.000000000000000000, 0.0000000000000000000, 0.0000000000000000000 ) ) ;
#124 = CARTESIAN_POINT ( 'NONE',  ( -0.02559049999999997091, 8.799117868043711275E-18, 0.2362200000000000688 ) ) ;
#125 = EDGE_CURVE ( 'NONE', #2, #307, #291, .T. ) ;
#126 = EDGE_CURVE ( 'NONE', #336, #170, #103, .T. ) ;
#127 = FILL_AREA_STYLE ('',( #99 ) ) ;
#128 = AXIS2_PLACEMENT_3D ( 'NONE', #285, #93, #226 ) ;
#129 = VECTOR ( 'NONE', #92, 39.37007874015748854 ) ;
#130 =( NAMED_UNIT ( * ) SI_UNIT ( $, .STERADIAN. ) SOLID_ANGLE_UNIT ( ) );
#131 = ORIENTED_EDGE ( 'NONE', *, *, #10, .F. ) ;
#132 = SPHERICAL_SURFACE ( 'NONE', #219, 0.03936999999999999528 ) ;
#133 = DIRECTION ( 'NONE',  ( 0.0000000000000000000, 0.0000000000000000000, 1.000000000000000000 ) ) ;
#134 = ORIENTED_EDGE ( 'NONE', *, *, #262, .T. ) ;
#135 = CIRCLE ( 'NONE', #218, 0.03936999999999999528 ) ;
#136 = EDGE_CURVE ( 'NONE', #312, #142, #105, .T. ) ;
#137 = ORIENTED_EDGE ( 'NONE', *, *, #156, .T. ) ;
#138 = CARTESIAN_POINT ( 'NONE',  ( -0.1181100000000000344, 0.0000000000000000000, 2.952755999999999936 ) ) ;
#139 = CARTESIAN_POINT ( 'NONE',  ( 0.0000000000000000000, 0.02559049999999999173, 0.06928860975630385388 ) ) ;
#140 =( GEOMETRIC_REPRESENTATION_CONTEXT ( 3 ) GLOBAL_UNCERTAINTY_ASSIGNED_CONTEXT ( ( #37 ) ) GLOBAL_UNIT_ASSIGNED_CONTEXT ( ( #220, #280, #250 ) ) REPRESENTATION_CONTEXT ( 'NONE', 'WORKASPACE' ) );
#141 = CARTESIAN_POINT ( 'NONE',  ( -0.1181100000000000344, 0.0000000000000000000, 1.259842999999999602 ) ) ;
#142 = VERTEX_POINT ( 'NONE', #141 ) ;
#143 = DIRECTION ( 'NONE',  ( -0.7071067811865486830, 0.0000000000000000000, -0.7071067811865462405 ) ) ;
#144 = ORIENTED_EDGE ( 'NONE', *, *, #251, .F. ) ;
#145 = SURFACE_SIDE_STYLE ('',( #86 ) ) ;
#146 = ORIENTED_EDGE ( 'NONE', *, *, #152, .F. ) ;
#147 = STYLED_ITEM ( 'NONE', ( #236 ), #14 ) ;
#148 = UNCERTAINTY_MEASURE_WITH_UNIT (LENGTH_MEASURE( 1.000000000000000082E-05 ), #184, 'distance_accuracy_value', 'NONE');
#149 = ORIENTED_EDGE ( 'NONE', *, *, #292, .F. ) ;
#150 = CARTESIAN_POINT ( 'NONE',  ( 3.133932391358032860E-18, -0.02559049999999999173, 0.06928860975630385388 ) ) ;
#151 =( NAMED_UNIT ( * ) PLANE_ANGLE_UNIT ( ) SI_UNIT ( $, .RADIAN. ) );
#152 = EDGE_CURVE ( 'NONE', #227, #104, #313, .T. ) ;
#153 = ORIENTED_EDGE ( 'NONE', *, *, #15, .T. ) ;
#154 = CARTESIAN_POINT ( 'NONE',  ( 0.1031099999999991745, 1.354581824536882559E-17, 2.952755999999999936 ) ) ;
#155 = AXIS2_PLACEMENT_3D ( 'NONE', #303, #281, #276 ) ;
#156 = EDGE_CURVE ( 'NONE', #336, #227, #245, .T. ) ;
#157 = LENGTH_MEASURE_WITH_UNIT ( LENGTH_MEASURE( 0.02539999999999999897 ), #342 );
#158 = MANIFOLD_SOLID_BREP ( 'Cut-Revolve3', #233 ) ;
#159 = VERTEX_POINT ( 'NONE', #32 ) ;
#160 = FACE_OUTER_BOUND ( 'NONE', #87, .T. ) ;
#161 =( NAMED_UNIT ( * ) PLANE_ANGLE_UNIT ( ) SI_UNIT ( $, .RADIAN. ) );
#162 = CARTESIAN_POINT ( 'NONE',  ( 0.0000000000000000000, 0.0000000000000000000, 0.0000000000000000000 ) ) ;
#163 = ORIENTED_EDGE ( 'NONE', *, *, #125, .T. ) ;
#164 = CIRCLE ( 'NONE', #128, 0.02559049999999998132 ) ;
#165 = DIRECTION ( 'NONE',  ( -0.0000000000000000000, -0.0000000000000000000, -1.000000000000000000 ) ) ;
#166 = CARTESIAN_POINT ( 'NONE',  ( -0.1031099999999991745, 0.0000000000000000000, 2.952755999999999936 ) ) ;
#167 = DIRECTION ( 'NONE',  ( -0.09001740739397517954, 1.102395298325749875E-17, 0.9959401921631976240 ) ) ;
#168 = AXIS2_PLACEMENT_3D ( 'NONE', #309, #191, #59 ) ;
#169 = DIRECTION ( 'NONE',  ( -1.000000000000000000, 0.0000000000000000000, 0.0000000000000000000 ) ) ;
#170 = VERTEX_POINT ( 'NONE', #83 ) ;
#171 = EDGE_CURVE ( 'NONE', #333, #173, #217, .T. ) ;
#172 = DIRECTION ( 'NONE',  ( 1.000000000000000000, 0.0000000000000000000, 0.0000000000000000000 ) ) ;
#173 = VERTEX_POINT ( 'NONE', #325 ) ;
#174 = AXIS2_PLACEMENT_3D ( 'NONE', #286, #47, #180 ) ;
#175 = FACE_OUTER_BOUND ( 'NONE', #293, .T. ) ;
#176 = CIRCLE ( 'NONE', #330, 0.03936999999999999528 ) ;
#177 = EDGE_LOOP ( 'NONE', ( #119, #260, #96, #146, #270 ) ) ;
#178 = CARTESIAN_POINT ( 'NONE',  ( 0.0000000000000000000, 0.0000000000000000000, 0.0000000000000000000 ) ) ;
#179 = DIRECTION ( 'NONE',  ( 0.0000000000000000000, 1.000000000000000000, 0.0000000000000000000 ) ) ;
#180 = DIRECTION ( 'NONE',  ( 1.000000000000000000, 0.0000000000000000000, 0.0000000000000000000 ) ) ;
#181 = FACE_OUTER_BOUND ( 'NONE', #204, .T. ) ;
#182 = PRODUCT_RELATED_PRODUCT_CATEGORY ( 'part', '', ( #48 ) ) ;
#183 = AXIS2_PLACEMENT_3D ( 'NONE', #326, #165, #304 ) ;
#184 =( CONVERSION_BASED_UNIT ( 'INCH', #157 ) LENGTH_UNIT ( ) NAMED_UNIT ( #5 ) );
#185 = ORIENTED_EDGE ( 'NONE', *, *, #320, .T. ) ;
#186 = CARTESIAN_POINT ( 'NONE',  ( 0.0000000000000000000, 0.0000000000000000000, 0.03937000000000000915 ) ) ;
#187 = VECTOR ( 'NONE', #329, 39.37007874015748143 ) ;
#188 = ORIENTED_EDGE ( 'NONE', *, *, #66, .F. ) ;
#189 = CIRCLE ( 'NONE', #296, 0.02559049999999997091 ) ;
#190 = DIMENSIONAL_EXPONENTS ( 1.000000000000000000, 0.0000000000000000000, 0.0000000000000000000, 0.0000000000000000000, 0.0000000000000000000, 0.0000000000000000000, 0.0000000000000000000 ) ;
#191 = DIRECTION ( 'NONE',  ( 0.0000000000000000000, 0.0000000000000000000, 1.000000000000000000 ) ) ;
#192 = SPHERICAL_SURFACE ( 'NONE', #155, 0.03936999999999999528 ) ;
#193 = ORIENTED_EDGE ( 'NONE', *, *, #102, .T. ) ;
#194 = STYLED_ITEM ( 'NONE', ( #6 ), #158 ) ;
#195 = DIRECTION ( 'NONE',  ( 0.0000000000000000000, 0.0000000000000000000, 1.000000000000000000 ) ) ;
#196 = PLANE ( 'NONE',  #69 ) ;
#197 = ORIENTED_EDGE ( 'NONE', *, *, #136, .F. ) ;
#198 = ORIENTED_EDGE ( 'NONE', *, *, #23, .T. ) ;
#199 = MECHANICAL_DESIGN_GEOMETRIC_PRESENTATION_REPRESENTATION (  '', ( #147 ), #274 ) ;
#200 = CARTESIAN_POINT ( 'NONE',  ( 0.02559049999999997438, 3.133932391358030934E-18, 0.0000000000000000000 ) ) ;
#201 = AXIS2_PLACEMENT_3D ( 'NONE', #178, #334, #114 ) ;
#202 = DIRECTION ( 'NONE',  ( -1.000000000000000000, 0.0000000000000000000, 0.0000000000000000000 ) ) ;
#203 = CARTESIAN_POINT ( 'NONE',  ( 0.0000000000000000000, 0.0000000000000000000, 0.03937000000000000915 ) ) ;
#204 = EDGE_LOOP ( 'NONE', ( #149, #297, #137, #70, #110 ) ) ;
#205 = CARTESIAN_POINT ( 'NONE',  ( 0.0000000000000000000, 0.0000000000000000000, 2.952755999999999936 ) ) ;
#206 = ADVANCED_FACE ( 'NONE', ( #88 ), #98, .T. ) ;
#207 = CARTESIAN_POINT ( 'NONE',  ( 0.0000000000000000000, 0.0000000000000000000, 0.0000000000000000000 ) ) ;
#208 = VECTOR ( 'NONE', #81, 39.37007874015748143 ) ;
#209 =( NAMED_UNIT ( * ) SI_UNIT ( $, .STERADIAN. ) SOLID_ANGLE_UNIT ( ) );
#210 = EDGE_CURVE ( 'NONE', #159, #343, #279, .T. ) ;
#211 = APPLICATION_PROTOCOL_DEFINITION ( 'draft international standard', 'automotive_design', 1998, #242 ) ;
#212 = CARTESIAN_POINT ( 'NONE',  ( 0.0000000000000000000, 0.0000000000000000000, 2.952755999999999936 ) ) ;
#213 = ADVANCED_FACE ( 'NONE', ( #175 ), #74, .T. ) ;
#214 = CYLINDRICAL_SURFACE ( 'NONE', #337, 0.02559049999999997438 ) ;
#215 = CIRCLE ( 'NONE', #122, 0.1181100000000000344 ) ;
#216 = ORIENTED_EDGE ( 'NONE', *, *, #113, .T. ) ;
#217 = LINE ( 'NONE', #327, #187 ) ;
#218 = AXIS2_PLACEMENT_3D ( 'NONE', #203, #17, #230 ) ;
#219 = AXIS2_PLACEMENT_3D ( 'NONE', #186, #77, #179 ) ;
#220 =( CONVERSION_BASED_UNIT ( 'INCH', #275 ) LENGTH_UNIT ( ) NAMED_UNIT ( #190 ) );
#221 = CARTESIAN_POINT ( 'NONE',  ( 0.0000000000000000000, 0.0000000000000000000, 0.06928860975630385388 ) ) ;
#222 = ORIENTED_EDGE ( 'NONE', *, *, #18, .T. ) ;
#223 = FILL_AREA_STYLE ('',( #64 ) ) ;
#224 = AXIS2_PLACEMENT_3D ( 'NONE', #121, #120, #338 ) ;
#225 = AXIS2_PLACEMENT_3D ( 'NONE', #300, #195, #244 ) ;
#226 = DIRECTION ( 'NONE',  ( -1.000000000000000000, 0.0000000000000000000, 0.0000000000000000000 ) ) ;
#227 = VERTEX_POINT ( 'NONE', #90 ) ;
#228 = CARTESIAN_POINT ( 'NONE',  ( 0.1181100000000000344, 1.446430334472939084E-17, 2.937755999999999368 ) ) ;
#229 = ORIENTED_EDGE ( 'NONE', *, *, #344, .F. ) ;
#230 = DIRECTION ( 'NONE',  ( -1.224646799147352961E-16, 1.000000000000000000, 0.0000000000000000000 ) ) ;
#231 = VECTOR ( 'NONE', #72, 39.37007874015748143 ) ;
#232 = LINE ( 'NONE', #288, #129 ) ;
#233 = CLOSED_SHELL ( 'NONE', ( #56, #79, #206, #31, #328, #213, #341, #49, #298, #45, #256 ) ) ;
#234 = ORIENTED_EDGE ( 'NONE', *, *, #320, .F. ) ;
#235 = CARTESIAN_POINT ( 'NONE',  ( 0.0000000000000000000, 0.0000000000000000000, 1.259842999999999602 ) ) ;
#236 = PRESENTATION_STYLE_ASSIGNMENT (( #240 ) ) ;
#237 = DIRECTION ( 'NONE',  ( -1.000000000000000000, 0.0000000000000000000, 0.0000000000000000000 ) ) ;
#238 = DIRECTION ( 'NONE',  ( 1.000000000000000000, 0.0000000000000000000, 0.0000000000000000000 ) ) ;
#239 = CARTESIAN_POINT ( 'NONE',  ( 0.0000000000000000000, 0.0000000000000000000, 2.952755999999999936 ) ) ;
#240 = SURFACE_STYLE_USAGE ( .BOTH. , #76 ) ;
#241 = CARTESIAN_POINT ( 'NONE',  ( 0.0000000000000000000, 0.0000000000000000000, 2.937755999999999368 ) ) ;
#242 = APPLICATION_CONTEXT ( 'automotive_design' ) ;
#243 = EDGE_LOOP ( 'NONE', ( #65, #222 ) ) ;
#244 = DIRECTION ( 'NONE',  ( 1.000000000000000000, 0.0000000000000000000, 0.0000000000000000000 ) ) ;
#245 = LINE ( 'NONE', #4, #208 ) ;
#246 = EDGE_CURVE ( 'NONE', #173, #142, #266, .T. ) ;
#247 = AXIS2_PLACEMENT_3D ( 'NONE', #207, #133, #238 ) ;
#248 = AXIS2_PLACEMENT_3D ( 'NONE', #324, #339, #345 ) ;
#249 = ORIENTED_EDGE ( 'NONE', *, *, #262, .F. ) ;
#250 =( NAMED_UNIT ( * ) SI_UNIT ( $, .STERADIAN. ) SOLID_ANGLE_UNIT ( ) );
#251 = EDGE_CURVE ( 'NONE', #333, #312, #8, .T. ) ;
#252 = UNCERTAINTY_MEASURE_WITH_UNIT (LENGTH_MEASURE( 1.000000000000000082E-05 ), #335, 'distance_accuracy_value', 'NONE');
#253 = CARTESIAN_POINT ( 'NONE',  ( 0.0000000000000000000, 0.0000000000000000000, 2.952755999999999936 ) ) ;
#254 = CIRCLE ( 'NONE', #264, 0.02559049999999998132 ) ;
#255 = ORIENTED_EDGE ( 'NONE', *, *, #246, .F. ) ;
#256 = ADVANCED_FACE ( 'NONE', ( #181 ), #340, .T. ) ;
#257 =( LENGTH_UNIT ( ) NAMED_UNIT ( * ) SI_UNIT ( $, .METRE. ) );
#258 = ORIENTED_EDGE ( 'NONE', *, *, #18, .F. ) ;
#259 = CARTESIAN_POINT ( 'NONE',  ( 0.0000000000000000000, 0.0000000000000000000, 2.937755999999999368 ) ) ;
#260 = ORIENTED_EDGE ( 'NONE', *, *, #292, .T. ) ;
#261 = CYLINDRICAL_SURFACE ( 'NONE', #277, 0.1181100000000000344 ) ;
#262 = EDGE_CURVE ( 'NONE', #343, #333, #232, .T. ) ;
#263 = CARTESIAN_POINT ( 'NONE',  ( 0.1299209999999997589, 0.0000000000000000000, 1.390518276595741343 ) ) ;
#264 = AXIS2_PLACEMENT_3D ( 'NONE', #332, #95, #97 ) ;
#265 = DIRECTION ( 'NONE',  ( -0.0000000000000000000, -0.0000000000000000000, -1.000000000000000000 ) ) ;
#266 = CIRCLE ( 'NONE', #224, 0.1181100000000000344 ) ;
#267 = CIRCLE ( 'NONE', #24, 0.1181100000000000344 ) ;
#268 = ORIENTED_EDGE ( 'NONE', *, *, #210, .F. ) ;
#269 = VECTOR ( 'NONE', #167, 39.37007874015748854 ) ;
#270 = ORIENTED_EDGE ( 'NONE', *, *, #156, .F. ) ;
#271 = DIRECTION ( 'NONE',  ( -0.0000000000000000000, -0.0000000000000000000, -1.000000000000000000 ) ) ;
#272 = DIRECTION ( 'NONE',  ( 0.0000000000000000000, 0.0000000000000000000, -1.000000000000000000 ) ) ;
#273 = CONICAL_SURFACE ( 'NONE', #82, 0.1031099999999991745, 0.7853981633974500554 ) ;
#274 =( GEOMETRIC_REPRESENTATION_CONTEXT ( 3 ) GLOBAL_UNCERTAINTY_ASSIGNED_CONTEXT ( ( #148 ) ) GLOBAL_UNIT_ASSIGNED_CONTEXT ( ( #184, #161, #130 ) ) REPRESENTATION_CONTEXT ( 'NONE', 'WORKASPACE' ) );
#275 = LENGTH_MEASURE_WITH_UNIT ( LENGTH_MEASURE( 0.02539999999999999897 ), #61 );
#276 = DIRECTION ( 'NONE',  ( 0.0000000000000000000, 1.000000000000000000, 0.0000000000000000000 ) ) ;
#277 = AXIS2_PLACEMENT_3D ( 'NONE', #253, #265, #118 ) ;
#278 = ORIENTED_EDGE ( 'NONE', *, *, #251, .T. ) ;
#279 = CIRCLE ( 'NONE', #168, 0.1031099999999991745 ) ;
#280 =( NAMED_UNIT ( * ) PLANE_ANGLE_UNIT ( ) SI_UNIT ( $, .RADIAN. ) );
#281 = DIRECTION ( 'NONE',  ( 1.000000000000000000, 0.0000000000000000000, 0.0000000000000000000 ) ) ;
#282 = FACE_OUTER_BOUND ( 'NONE', #243, .T. ) ;
#283 = CONICAL_SURFACE ( 'NONE', #174, 0.1299209999999997589, 0.09013942335351884938 ) ;
#284 = ORIENTED_EDGE ( 'NONE', *, *, #171, .F. ) ;
#285 = CARTESIAN_POINT ( 'NONE',  ( 0.0000000000000000000, 0.0000000000000000000, 0.06928860975630385388 ) ) ;
#286 = CARTESIAN_POINT ( 'NONE',  ( 0.0000000000000000000, 0.0000000000000000000, 1.390518276595741343 ) ) ;
#287 = CARTESIAN_POINT ( 'NONE',  ( 0.0000000000000000000, 0.0000000000000000000, 0.2362200000000000688 ) ) ;
#288 = CARTESIAN_POINT ( 'NONE',  ( 0.1031099999999991745, 1.262733314600825725E-17, 2.952755999999999936 ) ) ;
#289 = EDGE_CURVE ( 'NONE', #307, #227, #164, .T. ) ;
#290 = LINE ( 'NONE', #200, #231 ) ;
#291 = CIRCLE ( 'NONE', #183, 0.02559049999999998132 ) ;
#292 = EDGE_CURVE ( 'NONE', #170, #2, #290, .T. ) ;
#293 = EDGE_LOOP ( 'NONE', ( #284, #278, #71, #117 ) ) ;
#294 = EDGE_CURVE ( 'NONE', #104, #2, #254, .T. ) ;
#295 = ORIENTED_EDGE ( 'NONE', *, *, #152, .T. ) ;
#296 = AXIS2_PLACEMENT_3D ( 'NONE', #287, #42, #123 ) ;
#297 = ORIENTED_EDGE ( 'NONE', *, *, #66, .T. ) ;
#298 = ADVANCED_FACE ( 'NONE', ( #39 ), #283, .T. ) ;
#299 = DIRECTION ( 'NONE',  ( 0.0000000000000000000, 0.0000000000000000000, -1.000000000000000000 ) ) ;
#300 = CARTESIAN_POINT ( 'NONE',  ( 0.0000000000000000000, 0.0000000000000000000, 1.390518276595741343 ) ) ;
#301 = AXIS2_PLACEMENT_3D ( 'NONE', #259, #13, #22 ) ;
#302 = PRODUCT_DEFINITION ( 'UNKNOWN', '', #51, #331 ) ;
#303 = CARTESIAN_POINT ( 'NONE',  ( 0.0000000000000000000, 0.0000000000000000000, 0.03937000000000000915 ) ) ;
#304 = DIRECTION ( 'NONE',  ( -1.000000000000000000, 0.0000000000000000000, 0.0000000000000000000 ) ) ;
#305 = ORIENTED_EDGE ( 'NONE', *, *, #15, .F. ) ;
#306 = COLOUR_RGB ( '',0.7921568627450980005, 0.8196078431372548767, 0.9333333333333333481 ) ;
#307 = VERTEX_POINT ( 'NONE', #150 ) ;
#308 = AXIS2_PLACEMENT_3D ( 'NONE', #239, #101, #202 ) ;
#309 = CARTESIAN_POINT ( 'NONE',  ( 0.0000000000000000000, 0.0000000000000000000, 2.952755999999999936 ) ) ;
#310 = DIRECTION ( 'NONE',  ( 0.0000000000000000000, 0.0000000000000000000, 1.000000000000000000 ) ) ;
#311 = ORIENTED_EDGE ( 'NONE', *, *, #102, .F. ) ;
#312 = VERTEX_POINT ( 'NONE', #318 ) ;
#313 = CIRCLE ( 'NONE', #30, 0.02559049999999998132 ) ;
#314 = FACE_OUTER_BOUND ( 'NONE', #322, .T. ) ;
#315 = EDGE_LOOP ( 'NONE', ( #311, #188, #198, #229 ) ) ;
#316 = DIRECTION ( 'NONE',  ( -0.0000000000000000000, -0.0000000000000000000, -1.000000000000000000 ) ) ;
#317 = ORIENTED_EDGE ( 'NONE', *, *, #289, .T. ) ;
#318 = CARTESIAN_POINT ( 'NONE',  ( -0.1181100000000000344, 0.0000000000000000000, 2.937755999999999368 ) ) ;
#319 = VECTOR ( 'NONE', #143, 39.37007874015748854 ) ;
#320 = EDGE_CURVE ( 'NONE', #307, #53, #135, .T. ) ;
#321 = FACE_OUTER_BOUND ( 'NONE', #91, .T. ) ;
#322 = EDGE_LOOP ( 'NONE', ( #38, #16, #112, #197 ) ) ;
#323 = SURFACE_STYLE_FILL_AREA ( #127 ) ;
#324 = CARTESIAN_POINT ( 'NONE',  ( 0.0000000000000000000, 0.0000000000000000000, 2.952755999999999936 ) ) ;
#325 = CARTESIAN_POINT ( 'NONE',  ( 0.1181100000000000344, 1.446430334472939084E-17, 1.259842999999999602 ) ) ;
#326 = CARTESIAN_POINT ( 'NONE',  ( 0.0000000000000000000, 0.0000000000000000000, 0.06928860975630385388 ) ) ;
#327 = CARTESIAN_POINT ( 'NONE',  ( 0.1181100000000000344, 1.446430334472939084E-17, 2.952755999999999936 ) ) ;
#328 = ADVANCED_FACE ( 'NONE', ( #314 ), #261, .T. ) ;
#329 = DIRECTION ( 'NONE',  ( -0.0000000000000000000, -0.0000000000000000000, -1.000000000000000000 ) ) ;
#330 = AXIS2_PLACEMENT_3D ( 'NONE', #54, #237, #78 ) ;
#331 = PRODUCT_DEFINITION_CONTEXT ( 'detailed design', #111, 'design' ) ;
#332 = CARTESIAN_POINT ( 'NONE',  ( 0.0000000000000000000, 0.0000000000000000000, 0.06928860975630385388 ) ) ;
#333 = VERTEX_POINT ( 'NONE', #228 ) ;
#334 = DIRECTION ( 'NONE',  ( -0.0000000000000000000, -0.0000000000000000000, -1.000000000000000000 ) ) ;
#335 =( CONVERSION_BASED_UNIT ( 'INCH', #68 ) LENGTH_UNIT ( ) NAMED_UNIT ( #85 ) );
#336 = VERTEX_POINT ( 'NONE', #124 ) ;
#337 = AXIS2_PLACEMENT_3D ( 'NONE', #162, #271, #27 ) ;
#338 = DIRECTION ( 'NONE',  ( 1.000000000000000000, 0.0000000000000000000, 0.0000000000000000000 ) ) ;
#339 = DIRECTION ( 'NONE',  ( 0.0000000000000000000, 0.0000000000000000000, 1.000000000000000000 ) ) ;
#340 = CYLINDRICAL_SURFACE ( 'NONE', #201, 0.02559049999999997438 ) ;
#341 = ADVANCED_FACE ( 'NONE', ( #282 ), #196, .T. ) ;
#342 =( LENGTH_UNIT ( ) NAMED_UNIT ( * ) SI_UNIT ( $, .METRE. ) );
#343 = VERTEX_POINT ( 'NONE', #154 ) ;
#344 = EDGE_CURVE ( 'NONE', #142, #173, #267, .T. ) ;
#345 = DIRECTION ( 'NONE',  ( 1.000000000000000000, 0.0000000000000000000, 0.0000000000000000000 ) ) ;
ENDSEC;
END-ISO-10303-21;
