ISO-10303-21;
HEADER;
FILE_DESCRIPTION (( 'STEP AP214' ),
    '1' );
FILE_NAME ('82527.STEP',
    '2023-06-23T06:13:05',
    ( '' ),
    ( '' ),
    'SwSTEP 2.0',
    'SolidWorks 2023',
    '' );
FILE_SCHEMA (( 'AUTOMOTIVE_DESIGN' ));
ENDSEC;

DATA;
#1 = PRESENTATION_STYLE_ASSIGNMENT (( #286 ) ) ;
#2 = AXIS2_PLACEMENT_3D ( 'NONE', #121, #67, #254 ) ;
#3 = AXIS2_PLACEMENT_3D ( 'NONE', #137, #136, #79 ) ;
#4 = PRODUCT_DEFINITION ( 'UNKNOWN', '', #24, #180 ) ;
#5 = ORIENTED_EDGE ( 'NONE', *, *, #203, .F. ) ;
#6 =( GEOMETRIC_REPRESENTATION_CONTEXT ( 3 ) GLOBAL_UNCERTAINTY_ASSIGNED_CONTEXT ( ( #150 ) ) GLOBAL_UNIT_ASSIGNED_CONTEXT ( ( #85, #60, #249 ) ) REPRESENTATION_CONTEXT ( 'NONE', 'WORKASPACE' ) );
#7 = ORIENTED_EDGE ( 'NONE', *, *, #96, .T. ) ;
#8 = VECTOR ( 'NONE', #13, 39.37007874015748143 ) ;
#9 = LENGTH_MEASURE_WITH_UNIT ( LENGTH_MEASURE( 0.02539999999999999897 ), #238 );
#10 = FILL_AREA_STYLE ('',( #265 ) ) ;
#11 = DIRECTION ( 'NONE',  ( -0.000000000000000000, -1.000000000000000000, -0.000000000000000000 ) ) ;
#12 = ADVANCED_FACE ( 'NONE', ( #157 ), #62, .T. ) ;
#13 = DIRECTION ( 'NONE',  ( -0.000000000000000000, -1.000000000000000000, -0.000000000000000000 ) ) ;
#14 = PRESENTATION_LAYER_ASSIGNMENT (  '', '', ( #138 ) ) ;
#15 = DIRECTION ( 'NONE',  ( 3.918869757271530214E-17, 1.000000000000000000, -0.000000000000000000 ) ) ;
#16 = CARTESIAN_POINT ( 'NONE',  ( 6.123233995736766036E-17, 2.000000000000000000, 0.000000000000000000 ) ) ;
#17 = CYLINDRICAL_SURFACE ( 'NONE', #252, 0.09374999999999995837 ) ;
#18 = FILL_AREA_STYLE ('',( #210 ) ) ;
#19 = VERTEX_POINT ( 'NONE', #175 ) ;
#20 = CYLINDRICAL_SURFACE ( 'NONE', #61, 0.09374999999999995837 ) ;
#21 = ADVANCED_FACE ( 'NONE', ( #183 ), #190, .T. ) ;
#22 = STYLED_ITEM ( 'NONE', ( #182 ), #12 ) ;
#23 =( GEOMETRIC_REPRESENTATION_CONTEXT ( 3 ) GLOBAL_UNCERTAINTY_ASSIGNED_CONTEXT ( ( #57 ) ) GLOBAL_UNIT_ASSIGNED_CONTEXT ( ( #160, #244, #168 ) ) REPRESENTATION_CONTEXT ( 'NONE', 'WORKASPACE' ) );
#24 = PRODUCT_DEFINITION_FORMATION_WITH_SPECIFIED_SOURCE ( 'ANY', '', #263, .NOT_KNOWN. ) ;
#25 = LINE ( 'NONE', #284, #245 ) ;
#26 = UNCERTAINTY_MEASURE_WITH_UNIT (LENGTH_MEASURE( 1.000000000000000082E-05 ), #119, 'distance_accuracy_value', 'NONE');
#27 = SURFACE_SIDE_STYLE ('',( #260 ) ) ;
#28 = CIRCLE ( 'NONE', #206, 0.09375000000000001388 ) ;
#29 = ORIENTED_EDGE ( 'NONE', *, *, #295, .T. ) ;
#30 = PRESENTATION_STYLE_ASSIGNMENT (( #202 ) ) ;
#31 = ADVANCED_FACE ( 'NONE', ( #74 ), #17, .T. ) ;
#32 = FILL_AREA_STYLE_COLOUR ( '', #123 ) ;
#33 = CIRCLE ( 'NONE', #3, 0.09374999999999998612 ) ;
#34 = DIMENSIONAL_EXPONENTS ( 1.000000000000000000, 0.000000000000000000, 0.000000000000000000, 0.000000000000000000, 0.000000000000000000, 0.000000000000000000, 0.000000000000000000 ) ;
#35 = LENGTH_MEASURE_WITH_UNIT ( LENGTH_MEASURE( 0.02539999999999999897 ), #154 );
#36 = DIRECTION ( 'NONE',  ( 0.000000000000000000, 0.000000000000000000, -1.000000000000000000 ) ) ;
#37 =( NAMED_UNIT ( * ) SI_UNIT ( $, .STERADIAN. ) SOLID_ANGLE_UNIT ( ) );
#38 = SURFACE_SIDE_STYLE ('',( #41 ) ) ;
#39 = APPLICATION_PROTOCOL_DEFINITION ( 'draft international standard', 'automotive_design', 1998, #193 ) ;
#40 = SHAPE_DEFINITION_REPRESENTATION ( #103, #174 ) ;
#41 = SURFACE_STYLE_FILL_AREA ( #18 ) ;
#42 = MECHANICAL_DESIGN_GEOMETRIC_PRESENTATION_REPRESENTATION (  '', ( #257 ), #76 ) ;
#43 = DIRECTION ( 'NONE',  ( -1.000000000000000000, 0.000000000000000000, 0.000000000000000000 ) ) ;
#44 = DIRECTION ( 'NONE',  ( 0.000000000000000000, 1.000000000000000000, 0.000000000000000000 ) ) ;
#45 = LENGTH_MEASURE_WITH_UNIT ( LENGTH_MEASURE( 0.02539999999999999897 ), #127 );
#46 = CARTESIAN_POINT ( 'NONE',  ( 0.09374999999999998612, 2.000000000000000000, 1.148106374200643247E-17 ) ) ;
#47 = CARTESIAN_POINT ( 'NONE',  ( 1.148106374200643401E-17, 0.4375000000000000000, 0.09374999999999998612 ) ) ;
#48 = CARTESIAN_POINT ( 'NONE',  ( 0.000000000000000000, 0.4375000000000000000, -0.09374999999999998612 ) ) ;
#49 =( NAMED_UNIT ( * ) PLANE_ANGLE_UNIT ( ) SI_UNIT ( $, .RADIAN. ) );
#50 = CARTESIAN_POINT ( 'NONE',  ( 0.000000000000000000, 0.000000000000000000, 0.000000000000000000 ) ) ;
#51 = COLOUR_RGB ( '',0.7921568627450980005, 0.8196078431372548767, 0.9333333333333333481 ) ;
#52 =( NAMED_UNIT ( * ) SI_UNIT ( $, .STERADIAN. ) SOLID_ANGLE_UNIT ( ) );
#53 = CARTESIAN_POINT ( 'NONE',  ( 0.000000000000000000, 0.4374999999999998890, 0.000000000000000000 ) ) ;
#54 = UNCERTAINTY_MEASURE_WITH_UNIT (LENGTH_MEASURE( 1.000000000000000082E-05 ), #217, 'distance_accuracy_value', 'NONE');
#55 = AXIS2_PLACEMENT_3D ( 'NONE', #16, #243, #139 ) ;
#56 = MECHANICAL_DESIGN_GEOMETRIC_PRESENTATION_REPRESENTATION (  '', ( #221 ), #258 ) ;
#57 = UNCERTAINTY_MEASURE_WITH_UNIT (LENGTH_MEASURE( 1.000000000000000082E-05 ), #160, 'distance_accuracy_value', 'NONE');
#58 = CARTESIAN_POINT ( 'NONE',  ( 0.000000000000000000, 0.000000000000000000, 0.000000000000000000 ) ) ;
#59 = DIMENSIONAL_EXPONENTS ( 1.000000000000000000, 0.000000000000000000, 0.000000000000000000, 0.000000000000000000, 0.000000000000000000, 0.000000000000000000, 0.000000000000000000 ) ;
#60 =( NAMED_UNIT ( * ) PLANE_ANGLE_UNIT ( ) SI_UNIT ( $, .RADIAN. ) );
#61 = AXIS2_PLACEMENT_3D ( 'NONE', #128, #107, #143 ) ;
#62 = PLANE ( 'NONE',  #299 ) ;
#63 =( LENGTH_UNIT ( ) NAMED_UNIT ( * ) SI_UNIT ( $, .METRE. ) );
#64 = LENGTH_MEASURE_WITH_UNIT ( LENGTH_MEASURE( 0.02539999999999999897 ), #297 );
#65 = AXIS2_PLACEMENT_3D ( 'NONE', #255, #235, #196 ) ;
#66 = LENGTH_MEASURE_WITH_UNIT ( LENGTH_MEASURE( 0.02539999999999999897 ), #236 );
#67 = DIRECTION ( 'NONE',  ( 3.918869757271530214E-17, 1.000000000000000000, -0.000000000000000000 ) ) ;
#68 = COLOUR_RGB ( '',1.000000000000000000, 0.000000000000000000, 0.000000000000000000 ) ;
#69 = COLOUR_RGB ( '',1.000000000000000000, 0.000000000000000000, 0.000000000000000000 ) ;
#70 = PLANE ( 'NONE',  #98 ) ;
#71 =( CONVERSION_BASED_UNIT ( 'INCH', #279 ) LENGTH_UNIT ( ) NAMED_UNIT ( #104 ) );
#72 = ADVANCED_FACE ( 'NONE', ( #276 ), #70, .F. ) ;
#73 = CARTESIAN_POINT ( 'NONE',  ( 1.148106374200643555E-17, 0.000000000000000000, 0.09375000000000001388 ) ) ;
#74 = FACE_OUTER_BOUND ( 'NONE', #94, .T. ) ;
#75 = ORIENTED_EDGE ( 'NONE', *, *, #163, .T. ) ;
#76 =( GEOMETRIC_REPRESENTATION_CONTEXT ( 3 ) GLOBAL_UNCERTAINTY_ASSIGNED_CONTEXT ( ( #81 ) ) GLOBAL_UNIT_ASSIGNED_CONTEXT ( ( #88, #184, #266 ) ) REPRESENTATION_CONTEXT ( 'NONE', 'WORKASPACE' ) );
#77 = LINE ( 'NONE', #95, #212 ) ;
#78 = ORIENTED_EDGE ( 'NONE', *, *, #96, .F. ) ;
#79 = DIRECTION ( 'NONE',  ( 0.000000000000000000, 0.000000000000000000, -1.000000000000000000 ) ) ;
#80 = ADVANCED_FACE ( 'NONE', ( #248 ), #251, .T. ) ;
#81 = UNCERTAINTY_MEASURE_WITH_UNIT (LENGTH_MEASURE( 1.000000000000000082E-05 ), #88, 'distance_accuracy_value', 'NONE');
#82 = PRESENTATION_LAYER_ASSIGNMENT (  '', '', ( #257 ) ) ;
#83 = ORIENTED_EDGE ( 'NONE', *, *, #214, .F. ) ;
#84 =( CONVERSION_BASED_UNIT ( 'INCH', #45 ) LENGTH_UNIT ( ) NAMED_UNIT ( #140 ) );
#85 =( CONVERSION_BASED_UNIT ( 'INCH', #9 ) LENGTH_UNIT ( ) NAMED_UNIT ( #59 ) );
#86 =( NAMED_UNIT ( * ) SI_UNIT ( $, .STERADIAN. ) SOLID_ANGLE_UNIT ( ) );
#87 = FILL_AREA_STYLE ('',( #32 ) ) ;
#88 =( CONVERSION_BASED_UNIT ( 'INCH', #117 ) LENGTH_UNIT ( ) NAMED_UNIT ( #34 ) );
#89 = AXIS2_PLACEMENT_3D ( 'NONE', #53, #15, #230 ) ;
#90 = SURFACE_STYLE_FILL_AREA ( #204 ) ;
#91 = SURFACE_STYLE_FILL_AREA ( #10 ) ;
#92 = EDGE_CURVE ( 'NONE', #273, #19, #28, .T. ) ;
#93 = PRODUCT_CONTEXT ( 'NONE', #219, 'mechanical' ) ;
#94 = EDGE_LOOP ( 'NONE', ( #308, #75, #296, #83 ) ) ;
#95 = CARTESIAN_POINT ( 'NONE',  ( 0.09375000000000002776, 2.000000000000000000, 1.148106374200643092E-17 ) ) ;
#96 = EDGE_CURVE ( 'NONE', #19, #273, #191, .T. ) ;
#97 = EDGE_LOOP ( 'NONE', ( #7, #215 ) ) ;
#98 = AXIS2_PLACEMENT_3D ( 'NONE', #247, #129, #122 ) ;
#99 = CARTESIAN_POINT ( 'NONE',  ( 6.123233995736766036E-17, 2.000000000000000000, 0.000000000000000000 ) ) ;
#100 = DIRECTION ( 'NONE',  ( 0.000000000000000000, 0.000000000000000000, -1.000000000000000000 ) ) ;
#101 = DIRECTION ( 'NONE',  ( -3.918869757271530214E-17, -1.000000000000000000, 0.000000000000000000 ) ) ;
#102 = CARTESIAN_POINT ( 'NONE',  ( 0.000000000000000000, 0.000000000000000000, 0.000000000000000000 ) ) ;
#103 = PRODUCT_DEFINITION_SHAPE ( 'NONE', 'NONE',  #4 ) ;
#104 = DIMENSIONAL_EXPONENTS ( 1.000000000000000000, 0.000000000000000000, 0.000000000000000000, 0.000000000000000000, 0.000000000000000000, 0.000000000000000000, 0.000000000000000000 ) ;
#105 = SURFACE_STYLE_USAGE ( .BOTH. , #38 ) ;
#106 = DIRECTION ( 'NONE',  ( 3.918869757271530214E-17, 1.000000000000000000, -0.000000000000000000 ) ) ;
#107 = DIRECTION ( 'NONE',  ( 3.918869757271530214E-17, 1.000000000000000000, -0.000000000000000000 ) ) ;
#108 = PRESENTATION_LAYER_ASSIGNMENT (  '', '', ( #240 ) ) ;
#109 = CARTESIAN_POINT ( 'NONE',  ( 0.000000000000000000, 0.000000000000000000, 0.000000000000000000 ) ) ;
#110 = DIRECTION ( 'NONE',  ( 3.918869757271530214E-17, 1.000000000000000000, -0.000000000000000000 ) ) ;
#111 = STYLED_ITEM ( 'NONE', ( #218 ), #205 ) ;
#112 = FILL_AREA_STYLE ('',( #261 ) ) ;
#113 = EDGE_LOOP ( 'NONE', ( #158, #164, #78, #227 ) ) ;
#114 = UNCERTAINTY_MEASURE_WITH_UNIT (LENGTH_MEASURE( 1.000000000000000082E-05 ), #71, 'distance_accuracy_value', 'NONE');
#115 = AXIS2_PLACEMENT_3D ( 'NONE', #156, #11, #100 ) ;
#116 = DIRECTION ( 'NONE',  ( -0.000000000000000000, -1.000000000000000000, -0.000000000000000000 ) ) ;
#117 = LENGTH_MEASURE_WITH_UNIT ( LENGTH_MEASURE( 0.02539999999999999897 ), #63 );
#118 = SURFACE_SIDE_STYLE ('',( #91 ) ) ;
#119 =( CONVERSION_BASED_UNIT ( 'INCH', #66 ) LENGTH_UNIT ( ) NAMED_UNIT ( #264 ) );
#120 = CIRCLE ( 'NONE', #2, 0.09374999999999998612 ) ;
#121 = CARTESIAN_POINT ( 'NONE',  ( 0.000000000000000000, 0.4374999999999998890, 0.000000000000000000 ) ) ;
#122 = DIRECTION ( 'NONE',  ( -1.000000000000000000, 3.918869757271530214E-17, 0.000000000000000000 ) ) ;
#123 = COLOUR_RGB ( '',1.000000000000000000, 0.000000000000000000, 0.000000000000000000 ) ;
#124 = VERTEX_POINT ( 'NONE', #46 ) ;
#125 = LINE ( 'NONE', #185, #8 ) ;
#126 = DIMENSIONAL_EXPONENTS ( 1.000000000000000000, 0.000000000000000000, 0.000000000000000000, 0.000000000000000000, 0.000000000000000000, 0.000000000000000000, 0.000000000000000000 ) ;
#127 =( LENGTH_UNIT ( ) NAMED_UNIT ( * ) SI_UNIT ( $, .METRE. ) );
#128 = CARTESIAN_POINT ( 'NONE',  ( 6.123233995736766036E-17, 2.000000000000000000, 0.000000000000000000 ) ) ;
#129 = DIRECTION ( 'NONE',  ( 3.918869757271530214E-17, 1.000000000000000000, -0.000000000000000000 ) ) ;
#130 =( NAMED_UNIT ( * ) PLANE_ANGLE_UNIT ( ) SI_UNIT ( $, .RADIAN. ) );
#131 = CIRCLE ( 'NONE', #89, 0.09374999999999998612 ) ;
#132 = AXIS2_PLACEMENT_3D ( 'NONE', #58, #289, #207 ) ;
#133 = CARTESIAN_POINT ( 'NONE',  ( 6.123233995736766036E-17, 2.000000000000000000, 0.000000000000000000 ) ) ;
#134 = SURFACE_STYLE_FILL_AREA ( #112 ) ;
#135 = ORIENTED_EDGE ( 'NONE', *, *, #242, .T. ) ;
#136 = DIRECTION ( 'NONE',  ( -0.000000000000000000, -1.000000000000000000, -0.000000000000000000 ) ) ;
#137 = CARTESIAN_POINT ( 'NONE',  ( 0.000000000000000000, 0.4375000000000000000, 0.000000000000000000 ) ) ;
#138 = STYLED_ITEM ( 'NONE', ( #171 ), #80 ) ;
#139 = DIRECTION ( 'NONE',  ( -1.000000000000000000, 0.000000000000000000, 0.000000000000000000 ) ) ;
#140 = DIMENSIONAL_EXPONENTS ( 1.000000000000000000, 0.000000000000000000, 0.000000000000000000, 0.000000000000000000, 0.000000000000000000, 0.000000000000000000, 0.000000000000000000 ) ;
#141 = APPLICATION_PROTOCOL_DEFINITION ( 'draft international standard', 'automotive_design', 1998, #219 ) ;
#142 = PRESENTATION_STYLE_ASSIGNMENT (( #188 ) ) ;
#143 = DIRECTION ( 'NONE',  ( -1.000000000000000000, 0.000000000000000000, 0.000000000000000000 ) ) ;
#144 = EDGE_LOOP ( 'NONE', ( #198, #155 ) ) ;
#145 = PRESENTATION_LAYER_ASSIGNMENT (  '', '', ( #111 ) ) ;
#146 = CARTESIAN_POINT ( 'NONE',  ( 0.09374999999999998612, 0.4374999999999998890, 1.148106374200643247E-17 ) ) ;
#147 = CARTESIAN_POINT ( 'NONE',  ( -0.09374999999999988898, 2.000000000000000000, 0.000000000000000000 ) ) ;
#148 = EDGE_CURVE ( 'NONE', #208, #273, #25, .T. ) ;
#149 = CLOSED_SHELL ( 'NONE', ( #199, #72, #31, #294 ) ) ;
#150 = UNCERTAINTY_MEASURE_WITH_UNIT (LENGTH_MEASURE( 1.000000000000000082E-05 ), #85, 'distance_accuracy_value', 'NONE');
#151 = AXIS2_PLACEMENT_3D ( 'NONE', #271, #44, #280 ) ;
#152 = PLANE ( 'NONE',  #234 ) ;
#153 = SURFACE_SIDE_STYLE ('',( #90 ) ) ;
#154 =( LENGTH_UNIT ( ) NAMED_UNIT ( * ) SI_UNIT ( $, .METRE. ) );
#155 = ORIENTED_EDGE ( 'NONE', *, *, #267, .F. ) ;
#156 = CARTESIAN_POINT ( 'NONE',  ( 0.000000000000000000, 0.000000000000000000, 0.000000000000000000 ) ) ;
#157 = FACE_OUTER_BOUND ( 'NONE', #97, .T. ) ;
#158 = ORIENTED_EDGE ( 'NONE', *, *, #305, .T. ) ;
#159 = EDGE_LOOP ( 'NONE', ( #223, #292, #29, #298 ) ) ;
#160 =( CONVERSION_BASED_UNIT ( 'INCH', #64 ) LENGTH_UNIT ( ) NAMED_UNIT ( #126 ) );
#161 = CIRCLE ( 'NONE', #55, 0.09374999999999991673 ) ;
#162 = CARTESIAN_POINT ( 'NONE',  ( 0.000000000000000000, 0.000000000000000000, 0.000000000000000000 ) ) ;
#163 = EDGE_CURVE ( 'NONE', #197, #301, #131, .T. ) ;
#164 = ORIENTED_EDGE ( 'NONE', *, *, #148, .T. ) ;
#165 = DIRECTION ( 'NONE',  ( 1.000000000000000000, -3.918869757271530214E-17, 0.000000000000000000 ) ) ;
#166 = DIRECTION ( 'NONE',  ( 0.000000000000000000, 0.000000000000000000, -1.000000000000000000 ) ) ;
#167 = EDGE_CURVE ( 'NONE', #285, #124, #161, .T. ) ;
#168 =( NAMED_UNIT ( * ) SI_UNIT ( $, .STERADIAN. ) SOLID_ANGLE_UNIT ( ) );
#169 =( NAMED_UNIT ( * ) PLANE_ANGLE_UNIT ( ) SI_UNIT ( $, .RADIAN. ) );
#170 = DIRECTION ( 'NONE',  ( 3.918869757271530214E-17, 1.000000000000000000, -0.000000000000000000 ) ) ;
#171 = PRESENTATION_STYLE_ASSIGNMENT (( #105 ) ) ;
#172 = ORIENTED_EDGE ( 'NONE', *, *, #167, .T. ) ;
#173 = MECHANICAL_DESIGN_GEOMETRIC_PRESENTATION_REPRESENTATION (  '', ( #111 ), #272 ) ;
#174 = ADVANCED_BREP_SHAPE_REPRESENTATION ( '82527', ( #303, #205, #132 ), #288 ) ;
#175 = CARTESIAN_POINT ( 'NONE',  ( 0.000000000000000000, 0.000000000000000000, -0.09375000000000001388 ) ) ;
#176 = DIRECTION ( 'NONE',  ( 3.918869757271530214E-17, 1.000000000000000000, -0.000000000000000000 ) ) ;
#177 = ADVANCED_FACE ( 'NONE', ( #222 ), #231, .T. ) ;
#178 = MECHANICAL_DESIGN_GEOMETRIC_PRESENTATION_REPRESENTATION (  '', ( #138 ), #281 ) ;
#179 = DIRECTION ( 'NONE',  ( -0.000000000000000000, -1.000000000000000000, -0.000000000000000000 ) ) ;
#180 = PRODUCT_DEFINITION_CONTEXT ( 'detailed design', #193, 'design' ) ;
#181 = AXIS2_PLACEMENT_3D ( 'NONE', #50, #116, #274 ) ;
#182 = PRESENTATION_STYLE_ASSIGNMENT (( #291 ) ) ;
#183 = FACE_OUTER_BOUND ( 'NONE', #144, .T. ) ;
#184 =( NAMED_UNIT ( * ) PLANE_ANGLE_UNIT ( ) SI_UNIT ( $, .RADIAN. ) );
#185 = CARTESIAN_POINT ( 'NONE',  ( 0.000000000000000000, 0.000000000000000000, -0.09374999999999998612 ) ) ;
#186 = EDGE_LOOP ( 'NONE', ( #268, #135, #302, #232 ) ) ;
#187 = CARTESIAN_POINT ( 'NONE',  ( -0.09374999999999998612, 0.4374999999999998890, 0.000000000000000000 ) ) ;
#188 = SURFACE_STYLE_USAGE ( .BOTH. , #118 ) ;
#189 = EDGE_LOOP ( 'NONE', ( #5, #290 ) ) ;
#190 = PLANE ( 'NONE',  #151 ) ;
#191 = CIRCLE ( 'NONE', #115, 0.09375000000000001388 ) ;
#192 = DIRECTION ( 'NONE',  ( 0.000000000000000000, 0.000000000000000000, -1.000000000000000000 ) ) ;
#193 = APPLICATION_CONTEXT ( 'automotive_design' ) ;
#194 =( NAMED_UNIT ( * ) SI_UNIT ( $, .STERADIAN. ) SOLID_ANGLE_UNIT ( ) );
#195 = COLOUR_RGB ( '',1.000000000000000000, 0.000000000000000000, 0.000000000000000000 ) ;
#196 = DIRECTION ( 'NONE',  ( 0.000000000000000000, 0.000000000000000000, -1.000000000000000000 ) ) ;
#197 = VERTEX_POINT ( 'NONE', #146 ) ;
#198 = ORIENTED_EDGE ( 'NONE', *, *, #305, .F. ) ;
#199 = ADVANCED_FACE ( 'NONE', ( #228 ), #20, .T. ) ;
#200 = PRESENTATION_LAYER_ASSIGNMENT (  '', '', ( #22 ) ) ;
#201 = CIRCLE ( 'NONE', #65, 0.09374999999999998612 ) ;
#202 = SURFACE_STYLE_USAGE ( .BOTH. , #27 ) ;
#203 = EDGE_CURVE ( 'NONE', #301, #197, #120, .T. ) ;
#204 = FILL_AREA_STYLE ('',( #225 ) ) ;
#205 = MANIFOLD_SOLID_BREP ( 'Revolve - Tool Body (Straight Shanked)', #149 ) ;
#206 = AXIS2_PLACEMENT_3D ( 'NONE', #109, #179, #36 ) ;
#207 = DIRECTION ( 'NONE',  ( 1.000000000000000000, 0.000000000000000000, 0.000000000000000000 ) ) ;
#208 = VERTEX_POINT ( 'NONE', #47 ) ;
#209 = MECHANICAL_DESIGN_GEOMETRIC_PRESENTATION_REPRESENTATION (  '', ( #240 ), #23 ) ;
#210 = FILL_AREA_STYLE_COLOUR ( '', #195 ) ;
#211 = CARTESIAN_POINT ( 'NONE',  ( -0.09374999999999984734, 2.000000000000000000, 0.000000000000000000 ) ) ;
#212 = VECTOR ( 'NONE', #106, 39.37007874015748143 ) ;
#213 = FILL_AREA_STYLE ('',( #233 ) ) ;
#214 = EDGE_CURVE ( 'NONE', #124, #285, #278, .T. ) ;
#215 = ORIENTED_EDGE ( 'NONE', *, *, #92, .T. ) ;
#216 =( NAMED_UNIT ( * ) PLANE_ANGLE_UNIT ( ) SI_UNIT ( $, .RADIAN. ) );
#217 =( CONVERSION_BASED_UNIT ( 'INCH', #35 ) LENGTH_UNIT ( ) NAMED_UNIT ( #224 ) );
#218 = PRESENTATION_STYLE_ASSIGNMENT (( #269 ) ) ;
#219 = APPLICATION_CONTEXT ( 'automotive_design' ) ;
#220 = SURFACE_SIDE_STYLE ('',( #250 ) ) ;
#221 = STYLED_ITEM ( 'NONE', ( #1 ), #303 ) ;
#222 = FACE_OUTER_BOUND ( 'NONE', #159, .T. ) ;
#223 = ORIENTED_EDGE ( 'NONE', *, *, #148, .F. ) ;
#224 = DIMENSIONAL_EXPONENTS ( 1.000000000000000000, 0.000000000000000000, 0.000000000000000000, 0.000000000000000000, 0.000000000000000000, 0.000000000000000000, 0.000000000000000000 ) ;
#225 = FILL_AREA_STYLE_COLOUR ( '', #68 ) ;
#226 = AXIS2_PLACEMENT_3D ( 'NONE', #102, #304, #192 ) ;
#227 = ORIENTED_EDGE ( 'NONE', *, *, #295, .F. ) ;
#228 = FACE_OUTER_BOUND ( 'NONE', #186, .T. ) ;
#229 =( LENGTH_UNIT ( ) NAMED_UNIT ( * ) SI_UNIT ( $, .METRE. ) );
#230 = DIRECTION ( 'NONE',  ( -1.000000000000000000, 0.000000000000000000, 0.000000000000000000 ) ) ;
#231 = CYLINDRICAL_SURFACE ( 'NONE', #226, 0.09374999999999998612 ) ;
#232 = ORIENTED_EDGE ( 'NONE', *, *, #259, .F. ) ;
#233 = FILL_AREA_STYLE_COLOUR ( '', #51 ) ;
#234 = AXIS2_PLACEMENT_3D ( 'NONE', #237, #101, #165 ) ;
#235 = DIRECTION ( 'NONE',  ( -0.000000000000000000, -1.000000000000000000, -0.000000000000000000 ) ) ;
#236 =( LENGTH_UNIT ( ) NAMED_UNIT ( * ) SI_UNIT ( $, .METRE. ) );
#237 = CARTESIAN_POINT ( 'NONE',  ( 0.09374999999999998612, 2.000000000000000000, 0.000000000000000000 ) ) ;
#238 =( LENGTH_UNIT ( ) NAMED_UNIT ( * ) SI_UNIT ( $, .METRE. ) );
#239 = DIRECTION ( 'NONE',  ( -1.000000000000000000, 0.000000000000000000, 0.000000000000000000 ) ) ;
#240 = STYLED_ITEM ( 'NONE', ( #142 ), #177 ) ;
#241 = SURFACE_SIDE_STYLE ('',( #134 ) ) ;
#242 = EDGE_CURVE ( 'NONE', #197, #124, #77, .T. ) ;
#243 = DIRECTION ( 'NONE',  ( 3.918869757271530214E-17, 1.000000000000000000, -0.000000000000000000 ) ) ;
#244 =( NAMED_UNIT ( * ) PLANE_ANGLE_UNIT ( ) SI_UNIT ( $, .RADIAN. ) );
#245 = VECTOR ( 'NONE', #256, 39.37007874015748143 ) ;
#246 = DIRECTION ( 'NONE',  ( 0.000000000000000000, -1.000000000000000000, -0.000000000000000000 ) ) ;
#247 = CARTESIAN_POINT ( 'NONE',  ( 7.198846956776915697E-35, 0.4375000000000000000, 0.000000000000000000 ) ) ;
#248 = FACE_OUTER_BOUND ( 'NONE', #113, .T. ) ;
#249 =( NAMED_UNIT ( * ) SI_UNIT ( $, .STERADIAN. ) SOLID_ANGLE_UNIT ( ) );
#250 = SURFACE_STYLE_FILL_AREA ( #213 ) ;
#251 = CYLINDRICAL_SURFACE ( 'NONE', #181, 0.09374999999999998612 ) ;
#252 = AXIS2_PLACEMENT_3D ( 'NONE', #99, #170, #43 ) ;
#253 = PRODUCT_RELATED_PRODUCT_CATEGORY ( 'part', '', ( #263 ) ) ;
#254 = DIRECTION ( 'NONE',  ( -1.000000000000000000, 0.000000000000000000, 0.000000000000000000 ) ) ;
#255 = CARTESIAN_POINT ( 'NONE',  ( 0.000000000000000000, 0.4375000000000000000, 0.000000000000000000 ) ) ;
#256 = DIRECTION ( 'NONE',  ( -0.000000000000000000, -1.000000000000000000, -0.000000000000000000 ) ) ;
#257 = STYLED_ITEM ( 'NONE', ( #30 ), #21 ) ;
#258 =( GEOMETRIC_REPRESENTATION_CONTEXT ( 3 ) GLOBAL_UNCERTAINTY_ASSIGNED_CONTEXT ( ( #283 ) ) GLOBAL_UNIT_ASSIGNED_CONTEXT ( ( #84, #49, #194 ) ) REPRESENTATION_CONTEXT ( 'NONE', 'WORKASPACE' ) );
#259 = EDGE_CURVE ( 'NONE', #301, #285, #309, .T. ) ;
#260 = SURFACE_STYLE_FILL_AREA ( #87 ) ;
#261 = FILL_AREA_STYLE_COLOUR ( '', #293 ) ;
#262 = FACE_OUTER_BOUND ( 'NONE', #275, .T. ) ;
#263 = PRODUCT ( '82527', '82527', '', ( #93 ) ) ;
#264 = DIMENSIONAL_EXPONENTS ( 1.000000000000000000, 0.000000000000000000, 0.000000000000000000, 0.000000000000000000, 0.000000000000000000, 0.000000000000000000, 0.000000000000000000 ) ;
#265 = FILL_AREA_STYLE_COLOUR ( '', #69 ) ;
#266 =( NAMED_UNIT ( * ) SI_UNIT ( $, .STERADIAN. ) SOLID_ANGLE_UNIT ( ) );
#267 = EDGE_CURVE ( 'NONE', #208, #282, #201, .T. ) ;
#268 = ORIENTED_EDGE ( 'NONE', *, *, #203, .T. ) ;
#269 = SURFACE_STYLE_USAGE ( .BOTH. , #241 ) ;
#270 = CLOSED_SHELL ( 'NONE', ( #80, #21, #177, #12 ) ) ;
#271 = CARTESIAN_POINT ( 'NONE',  ( 0.000000000000000000, 0.4375000000000000000, 0.000000000000000000 ) ) ;
#272 =( GEOMETRIC_REPRESENTATION_CONTEXT ( 3 ) GLOBAL_UNCERTAINTY_ASSIGNED_CONTEXT ( ( #26 ) ) GLOBAL_UNIT_ASSIGNED_CONTEXT ( ( #119, #130, #52 ) ) REPRESENTATION_CONTEXT ( 'NONE', 'WORKASPACE' ) );
#273 = VERTEX_POINT ( 'NONE', #73 ) ;
#274 = DIRECTION ( 'NONE',  ( 0.000000000000000000, 0.000000000000000000, -1.000000000000000000 ) ) ;
#275 = EDGE_LOOP ( 'NONE', ( #172, #300 ) ) ;
#276 = FACE_OUTER_BOUND ( 'NONE', #189, .T. ) ;
#277 = MECHANICAL_DESIGN_GEOMETRIC_PRESENTATION_REPRESENTATION (  '', ( #22 ), #6 ) ;
#278 = CIRCLE ( 'NONE', #306, 0.09374999999999991673 ) ;
#279 = LENGTH_MEASURE_WITH_UNIT ( LENGTH_MEASURE( 0.02539999999999999897 ), #229 );
#280 = DIRECTION ( 'NONE',  ( 0.000000000000000000, -0.000000000000000000, 1.000000000000000000 ) ) ;
#281 =( GEOMETRIC_REPRESENTATION_CONTEXT ( 3 ) GLOBAL_UNCERTAINTY_ASSIGNED_CONTEXT ( ( #114 ) ) GLOBAL_UNIT_ASSIGNED_CONTEXT ( ( #71, #169, #37 ) ) REPRESENTATION_CONTEXT ( 'NONE', 'WORKASPACE' ) );
#282 = VERTEX_POINT ( 'NONE', #48 ) ;
#283 = UNCERTAINTY_MEASURE_WITH_UNIT (LENGTH_MEASURE( 1.000000000000000082E-05 ), #84, 'distance_accuracy_value', 'NONE');
#284 = CARTESIAN_POINT ( 'NONE',  ( 1.148106374200643401E-17, 0.000000000000000000, 0.09374999999999998612 ) ) ;
#285 = VERTEX_POINT ( 'NONE', #211 ) ;
#286 = SURFACE_STYLE_USAGE ( .BOTH. , #220 ) ;
#287 = VECTOR ( 'NONE', #176, 39.37007874015748143 ) ;
#288 =( GEOMETRIC_REPRESENTATION_CONTEXT ( 3 ) GLOBAL_UNCERTAINTY_ASSIGNED_CONTEXT ( ( #54 ) ) GLOBAL_UNIT_ASSIGNED_CONTEXT ( ( #217, #216, #86 ) ) REPRESENTATION_CONTEXT ( 'NONE', 'WORKASPACE' ) );
#289 = DIRECTION ( 'NONE',  ( 0.000000000000000000, 0.000000000000000000, 1.000000000000000000 ) ) ;
#290 = ORIENTED_EDGE ( 'NONE', *, *, #163, .F. ) ;
#291 = SURFACE_STYLE_USAGE ( .BOTH. , #153 ) ;
#292 = ORIENTED_EDGE ( 'NONE', *, *, #267, .T. ) ;
#293 = COLOUR_RGB ( '',0.7921568627450980005, 0.8196078431372548767, 0.9333333333333333481 ) ;
#294 = ADVANCED_FACE ( 'NONE', ( #262 ), #152, .F. ) ;
#295 = EDGE_CURVE ( 'NONE', #282, #19, #125, .T. ) ;
#296 = ORIENTED_EDGE ( 'NONE', *, *, #259, .T. ) ;
#297 =( LENGTH_UNIT ( ) NAMED_UNIT ( * ) SI_UNIT ( $, .METRE. ) );
#298 = ORIENTED_EDGE ( 'NONE', *, *, #92, .F. ) ;
#299 = AXIS2_PLACEMENT_3D ( 'NONE', #162, #246, #166 ) ;
#300 = ORIENTED_EDGE ( 'NONE', *, *, #214, .T. ) ;
#301 = VERTEX_POINT ( 'NONE', #187 ) ;
#302 = ORIENTED_EDGE ( 'NONE', *, *, #167, .F. ) ;
#303 = MANIFOLD_SOLID_BREP ( 'Revolve - Cutting Edge', #270 ) ;
#304 = DIRECTION ( 'NONE',  ( -0.000000000000000000, -1.000000000000000000, -0.000000000000000000 ) ) ;
#305 = EDGE_CURVE ( 'NONE', #282, #208, #33, .T. ) ;
#306 = AXIS2_PLACEMENT_3D ( 'NONE', #133, #110, #239 ) ;
#307 = PRESENTATION_LAYER_ASSIGNMENT (  '', '', ( #221 ) ) ;
#308 = ORIENTED_EDGE ( 'NONE', *, *, #242, .F. ) ;
#309 = LINE ( 'NONE', #147, #287 ) ;
ENDSEC;
END-ISO-10303-21;
