ISO-10303-21;
HEADER;
FILE_DESCRIPTION (( 'STEP AP214' ),
    '1' );
FILE_NAME ('48011.STEP',
    '2023-06-22T20:54:38',
    ( '' ),
    ( '' ),
    'SwSTEP 2.0',
    'SolidWorks 2023',
    '' );
FILE_SCHEMA (( 'AUTOMOTIVE_DESIGN' ));
ENDSEC;

DATA;
#1 =( NAMED_UNIT ( * ) PLANE_ANGLE_UNIT ( ) SI_UNIT ( $, .RADIAN. ) );
#2 = AXIS2_PLACEMENT_3D ( 'NONE', #225, #249, #130 ) ;
#3 = LENGTH_MEASURE_WITH_UNIT ( LENGTH_MEASURE( 0.02539999999999999897 ), #271 );
#4 = CIRCLE ( 'NONE', #179, 0.06250000000000005551 ) ;
#5 = CARTESIAN_POINT ( 'NONE',  ( 7.654042494670960626E-18, 0.000000000000000000, 0.06250000000000002776 ) ) ;
#6 = DIMENSIONAL_EXPONENTS ( 1.000000000000000000, 0.000000000000000000, 0.000000000000000000, 0.000000000000000000, 0.000000000000000000, 0.000000000000000000, 0.000000000000000000 ) ;
#7 = DIRECTION ( 'NONE',  ( 0.000000000000000000, 1.000000000000000000, 0.000000000000000000 ) ) ;
#8 = STYLED_ITEM ( 'NONE', ( #90 ), #76 ) ;
#9 = ORIENTED_EDGE ( 'NONE', *, *, #263, .F. ) ;
#10 =( LENGTH_UNIT ( ) NAMED_UNIT ( * ) SI_UNIT ( $, .METRE. ) );
#11 = DIRECTION ( 'NONE',  ( 0.000000000000000000, 0.000000000000000000, -1.000000000000000000 ) ) ;
#12 = CYLINDRICAL_SURFACE ( 'NONE', #269, 0.06250000000000002776 ) ;
#13 = MECHANICAL_DESIGN_GEOMETRIC_PRESENTATION_REPRESENTATION (  '', ( #73 ), #132 ) ;
#14 = DIRECTION ( 'NONE',  ( -3.768143997376475057E-17, 1.000000000000000000, -0.000000000000000000 ) ) ;
#15 = ORIENTED_EDGE ( 'NONE', *, *, #37, .T. ) ;
#16 = SHAPE_DEFINITION_REPRESENTATION ( #118, #134 ) ;
#17 = EDGE_LOOP ( 'NONE', ( #110, #99, #146, #9 ) ) ;
#18 = DIRECTION ( 'NONE',  ( 0.000000000000000000, 0.000000000000000000, 1.000000000000000000 ) ) ;
#19 =( GEOMETRIC_REPRESENTATION_CONTEXT ( 3 ) GLOBAL_UNCERTAINTY_ASSIGNED_CONTEXT ( ( #107 ) ) GLOBAL_UNIT_ASSIGNED_CONTEXT ( ( #282, #39, #208 ) ) REPRESENTATION_CONTEXT ( 'NONE', 'WORKASPACE' ) );
#20 = VECTOR ( 'NONE', #36, 39.37007874015748143 ) ;
#21 = MECHANICAL_DESIGN_GEOMETRIC_PRESENTATION_REPRESENTATION (  '', ( #270 ), #221 ) ;
#22 =( CONVERSION_BASED_UNIT ( 'INCH', #262 ) LENGTH_UNIT ( ) NAMED_UNIT ( #30 ) );
#23 = SURFACE_STYLE_FILL_AREA ( #165 ) ;
#24 = ADVANCED_FACE ( 'NONE', ( #126 ), #12, .T. ) ;
#25 =( NAMED_UNIT ( * ) PLANE_ANGLE_UNIT ( ) SI_UNIT ( $, .RADIAN. ) );
#26 =( CONVERSION_BASED_UNIT ( 'INCH', #245 ) LENGTH_UNIT ( ) NAMED_UNIT ( #174 ) );
#27 = CARTESIAN_POINT ( 'NONE',  ( 0.000000000000000000, 0.000000000000000000, 0.000000000000000000 ) ) ;
#28 = ADVANCED_FACE ( 'NONE', ( #177 ), #180, .F. ) ;
#29 =( LENGTH_UNIT ( ) NAMED_UNIT ( * ) SI_UNIT ( $, .METRE. ) );
#30 = DIMENSIONAL_EXPONENTS ( 1.000000000000000000, 0.000000000000000000, 0.000000000000000000, 0.000000000000000000, 0.000000000000000000, 0.000000000000000000, 0.000000000000000000 ) ;
#31 = ORIENTED_EDGE ( 'NONE', *, *, #200, .F. ) ;
#32 = MECHANICAL_DESIGN_GEOMETRIC_PRESENTATION_REPRESENTATION (  '', ( #166 ), #296 ) ;
#33 = ORIENTED_EDGE ( 'NONE', *, *, #233, .T. ) ;
#34 = DIRECTION ( 'NONE',  ( -1.000000000000000000, 0.000000000000000000, 0.000000000000000000 ) ) ;
#35 = CLOSED_SHELL ( 'NONE', ( #255, #28, #24, #224 ) ) ;
#36 = DIRECTION ( 'NONE',  ( -0.000000000000000000, -1.000000000000000000, -0.000000000000000000 ) ) ;
#37 = EDGE_CURVE ( 'NONE', #47, #300, #274, .T. ) ;
#38 = DIRECTION ( 'NONE',  ( -3.768143997376475057E-17, 1.000000000000000000, -0.000000000000000000 ) ) ;
#39 =( NAMED_UNIT ( * ) PLANE_ANGLE_UNIT ( ) SI_UNIT ( $, .RADIAN. ) );
#40 = VECTOR ( 'NONE', #222, 39.37007874015748143 ) ;
#41 = FILL_AREA_STYLE_COLOUR ( '', #162 ) ;
#42 = DIRECTION ( 'NONE',  ( 0.000000000000000000, 0.000000000000000000, -1.000000000000000000 ) ) ;
#43 = AXIS2_PLACEMENT_3D ( 'NONE', #114, #65, #42 ) ;
#44 = DIRECTION ( 'NONE',  ( -0.000000000000000000, -1.000000000000000000, -0.000000000000000000 ) ) ;
#45 =( NAMED_UNIT ( * ) SI_UNIT ( $, .STERADIAN. ) SOLID_ANGLE_UNIT ( ) );
#46 = PRODUCT ( '48011', '48011', '', ( #190 ) ) ;
#47 = VERTEX_POINT ( 'NONE', #52 ) ;
#48 =( GEOMETRIC_REPRESENTATION_CONTEXT ( 3 ) GLOBAL_UNCERTAINTY_ASSIGNED_CONTEXT ( ( #237 ) ) GLOBAL_UNIT_ASSIGNED_CONTEXT ( ( #26, #25, #120 ) ) REPRESENTATION_CONTEXT ( 'NONE', 'WORKASPACE' ) );
#49 = FACE_OUTER_BOUND ( 'NONE', #212, .T. ) ;
#50 = VERTEX_POINT ( 'NONE', #304 ) ;
#51 = FILL_AREA_STYLE ('',( #150 ) ) ;
#52 = CARTESIAN_POINT ( 'NONE',  ( 0.000000000000000000, 0.3750000000000000555, -0.06250000000000000000 ) ) ;
#53 = CARTESIAN_POINT ( 'NONE',  ( 0.000000000000000000, 0.3750000000000000555, 0.000000000000000000 ) ) ;
#54 = EDGE_LOOP ( 'NONE', ( #31, #199, #15, #277 ) ) ;
#55 = LENGTH_MEASURE_WITH_UNIT ( LENGTH_MEASURE( 0.02539999999999999897 ), #155 );
#56 = SURFACE_STYLE_FILL_AREA ( #279 ) ;
#57 =( NAMED_UNIT ( * ) SI_UNIT ( $, .STERADIAN. ) SOLID_ANGLE_UNIT ( ) );
#58 = CIRCLE ( 'NONE', #242, 0.06250000000000005551 ) ;
#59 = APPLICATION_PROTOCOL_DEFINITION ( 'draft international standard', 'automotive_design', 1998, #209 ) ;
#60 =( NAMED_UNIT ( * ) SI_UNIT ( $, .STERADIAN. ) SOLID_ANGLE_UNIT ( ) );
#61 =( NAMED_UNIT ( * ) PLANE_ANGLE_UNIT ( ) SI_UNIT ( $, .RADIAN. ) );
#62 = DIRECTION ( 'NONE',  ( 0.000000000000000000, 0.000000000000000000, -1.000000000000000000 ) ) ;
#63 = EDGE_CURVE ( 'NONE', #47, #135, #284, .T. ) ;
#64 = PRESENTATION_LAYER_ASSIGNMENT (  '', '', ( #133 ) ) ;
#65 = DIRECTION ( 'NONE',  ( -0.000000000000000000, -1.000000000000000000, -0.000000000000000000 ) ) ;
#66 =( LENGTH_UNIT ( ) NAMED_UNIT ( * ) SI_UNIT ( $, .METRE. ) );
#67 = DIRECTION ( 'NONE',  ( -1.000000000000000000, 0.000000000000000000, 0.000000000000000000 ) ) ;
#68 = COLOUR_RGB ( '',1.000000000000000000, 0.000000000000000000, 0.000000000000000000 ) ;
#69 = CIRCLE ( 'NONE', #307, 0.06250000000000001388 ) ;
#70 = FILL_AREA_STYLE ('',( #211 ) ) ;
#71 = ADVANCED_FACE ( 'NONE', ( #272 ), #154, .T. ) ;
#72 = FILL_AREA_STYLE_COLOUR ( '', #117 ) ;
#73 = STYLED_ITEM ( 'NONE', ( #81 ), #71 ) ;
#74 = ORIENTED_EDGE ( 'NONE', *, *, #113, .F. ) ;
#75 = PLANE ( 'NONE',  #97 ) ;
#76 = MANIFOLD_SOLID_BREP ( 'Revolve - Tool Body (Straight Shanked)', #35 ) ;
#77 = FACE_OUTER_BOUND ( 'NONE', #111, .T. ) ;
#78 = ORIENTED_EDGE ( 'NONE', *, *, #283, .F. ) ;
#79 = DIMENSIONAL_EXPONENTS ( 1.000000000000000000, 0.000000000000000000, 0.000000000000000000, 0.000000000000000000, 0.000000000000000000, 0.000000000000000000, 0.000000000000000000 ) ;
#80 =( CONVERSION_BASED_UNIT ( 'INCH', #106 ) LENGTH_UNIT ( ) NAMED_UNIT ( #232 ) );
#81 = PRESENTATION_STYLE_ASSIGNMENT (( #231 ) ) ;
#82 = MECHANICAL_DESIGN_GEOMETRIC_PRESENTATION_REPRESENTATION (  '', ( #92 ), #19 ) ;
#83 = CARTESIAN_POINT ( 'NONE',  ( -6.123233995736772199E-17, 2.000000000000000000, 0.000000000000000000 ) ) ;
#84 = DIRECTION ( 'NONE',  ( -3.768143997376475057E-17, 1.000000000000000000, 0.000000000000000000 ) ) ;
#85 = CARTESIAN_POINT ( 'NONE',  ( -6.123233995736772199E-17, 2.000000000000000000, 0.000000000000000000 ) ) ;
#86 = VERTEX_POINT ( 'NONE', #87 ) ;
#87 = CARTESIAN_POINT ( 'NONE',  ( -0.06250000000000000000, 0.3749999999999999445, 0.000000000000000000 ) ) ;
#88 = AXIS2_PLACEMENT_3D ( 'NONE', #248, #44, #210 ) ;
#89 =( LENGTH_UNIT ( ) NAMED_UNIT ( * ) SI_UNIT ( $, .METRE. ) );
#90 = PRESENTATION_STYLE_ASSIGNMENT (( #207 ) ) ;
#91 = AXIS2_PLACEMENT_3D ( 'NONE', #308, #119, #62 ) ;
#92 = STYLED_ITEM ( 'NONE', ( #240 ), #94 ) ;
#93 = FILL_AREA_STYLE_COLOUR ( '', #139 ) ;
#94 = ADVANCED_FACE ( 'NONE', ( #306 ), #186, .T. ) ;
#95 = DIRECTION ( 'NONE',  ( -3.768143997376475057E-17, 1.000000000000000000, -0.000000000000000000 ) ) ;
#96 = SURFACE_SIDE_STYLE ('',( #23 ) ) ;
#97 = AXIS2_PLACEMENT_3D ( 'NONE', #298, #229, #297 ) ;
#98 =( NAMED_UNIT ( * ) PLANE_ANGLE_UNIT ( ) SI_UNIT ( $, .RADIAN. ) );
#99 = ORIENTED_EDGE ( 'NONE', *, *, #113, .T. ) ;
#100 = SURFACE_SIDE_STYLE ('',( #295 ) ) ;
#101 = CIRCLE ( 'NONE', #192, 0.06250000000000000000 ) ;
#102 = PRESENTATION_STYLE_ASSIGNMENT (( #104 ) ) ;
#103 = VERTEX_POINT ( 'NONE', #258 ) ;
#104 = SURFACE_STYLE_USAGE ( .BOTH. , #181 ) ;
#105 = EDGE_LOOP ( 'NONE', ( #170, #74 ) ) ;
#106 = LENGTH_MEASURE_WITH_UNIT ( LENGTH_MEASURE( 0.02539999999999999897 ), #10 );
#107 = UNCERTAINTY_MEASURE_WITH_UNIT (LENGTH_MEASURE( 1.000000000000000082E-05 ), #282, 'distance_accuracy_value', 'NONE');
#108 = EDGE_LOOP ( 'NONE', ( #33, #157 ) ) ;
#109 = DIRECTION ( 'NONE',  ( -3.768143997376475057E-17, 1.000000000000000000, -0.000000000000000000 ) ) ;
#110 = ORIENTED_EDGE ( 'NONE', *, *, #116, .F. ) ;
#111 = EDGE_LOOP ( 'NONE', ( #201, #256, #206, #78 ) ) ;
#112 = AXIS2_PLACEMENT_3D ( 'NONE', #125, #7, #128 ) ;
#113 = EDGE_CURVE ( 'NONE', #50, #86, #188, .T. ) ;
#114 = CARTESIAN_POINT ( 'NONE',  ( 0.000000000000000000, 0.000000000000000000, 0.000000000000000000 ) ) ;
#115 =( NAMED_UNIT ( * ) SI_UNIT ( $, .STERADIAN. ) SOLID_ANGLE_UNIT ( ) );
#116 = EDGE_CURVE ( 'NONE', #50, #149, #169, .T. ) ;
#117 = COLOUR_RGB ( '',0.7921568627450980005, 0.8196078431372548767, 0.9333333333333333481 ) ;
#118 = PRODUCT_DEFINITION_SHAPE ( 'NONE', 'NONE',  #278 ) ;
#119 = DIRECTION ( 'NONE',  ( 0.000000000000000000, -1.000000000000000000, -0.000000000000000000 ) ) ;
#120 =( NAMED_UNIT ( * ) SI_UNIT ( $, .STERADIAN. ) SOLID_ANGLE_UNIT ( ) );
#121 = APPLICATION_CONTEXT ( 'automotive_design' ) ;
#122 = DIRECTION ( 'NONE',  ( -3.768143997376475057E-17, 1.000000000000000000, -0.000000000000000000 ) ) ;
#123 = DIRECTION ( 'NONE',  ( -0.000000000000000000, -1.000000000000000000, -0.000000000000000000 ) ) ;
#124 = DIMENSIONAL_EXPONENTS ( 1.000000000000000000, 0.000000000000000000, 0.000000000000000000, 0.000000000000000000, 0.000000000000000000, 0.000000000000000000, 0.000000000000000000 ) ;
#125 = CARTESIAN_POINT ( 'NONE',  ( 0.000000000000000000, 0.3750000000000000555, 0.000000000000000000 ) ) ;
#126 = FACE_OUTER_BOUND ( 'NONE', #17, .T. ) ;
#127 =( NAMED_UNIT ( * ) PLANE_ANGLE_UNIT ( ) SI_UNIT ( $, .RADIAN. ) );
#128 = DIRECTION ( 'NONE',  ( 0.000000000000000000, -0.000000000000000000, 1.000000000000000000 ) ) ;
#129 = DIRECTION ( 'NONE',  ( 0.000000000000000000, 0.000000000000000000, -1.000000000000000000 ) ) ;
#130 = DIRECTION ( 'NONE',  ( 0.000000000000000000, 0.000000000000000000, -1.000000000000000000 ) ) ;
#131 = SURFACE_SIDE_STYLE ('',( #56 ) ) ;
#132 =( GEOMETRIC_REPRESENTATION_CONTEXT ( 3 ) GLOBAL_UNCERTAINTY_ASSIGNED_CONTEXT ( ( #197 ) ) GLOBAL_UNIT_ASSIGNED_CONTEXT ( ( #280, #1, #164 ) ) REPRESENTATION_CONTEXT ( 'NONE', 'WORKASPACE' ) );
#133 = STYLED_ITEM ( 'NONE', ( #290 ), #187 ) ;
#134 = ADVANCED_BREP_SHAPE_REPRESENTATION ( '48011', ( #187, #76, #140 ), #189 ) ;
#135 = VERTEX_POINT ( 'NONE', #194 ) ;
#136 = PRESENTATION_LAYER_ASSIGNMENT (  '', '', ( #166 ) ) ;
#137 = FILL_AREA_STYLE ('',( #41 ) ) ;
#138 = SURFACE_SIDE_STYLE ('',( #261 ) ) ;
#139 = COLOUR_RGB ( '',0.7921568627450980005, 0.8196078431372548767, 0.9333333333333333481 ) ;
#140 = AXIS2_PLACEMENT_3D ( 'NONE', #309, #18, #159 ) ;
#141 = ORIENTED_EDGE ( 'NONE', *, *, #37, .F. ) ;
#142 = PRODUCT_RELATED_PRODUCT_CATEGORY ( 'part', '', ( #46 ) ) ;
#143 = LINE ( 'NONE', #147, #230 ) ;
#144 = PRESENTATION_LAYER_ASSIGNMENT (  '', '', ( #92 ) ) ;
#145 = CARTESIAN_POINT ( 'NONE',  ( 0.06250000000000000000, 2.000000000000000000, 7.654042494670963708E-18 ) ) ;
#146 = ORIENTED_EDGE ( 'NONE', *, *, #283, .T. ) ;
#147 = CARTESIAN_POINT ( 'NONE',  ( 7.654042494670959086E-18, 0.000000000000000000, 0.06250000000000001388 ) ) ;
#148 = FACE_OUTER_BOUND ( 'NONE', #167, .T. ) ;
#149 = VERTEX_POINT ( 'NONE', #145 ) ;
#150 = FILL_AREA_STYLE_COLOUR ( '', #252 ) ;
#151 = PRESENTATION_LAYER_ASSIGNMENT (  '', '', ( #8 ) ) ;
#152 = FILL_AREA_STYLE_COLOUR ( '', #68 ) ;
#153 = CARTESIAN_POINT ( 'NONE',  ( 0.000000000000000000, 0.000000000000000000, -0.06250000000000001388 ) ) ;
#154 = PLANE ( 'NONE',  #91 ) ;
#155 =( LENGTH_UNIT ( ) NAMED_UNIT ( * ) SI_UNIT ( $, .METRE. ) );
#156 = CLOSED_SHELL ( 'NONE', ( #94, #260, #168, #71 ) ) ;
#157 = ORIENTED_EDGE ( 'NONE', *, *, #216, .T. ) ;
#158 = VECTOR ( 'NONE', #95, 39.37007874015748143 ) ;
#159 = DIRECTION ( 'NONE',  ( 1.000000000000000000, 0.000000000000000000, 0.000000000000000000 ) ) ;
#160 = SURFACE_SIDE_STYLE ('',( #288 ) ) ;
#161 = DIRECTION ( 'NONE',  ( -1.000000000000000000, 0.000000000000000000, 0.000000000000000000 ) ) ;
#162 = COLOUR_RGB ( '',1.000000000000000000, 0.000000000000000000, 0.000000000000000000 ) ;
#163 = EDGE_CURVE ( 'NONE', #86, #50, #101, .T. ) ;
#164 =( NAMED_UNIT ( * ) SI_UNIT ( $, .STERADIAN. ) SOLID_ANGLE_UNIT ( ) );
#165 = FILL_AREA_STYLE ('',( #72 ) ) ;
#166 = STYLED_ITEM ( 'NONE', ( #102 ), #260 ) ;
#167 = EDGE_LOOP ( 'NONE', ( #219, #235 ) ) ;
#168 = ADVANCED_FACE ( 'NONE', ( #215 ), #243, .T. ) ;
#169 = LINE ( 'NONE', #191, #158 ) ;
#170 = ORIENTED_EDGE ( 'NONE', *, *, #163, .F. ) ;
#171 = COLOUR_RGB ( '',1.000000000000000000, 0.000000000000000000, 0.000000000000000000 ) ;
#172 = CIRCLE ( 'NONE', #2, 0.06250000000000001388 ) ;
#173 = UNCERTAINTY_MEASURE_WITH_UNIT (LENGTH_MEASURE( 1.000000000000000082E-05 ), #80, 'distance_accuracy_value', 'NONE');
#174 = DIMENSIONAL_EXPONENTS ( 1.000000000000000000, 0.000000000000000000, 0.000000000000000000, 0.000000000000000000, 0.000000000000000000, 0.000000000000000000, 0.000000000000000000 ) ;
#175 = CARTESIAN_POINT ( 'NONE',  ( 0.000000000000000000, 0.3750000000000000555, 0.000000000000000000 ) ) ;
#176 = DIRECTION ( 'NONE',  ( -1.000000000000000000, 0.000000000000000000, 0.000000000000000000 ) ) ;
#177 = FACE_OUTER_BOUND ( 'NONE', #105, .T. ) ;
#178 = LINE ( 'NONE', #202, #40 ) ;
#179 = AXIS2_PLACEMENT_3D ( 'NONE', #196, #276, #305 ) ;
#180 = PLANE ( 'NONE',  #213 ) ;
#181 = SURFACE_SIDE_STYLE ('',( #204 ) ) ;
#182 = DIRECTION ( 'NONE',  ( -0.000000000000000000, -1.000000000000000000, -0.000000000000000000 ) ) ;
#183 = LENGTH_MEASURE_WITH_UNIT ( LENGTH_MEASURE( 0.02539999999999999897 ), #226 );
#184 = PRESENTATION_LAYER_ASSIGNMENT (  '', '', ( #270 ) ) ;
#185 = UNCERTAINTY_MEASURE_WITH_UNIT (LENGTH_MEASURE( 1.000000000000000082E-05 ), #22, 'distance_accuracy_value', 'NONE');
#186 = CYLINDRICAL_SURFACE ( 'NONE', #43, 0.06250000000000001388 ) ;
#187 = MANIFOLD_SOLID_BREP ( 'Revolve - Cutting Edge', #156 ) ;
#188 = CIRCLE ( 'NONE', #292, 0.06250000000000000000 ) ;
#189 =( GEOMETRIC_REPRESENTATION_CONTEXT ( 3 ) GLOBAL_UNCERTAINTY_ASSIGNED_CONTEXT ( ( #299 ) ) GLOBAL_UNIT_ASSIGNED_CONTEXT ( ( #257, #220, #115 ) ) REPRESENTATION_CONTEXT ( 'NONE', 'WORKASPACE' ) );
#190 = PRODUCT_CONTEXT ( 'NONE', #121, 'mechanical' ) ;
#191 = CARTESIAN_POINT ( 'NONE',  ( 0.06249999999999997224, 2.000000000000000000, 7.654042494670960626E-18 ) ) ;
#192 = AXIS2_PLACEMENT_3D ( 'NONE', #289, #122, #67 ) ;
#193 = SURFACE_STYLE_USAGE ( .BOTH. , #100 ) ;
#194 = CARTESIAN_POINT ( 'NONE',  ( 7.654042494670959086E-18, 0.3750000000000000555, 0.06250000000000000000 ) ) ;
#195 = AXIS2_PLACEMENT_3D ( 'NONE', #53, #227, #11 ) ;
#196 = CARTESIAN_POINT ( 'NONE',  ( -6.123233995736772199E-17, 2.000000000000000000, 0.000000000000000000 ) ) ;
#197 = UNCERTAINTY_MEASURE_WITH_UNIT (LENGTH_MEASURE( 1.000000000000000082E-05 ), #280, 'distance_accuracy_value', 'NONE');
#198 = CYLINDRICAL_SURFACE ( 'NONE', #275, 0.06250000000000002776 ) ;
#199 = ORIENTED_EDGE ( 'NONE', *, *, #293, .T. ) ;
#200 = EDGE_CURVE ( 'NONE', #135, #223, #143, .T. ) ;
#201 = ORIENTED_EDGE ( 'NONE', *, *, #163, .T. ) ;
#202 = CARTESIAN_POINT ( 'NONE',  ( -0.06250000000000009714, 2.000000000000000000, 0.000000000000000000 ) ) ;
#203 = DIRECTION ( 'NONE',  ( -1.000000000000000000, -3.768143997376475057E-17, 0.000000000000000000 ) ) ;
#204 = SURFACE_STYLE_FILL_AREA ( #51 ) ;
#205 = DIRECTION ( 'NONE',  ( -3.768143997376475057E-17, 1.000000000000000000, -0.000000000000000000 ) ) ;
#206 = ORIENTED_EDGE ( 'NONE', *, *, #239, .F. ) ;
#207 = SURFACE_STYLE_USAGE ( .BOTH. , #138 ) ;
#208 =( NAMED_UNIT ( * ) SI_UNIT ( $, .STERADIAN. ) SOLID_ANGLE_UNIT ( ) );
#209 = APPLICATION_CONTEXT ( 'automotive_design' ) ;
#210 = DIRECTION ( 'NONE',  ( 0.000000000000000000, 0.000000000000000000, -1.000000000000000000 ) ) ;
#211 = FILL_AREA_STYLE_COLOUR ( '', #171 ) ;
#212 = EDGE_LOOP ( 'NONE', ( #265, #254 ) ) ;
#213 = AXIS2_PLACEMENT_3D ( 'NONE', #250, #84, #203 ) ;
#214 = CIRCLE ( 'NONE', #195, 0.06250000000000000000 ) ;
#215 = FACE_OUTER_BOUND ( 'NONE', #54, .T. ) ;
#216 = EDGE_CURVE ( 'NONE', #223, #300, #69, .T. ) ;
#217 = DIRECTION ( 'NONE',  ( 0.000000000000000000, 0.000000000000000000, -1.000000000000000000 ) ) ;
#218 = PRODUCT_DEFINITION_CONTEXT ( 'detailed design', #209, 'design' ) ;
#219 = ORIENTED_EDGE ( 'NONE', *, *, #239, .T. ) ;
#220 =( NAMED_UNIT ( * ) PLANE_ANGLE_UNIT ( ) SI_UNIT ( $, .RADIAN. ) );
#221 =( GEOMETRIC_REPRESENTATION_CONTEXT ( 3 ) GLOBAL_UNCERTAINTY_ASSIGNED_CONTEXT ( ( #234 ) ) GLOBAL_UNIT_ASSIGNED_CONTEXT ( ( #267, #98, #45 ) ) REPRESENTATION_CONTEXT ( 'NONE', 'WORKASPACE' ) );
#222 = DIRECTION ( 'NONE',  ( -3.768143997376475057E-17, 1.000000000000000000, -0.000000000000000000 ) ) ;
#223 = VERTEX_POINT ( 'NONE', #5 ) ;
#224 = ADVANCED_FACE ( 'NONE', ( #148 ), #75, .F. ) ;
#225 = CARTESIAN_POINT ( 'NONE',  ( 0.000000000000000000, 0.000000000000000000, 0.000000000000000000 ) ) ;
#226 =( LENGTH_UNIT ( ) NAMED_UNIT ( * ) SI_UNIT ( $, .METRE. ) );
#227 = DIRECTION ( 'NONE',  ( -0.000000000000000000, -1.000000000000000000, -0.000000000000000000 ) ) ;
#228 = ORIENTED_EDGE ( 'NONE', *, *, #200, .T. ) ;
#229 = DIRECTION ( 'NONE',  ( 3.768143997376475057E-17, -1.000000000000000000, 0.000000000000000000 ) ) ;
#230 = VECTOR ( 'NONE', #247, 39.37007874015748143 ) ;
#231 = SURFACE_STYLE_USAGE ( .BOTH. , #131 ) ;
#232 = DIMENSIONAL_EXPONENTS ( 1.000000000000000000, 0.000000000000000000, 0.000000000000000000, 0.000000000000000000, 0.000000000000000000, 0.000000000000000000, 0.000000000000000000 ) ;
#233 = EDGE_CURVE ( 'NONE', #300, #223, #172, .T. ) ;
#234 = UNCERTAINTY_MEASURE_WITH_UNIT (LENGTH_MEASURE( 1.000000000000000082E-05 ), #267, 'distance_accuracy_value', 'NONE');
#235 = ORIENTED_EDGE ( 'NONE', *, *, #263, .T. ) ;
#236 = LENGTH_MEASURE_WITH_UNIT ( LENGTH_MEASURE( 0.02539999999999999897 ), #66 );
#237 = UNCERTAINTY_MEASURE_WITH_UNIT (LENGTH_MEASURE( 1.000000000000000082E-05 ), #26, 'distance_accuracy_value', 'NONE');
#238 = CARTESIAN_POINT ( 'NONE',  ( 0.000000000000000000, 0.3749999999999999445, 0.000000000000000000 ) ) ;
#239 = EDGE_CURVE ( 'NONE', #103, #149, #58, .T. ) ;
#240 = PRESENTATION_STYLE_ASSIGNMENT (( #259 ) ) ;
#241 = FILL_AREA_STYLE ('',( #93 ) ) ;
#242 = AXIS2_PLACEMENT_3D ( 'NONE', #85, #14, #273 ) ;
#243 = CYLINDRICAL_SURFACE ( 'NONE', #88, 0.06250000000000001388 ) ;
#244 = ORIENTED_EDGE ( 'NONE', *, *, #63, .T. ) ;
#245 = LENGTH_MEASURE_WITH_UNIT ( LENGTH_MEASURE( 0.02539999999999999897 ), #29 );
#246 = MECHANICAL_DESIGN_GEOMETRIC_PRESENTATION_REPRESENTATION (  '', ( #133 ), #48 ) ;
#247 = DIRECTION ( 'NONE',  ( -0.000000000000000000, -1.000000000000000000, -0.000000000000000000 ) ) ;
#248 = CARTESIAN_POINT ( 'NONE',  ( 0.000000000000000000, 0.000000000000000000, 0.000000000000000000 ) ) ;
#249 = DIRECTION ( 'NONE',  ( -0.000000000000000000, -1.000000000000000000, -0.000000000000000000 ) ) ;
#250 = CARTESIAN_POINT ( 'NONE',  ( 4.437159120301362840E-35, 0.3750000000000000555, 0.000000000000000000 ) ) ;
#251 = PRESENTATION_LAYER_ASSIGNMENT (  '', '', ( #73 ) ) ;
#252 = COLOUR_RGB ( '',1.000000000000000000, 0.000000000000000000, 0.000000000000000000 ) ;
#253 = EDGE_LOOP ( 'NONE', ( #244, #228, #268, #141 ) ) ;
#254 = ORIENTED_EDGE ( 'NONE', *, *, #293, .F. ) ;
#255 = ADVANCED_FACE ( 'NONE', ( #77 ), #198, .T. ) ;
#256 = ORIENTED_EDGE ( 'NONE', *, *, #116, .T. ) ;
#257 =( CONVERSION_BASED_UNIT ( 'INCH', #55 ) LENGTH_UNIT ( ) NAMED_UNIT ( #79 ) );
#258 = CARTESIAN_POINT ( 'NONE',  ( -0.06250000000000012490, 2.000000000000000000, 0.000000000000000000 ) ) ;
#259 = SURFACE_STYLE_USAGE ( .BOTH. , #160 ) ;
#260 = ADVANCED_FACE ( 'NONE', ( #49 ), #301, .T. ) ;
#261 = SURFACE_STYLE_FILL_AREA ( #241 ) ;
#262 = LENGTH_MEASURE_WITH_UNIT ( LENGTH_MEASURE( 0.02539999999999999897 ), #89 );
#263 = EDGE_CURVE ( 'NONE', #149, #103, #4, .T. ) ;
#264 = SURFACE_STYLE_USAGE ( .BOTH. , #96 ) ;
#265 = ORIENTED_EDGE ( 'NONE', *, *, #63, .F. ) ;
#266 = PRESENTATION_STYLE_ASSIGNMENT (( #193 ) ) ;
#267 =( CONVERSION_BASED_UNIT ( 'INCH', #3 ) LENGTH_UNIT ( ) NAMED_UNIT ( #6 ) );
#268 = ORIENTED_EDGE ( 'NONE', *, *, #233, .F. ) ;
#269 = AXIS2_PLACEMENT_3D ( 'NONE', #302, #205, #34 ) ;
#270 = STYLED_ITEM ( 'NONE', ( #266 ), #168 ) ;
#271 =( LENGTH_UNIT ( ) NAMED_UNIT ( * ) SI_UNIT ( $, .METRE. ) );
#272 = FACE_OUTER_BOUND ( 'NONE', #108, .T. ) ;
#273 = DIRECTION ( 'NONE',  ( -1.000000000000000000, 0.000000000000000000, 0.000000000000000000 ) ) ;
#274 = LINE ( 'NONE', #153, #20 ) ;
#275 = AXIS2_PLACEMENT_3D ( 'NONE', #83, #109, #176 ) ;
#276 = DIRECTION ( 'NONE',  ( -3.768143997376475057E-17, 1.000000000000000000, -0.000000000000000000 ) ) ;
#277 = ORIENTED_EDGE ( 'NONE', *, *, #216, .F. ) ;
#278 = PRODUCT_DEFINITION ( 'UNKNOWN', '', #286, #218 ) ;
#279 = FILL_AREA_STYLE ('',( #152 ) ) ;
#280 =( CONVERSION_BASED_UNIT ( 'INCH', #183 ) LENGTH_UNIT ( ) NAMED_UNIT ( #294 ) );
#281 =( GEOMETRIC_REPRESENTATION_CONTEXT ( 3 ) GLOBAL_UNCERTAINTY_ASSIGNED_CONTEXT ( ( #185 ) ) GLOBAL_UNIT_ASSIGNED_CONTEXT ( ( #22, #61, #60 ) ) REPRESENTATION_CONTEXT ( 'NONE', 'WORKASPACE' ) );
#282 =( CONVERSION_BASED_UNIT ( 'INCH', #236 ) LENGTH_UNIT ( ) NAMED_UNIT ( #124 ) );
#283 = EDGE_CURVE ( 'NONE', #86, #103, #178, .T. ) ;
#284 = CIRCLE ( 'NONE', #291, 0.06250000000000000000 ) ;
#285 = MECHANICAL_DESIGN_GEOMETRIC_PRESENTATION_REPRESENTATION (  '', ( #8 ), #281 ) ;
#286 = PRODUCT_DEFINITION_FORMATION_WITH_SPECIFIED_SOURCE ( 'ANY', '', #46, .NOT_KNOWN. ) ;
#287 = APPLICATION_PROTOCOL_DEFINITION ( 'draft international standard', 'automotive_design', 1998, #121 ) ;
#288 = SURFACE_STYLE_FILL_AREA ( #137 ) ;
#289 = CARTESIAN_POINT ( 'NONE',  ( 0.000000000000000000, 0.3749999999999999445, 0.000000000000000000 ) ) ;
#290 = PRESENTATION_STYLE_ASSIGNMENT (( #264 ) ) ;
#291 = AXIS2_PLACEMENT_3D ( 'NONE', #175, #182, #129 ) ;
#292 = AXIS2_PLACEMENT_3D ( 'NONE', #238, #38, #161 ) ;
#293 = EDGE_CURVE ( 'NONE', #135, #47, #214, .T. ) ;
#294 = DIMENSIONAL_EXPONENTS ( 1.000000000000000000, 0.000000000000000000, 0.000000000000000000, 0.000000000000000000, 0.000000000000000000, 0.000000000000000000, 0.000000000000000000 ) ;
#295 = SURFACE_STYLE_FILL_AREA ( #70 ) ;
#296 =( GEOMETRIC_REPRESENTATION_CONTEXT ( 3 ) GLOBAL_UNCERTAINTY_ASSIGNED_CONTEXT ( ( #173 ) ) GLOBAL_UNIT_ASSIGNED_CONTEXT ( ( #80, #127, #57 ) ) REPRESENTATION_CONTEXT ( 'NONE', 'WORKASPACE' ) );
#297 = DIRECTION ( 'NONE',  ( 1.000000000000000000, 3.768143997376475057E-17, 0.000000000000000000 ) ) ;
#298 = CARTESIAN_POINT ( 'NONE',  ( 0.06250000000000000000, 2.000000000000000000, 0.000000000000000000 ) ) ;
#299 = UNCERTAINTY_MEASURE_WITH_UNIT (LENGTH_MEASURE( 1.000000000000000082E-05 ), #257, 'distance_accuracy_value', 'NONE');
#300 = VERTEX_POINT ( 'NONE', #303 ) ;
#301 = PLANE ( 'NONE',  #112 ) ;
#302 = CARTESIAN_POINT ( 'NONE',  ( -6.123233995736772199E-17, 2.000000000000000000, 0.000000000000000000 ) ) ;
#303 = CARTESIAN_POINT ( 'NONE',  ( 0.000000000000000000, 0.000000000000000000, -0.06250000000000001388 ) ) ;
#304 = CARTESIAN_POINT ( 'NONE',  ( 0.06250000000000000000, 0.3749999999999999445, 7.654042494670963708E-18 ) ) ;
#305 = DIRECTION ( 'NONE',  ( -1.000000000000000000, 0.000000000000000000, 0.000000000000000000 ) ) ;
#306 = FACE_OUTER_BOUND ( 'NONE', #253, .T. ) ;
#307 = AXIS2_PLACEMENT_3D ( 'NONE', #27, #123, #217 ) ;
#308 = CARTESIAN_POINT ( 'NONE',  ( 0.000000000000000000, 0.000000000000000000, 0.000000000000000000 ) ) ;
#309 = CARTESIAN_POINT ( 'NONE',  ( 0.000000000000000000, 0.000000000000000000, 0.000000000000000000 ) ) ;
ENDSEC;
END-ISO-10303-21;
