ISO-10303-21;
HEADER;
FILE_DESCRIPTION (( 'STEP AP214' ),
    '1' );
FILE_NAME ('Micro_KC-187-300-050.STEP',
    '2021-09-03T19:16:28',
    ( '' ),
    ( '' ),
    'SwSTEP 2.0',
    'SolidWorks 2020',
    '' );
FILE_SCHEMA (( 'AUTOMOTIVE_DESIGN' ));
ENDSEC;

DATA;
#1 = DIRECTION ( 'NONE',  ( -1.000000000000000000, 0.0000000000000000000, 0.0000000000000000000 ) ) ;
#2 = AXIS2_PLACEMENT_3D ( 'NONE', #171, #237, #293 ) ;
#3 = ORIENTED_EDGE ( 'NONE', *, *, #39, .T. ) ;
#4 =( LENGTH_UNIT ( ) NAMED_UNIT ( * ) SI_UNIT ( $, .METRE. ) );
#5 = ORIENTED_EDGE ( 'NONE', *, *, #183, .F. ) ;
#6 = VERTEX_POINT ( 'NONE', #55 ) ;
#7 = APPLICATION_CONTEXT ( 'automotive_design' ) ;
#8 = CARTESIAN_POINT ( 'NONE',  ( 0.0000000000000000000, 0.0000000000000000000, 2.000000000000000000 ) ) ;
#9 = ORIENTED_EDGE ( 'NONE', *, *, #98, .F. ) ;
#10 = EDGE_CURVE ( 'NONE', #362, #210, #344, .T. ) ;
#11 = LENGTH_MEASURE_WITH_UNIT ( LENGTH_MEASURE( 0.02539999999999999897 ), #18 );
#12 = CARTESIAN_POINT ( 'NONE',  ( 0.09375000000000002776, 1.148106374200644017E-17, 0.05000000000000000278 ) ) ;
#13 = PRODUCT_DEFINITION_CONTEXT ( 'detailed design', #278, 'design' ) ;
#14 = VERTEX_POINT ( 'NONE', #21 ) ;
#15 = VECTOR ( 'NONE', #200, 39.37007874015748143 ) ;
#16 = DIRECTION ( 'NONE',  ( -1.000000000000000000, 0.0000000000000000000, 0.0000000000000000000 ) ) ;
#17 = EDGE_LOOP ( 'NONE', ( #307, #128, #3, #45 ) ) ;
#18 =( LENGTH_UNIT ( ) NAMED_UNIT ( * ) SI_UNIT ( $, .METRE. ) );
#19 = ADVANCED_FACE ( 'NONE', ( #140 ), #31, .T. ) ;
#20 = DIRECTION ( 'NONE',  ( -0.0000000000000000000, -0.0000000000000000000, -1.000000000000000000 ) ) ;
#21 = CARTESIAN_POINT ( 'NONE',  ( -0.09375000000000002776, 0.0000000000000000000, 0.05000000000000000278 ) ) ;
#22 = AXIS2_PLACEMENT_3D ( 'NONE', #70, #245, #155 ) ;
#23 = CARTESIAN_POINT ( 'NONE',  ( -0.09375000000000001388, 0.0000000000000000000, 2.000000000000000000 ) ) ;
#24 = CARTESIAN_POINT ( 'NONE',  ( -0.04500000000000001221, 0.0000000000000000000, 0.0000000000000000000 ) ) ;
#25 = CARTESIAN_POINT ( 'NONE',  ( 0.04500000000000001221, 5.510910596163091096E-18, 0.0000000000000000000 ) ) ;
#26 = AXIS2_PLACEMENT_3D ( 'NONE', #294, #65, #99 ) ;
#27 = CIRCLE ( 'NONE', #132, 0.07874999999999980627 ) ;
#28 = MECHANICAL_DESIGN_GEOMETRIC_PRESENTATION_REPRESENTATION (  '', ( #122 ), #284 ) ;
#29 = DIRECTION ( 'NONE',  ( 0.0000000000000000000, 0.0000000000000000000, 1.000000000000000000 ) ) ;
#30 = CARTESIAN_POINT ( 'NONE',  ( 0.0000000000000000000, 0.0000000000000000000, 0.05000000000000000278 ) ) ;
#31 = CONICAL_SURFACE ( 'NONE', #177, 0.04500000000000003303, 0.7853981633974506105 ) ;
#32 = PRODUCT_DEFINITION_FORMATION_WITH_SPECIFIED_SOURCE ( 'ANY', '', #300, .NOT_KNOWN. ) ;
#33 = DIRECTION ( 'NONE',  ( -0.0000000000000000000, -0.0000000000000000000, -1.000000000000000000 ) ) ;
#34 = DIMENSIONAL_EXPONENTS ( 1.000000000000000000, 0.0000000000000000000, 0.0000000000000000000, 0.0000000000000000000, 0.0000000000000000000, 0.0000000000000000000, 0.0000000000000000000 ) ;
#35 = EDGE_CURVE ( 'NONE', #158, #51, #375, .T. ) ;
#36 = DIRECTION ( 'NONE',  ( -0.0000000000000000000, -0.0000000000000000000, -1.000000000000000000 ) ) ;
#37 = EDGE_CURVE ( 'NONE', #51, #273, #286, .T. ) ;
#38 = CARTESIAN_POINT ( 'NONE',  ( -0.09375000000000001388, 0.0000000000000000000, 0.0000000000000000000 ) ) ;
#39 = EDGE_CURVE ( 'NONE', #362, #6, #224, .T. ) ;
#40 = CARTESIAN_POINT ( 'NONE',  ( 0.07874999999999980627, 1.056257864264590573E-17, 2.000000000000000000 ) ) ;
#41 = CIRCLE ( 'NONE', #329, 0.09375000000000001388 ) ;
#42 = ORIENTED_EDGE ( 'NONE', *, *, #124, .T. ) ;
#43 = CARTESIAN_POINT ( 'NONE',  ( 0.0000000000000000000, 0.0000000000000000000, 0.0000000000000000000 ) ) ;
#44 = ORIENTED_EDGE ( 'NONE', *, *, #63, .F. ) ;
#45 = ORIENTED_EDGE ( 'NONE', *, *, #162, .F. ) ;
#46 = EDGE_CURVE ( 'NONE', #51, #6, #114, .T. ) ;
#47 = CLOSED_SHELL ( 'NONE', ( #250, #354, #69, #113, #311, #121, #54, #373, #19, #241, #91, #148, #188 ) ) ;
#48 = ORIENTED_EDGE ( 'NONE', *, *, #10, .F. ) ;
#49 = AXIS2_PLACEMENT_3D ( 'NONE', #85, #194, #318 ) ;
#50 = AXIS2_PLACEMENT_3D ( 'NONE', #357, #268, #16 ) ;
#51 = VERTEX_POINT ( 'NONE', #313 ) ;
#52 = LINE ( 'NONE', #25, #359 ) ;
#53 = DIRECTION ( 'NONE',  ( 0.0000000000000000000, 0.0000000000000000000, 1.000000000000000000 ) ) ;
#54 = ADVANCED_FACE ( 'NONE', ( #195 ), #163, .T. ) ;
#55 = CARTESIAN_POINT ( 'NONE',  ( -0.09375000000000001388, 0.0000000000000000000, 0.3487499999999997824 ) ) ;
#56 = DIRECTION ( 'NONE',  ( 1.000000000000000000, 0.0000000000000000000, -0.0000000000000000000 ) ) ;
#57 = SURFACE_STYLE_FILL_AREA ( #126 ) ;
#58 = AXIS2_PLACEMENT_3D ( 'NONE', #279, #112, #341 ) ;
#59 = CARTESIAN_POINT ( 'NONE',  ( 0.09375000000000001388, 1.148106374200643863E-17, 2.000000000000000000 ) ) ;
#60 = DIMENSIONAL_EXPONENTS ( 1.000000000000000000, 0.0000000000000000000, 0.0000000000000000000, 0.0000000000000000000, 0.0000000000000000000, 0.0000000000000000000, 0.0000000000000000000 ) ;
#61 = CARTESIAN_POINT ( 'NONE',  ( 0.09375000000000001388, 1.148106374200643863E-17, 2.000000000000000000 ) ) ;
#62 = CYLINDRICAL_SURFACE ( 'NONE', #274, 0.09375000000000001388 ) ;
#63 = EDGE_CURVE ( 'NONE', #273, #74, #319, .T. ) ;
#64 = AXIS2_PLACEMENT_3D ( 'NONE', #115, #196, #280 ) ;
#65 = DIRECTION ( 'NONE',  ( 0.0000000000000000000, 0.0000000000000000000, 1.000000000000000000 ) ) ;
#66 = DIRECTION ( 'NONE',  ( -1.000000000000000000, 0.0000000000000000000, 0.0000000000000000000 ) ) ;
#67 =( NAMED_UNIT ( * ) SI_UNIT ( $, .STERADIAN. ) SOLID_ANGLE_UNIT ( ) );
#68 = ORIENTED_EDGE ( 'NONE', *, *, #89, .F. ) ;
#69 = ADVANCED_FACE ( 'NONE', ( #83 ), #315, .T. ) ;
#70 = CARTESIAN_POINT ( 'NONE',  ( 0.0000000000000000000, 0.0000000000000000000, 2.000000000000000000 ) ) ;
#71 = ORIENTED_EDGE ( 'NONE', *, *, #170, .T. ) ;
#72 = FACE_OUTER_BOUND ( 'NONE', #242, .T. ) ;
#73 = UNCERTAINTY_MEASURE_WITH_UNIT (LENGTH_MEASURE( 1.000000000000000082E-05 ), #187, 'distance_accuracy_value', 'NONE');
#74 = VERTEX_POINT ( 'NONE', #339 ) ;
#75 =( CONVERSION_BASED_UNIT ( 'INCH', #11 ) LENGTH_UNIT ( ) NAMED_UNIT ( #60 ) );
#76 = EDGE_CURVE ( 'NONE', #158, #213, #166, .T. ) ;
#77 = EDGE_LOOP ( 'NONE', ( #216, #249, #161, #251 ) ) ;
#78 = SURFACE_STYLE_FILL_AREA ( #332 ) ;
#79 = CIRCLE ( 'NONE', #290, 0.09375000000000001388 ) ;
#80 = ORIENTED_EDGE ( 'NONE', *, *, #281, .T. ) ;
#81 = ORIENTED_EDGE ( 'NONE', *, *, #98, .T. ) ;
#82 = FILL_AREA_STYLE_COLOUR ( '', #291 ) ;
#83 = FACE_OUTER_BOUND ( 'NONE', #271, .T. ) ;
#84 = EDGE_CURVE ( 'NONE', #158, #74, #52, .T. ) ;
#85 = CARTESIAN_POINT ( 'NONE',  ( 0.0000000000000000000, 0.0000000000000000000, 0.05000000000000000971 ) ) ;
#86 = DIRECTION ( 'NONE',  ( -0.0000000000000000000, -0.0000000000000000000, -1.000000000000000000 ) ) ;
#87 = AXIS2_PLACEMENT_3D ( 'NONE', #88, #256, #364 ) ;
#88 = CARTESIAN_POINT ( 'NONE',  ( 0.0000000000000000000, 0.0000000000000000000, 0.2999999999999999889 ) ) ;
#89 = EDGE_CURVE ( 'NONE', #14, #336, #141, .T. ) ;
#90 = CARTESIAN_POINT ( 'NONE',  ( -0.04500000000000003303, 5.510910596163093407E-18, 0.2999999999999999889 ) ) ;
#91 = ADVANCED_FACE ( 'NONE', ( #254, #371 ), #255, .T. ) ;
#92 = CARTESIAN_POINT ( 'NONE',  ( 0.0000000000000000000, 0.0000000000000000000, 0.2999999999999999889 ) ) ;
#93 = ORIENTED_EDGE ( 'NONE', *, *, #170, .F. ) ;
#94 = AXIS2_PLACEMENT_3D ( 'NONE', #263, #36, #120 ) ;
#95 = AXIS2_PLACEMENT_3D ( 'NONE', #150, #134, #1 ) ;
#96 = CARTESIAN_POINT ( 'NONE',  ( 0.09375000000000001388, 1.148106374200643863E-17, 1.984999999999999654 ) ) ;
#97 = ADVANCED_BREP_SHAPE_REPRESENTATION ( 'Micro_KC-187-300-050', ( #219, #376 ), #309 ) ;
#98 = EDGE_CURVE ( 'NONE', #193, #362, #118, .T. ) ;
#99 = DIRECTION ( 'NONE',  ( 1.000000000000000000, 0.0000000000000000000, -0.0000000000000000000 ) ) ;
#100 = EDGE_CURVE ( 'NONE', #74, #273, #111, .T. ) ;
#101 = CIRCLE ( 'NONE', #308, 0.07874999999999980627 ) ;
#102 = DIRECTION ( 'NONE',  ( -0.0000000000000000000, -0.0000000000000000000, -1.000000000000000000 ) ) ;
#103 = ORIENTED_EDGE ( 'NONE', *, *, #179, .T. ) ;
#104 = ORIENTED_EDGE ( 'NONE', *, *, #356, .F. ) ;
#105 = EDGE_LOOP ( 'NONE', ( #310, #218 ) ) ;
#106 = CARTESIAN_POINT ( 'NONE',  ( 0.0000000000000000000, 0.0000000000000000000, 1.984999999999999654 ) ) ;
#107 = AXIS2_PLACEMENT_3D ( 'NONE', #143, #53, #56 ) ;
#108 = ORIENTED_EDGE ( 'NONE', *, *, #89, .T. ) ;
#109 = EDGE_LOOP ( 'NONE', ( #153, #220, #5, #276 ) ) ;
#110 = ORIENTED_EDGE ( 'NONE', *, *, #124, .F. ) ;
#111 = CIRCLE ( 'NONE', #49, 0.04500000000000000527 ) ;
#112 = DIRECTION ( 'NONE',  ( 0.0000000000000000000, 0.0000000000000000000, -1.000000000000000000 ) ) ;
#113 = ADVANCED_FACE ( 'NONE', ( #366 ), #203, .T. ) ;
#114 = LINE ( 'NONE', #90, #262 ) ;
#115 = CARTESIAN_POINT ( 'NONE',  ( 0.0000000000000000000, 0.0000000000000000000, 2.000000000000000000 ) ) ;
#116 = DIRECTION ( 'NONE',  ( 0.0000000000000000000, 0.0000000000000000000, 1.000000000000000000 ) ) ;
#117 = CIRCLE ( 'NONE', #369, 0.09375000000000002776 ) ;
#118 = LINE ( 'NONE', #164, #15 ) ;
#119 =( NAMED_UNIT ( * ) SI_UNIT ( $, .STERADIAN. ) SOLID_ANGLE_UNIT ( ) );
#120 = DIRECTION ( 'NONE',  ( -1.000000000000000000, 0.0000000000000000000, 0.0000000000000000000 ) ) ;
#121 = ADVANCED_FACE ( 'NONE', ( #372 ), #62, .T. ) ;
#122 = STYLED_ITEM ( 'NONE', ( #306 ), #97 ) ;
#123 = DIRECTION ( 'NONE',  ( -1.000000000000000000, 0.0000000000000000000, 0.0000000000000000000 ) ) ;
#124 = EDGE_CURVE ( 'NONE', #368, #244, #205, .T. ) ;
#125 = CARTESIAN_POINT ( 'NONE',  ( -0.07874999999999980627, 0.0000000000000000000, 2.000000000000000000 ) ) ;
#126 = FILL_AREA_STYLE ('',( #264 ) ) ;
#127 = EDGE_LOOP ( 'NONE', ( #156, #137 ) ) ;
#128 = ORIENTED_EDGE ( 'NONE', *, *, #356, .T. ) ;
#129 = FACE_OUTER_BOUND ( 'NONE', #109, .T. ) ;
#130 = ORIENTED_EDGE ( 'NONE', *, *, #84, .F. ) ;
#131 = CARTESIAN_POINT ( 'NONE',  ( 0.0000000000000000000, 0.0000000000000000000, 0.0000000000000000000 ) ) ;
#132 = AXIS2_PLACEMENT_3D ( 'NONE', #8, #275, #304 ) ;
#133 = EDGE_LOOP ( 'NONE', ( #93, #186, #48, #9 ) ) ;
#134 = DIRECTION ( 'NONE',  ( 0.0000000000000000000, 0.0000000000000000000, -1.000000000000000000 ) ) ;
#135 = ORIENTED_EDGE ( 'NONE', *, *, #76, .F. ) ;
#136 = DIRECTION ( 'NONE',  ( -1.000000000000000000, 0.0000000000000000000, 0.0000000000000000000 ) ) ;
#137 = ORIENTED_EDGE ( 'NONE', *, *, #281, .F. ) ;
#138 = SURFACE_SIDE_STYLE ('',( #78 ) ) ;
#139 = VECTOR ( 'NONE', #223, 39.37007874015748143 ) ;
#140 = FACE_OUTER_BOUND ( 'NONE', #77, .T. ) ;
#141 = LINE ( 'NONE', #229, #233 ) ;
#142 = DIRECTION ( 'NONE',  ( -0.7071067811865491270, 8.659560562354952580E-17, 0.7071067811865459074 ) ) ;
#143 = CARTESIAN_POINT ( 'NONE',  ( 0.0000000000000000000, 0.0000000000000000000, 2.000000000000000000 ) ) ;
#144 = VECTOR ( 'NONE', #145, 39.37007874015748143 ) ;
#145 = DIRECTION ( 'NONE',  ( 0.7071067811865463515, 8.659560562354916834E-17, -0.7071067811865486830 ) ) ;
#146 = DIRECTION ( 'NONE',  ( 1.000000000000000000, 0.0000000000000000000, 0.0000000000000000000 ) ) ;
#147 = ORIENTED_EDGE ( 'NONE', *, *, #46, .T. ) ;
#148 = ADVANCED_FACE ( 'NONE', ( #173 ), #379, .F. ) ;
#149 = CARTESIAN_POINT ( 'NONE',  ( 0.04500000000000003303, 0.0000000000000000000, 0.2999999999999999889 ) ) ;
#150 = CARTESIAN_POINT ( 'NONE',  ( 0.0000000000000000000, 0.0000000000000000000, 2.000000000000000000 ) ) ;
#151 = AXIS2_PLACEMENT_3D ( 'NONE', #316, #116, #257 ) ;
#152 = CYLINDRICAL_SURFACE ( 'NONE', #50, 0.04500000000000001221 ) ;
#153 = ORIENTED_EDGE ( 'NONE', *, *, #10, .T. ) ;
#154 = EDGE_CURVE ( 'NONE', #14, #368, #117, .T. ) ;
#155 = DIRECTION ( 'NONE',  ( -1.000000000000000000, 0.0000000000000000000, 0.0000000000000000000 ) ) ;
#156 = ORIENTED_EDGE ( 'NONE', *, *, #211, .F. ) ;
#157 = FACE_OUTER_BOUND ( 'NONE', #301, .T. ) ;
#158 = VERTEX_POINT ( 'NONE', #149 ) ;
#159 = CARTESIAN_POINT ( 'NONE',  ( 0.09375000000000001388, 1.148106374200643863E-17, 0.0000000000000000000 ) ) ;
#160 = VECTOR ( 'NONE', #252, 39.37007874015748143 ) ;
#161 = ORIENTED_EDGE ( 'NONE', *, *, #76, .T. ) ;
#162 = EDGE_CURVE ( 'NONE', #213, #6, #345, .T. ) ;
#163 = PLANE ( 'NONE',  #107 ) ;
#164 = CARTESIAN_POINT ( 'NONE',  ( -0.07874999999999980627, 0.0000000000000000000, 2.000000000000000000 ) ) ;
#165 = AXIS2_PLACEMENT_3D ( 'NONE', #312, #227, #136 ) ;
#166 = LINE ( 'NONE', #367, #160 ) ;
#167 = CARTESIAN_POINT ( 'NONE',  ( 0.0000000000000000000, 0.0000000000000000000, 0.2999999999999999889 ) ) ;
#168 = SURFACE_SIDE_STYLE ('',( #57 ) ) ;
#169 = CIRCLE ( 'NONE', #2, 0.09375000000000001388 ) ;
#170 = EDGE_CURVE ( 'NONE', #331, #193, #101, .T. ) ;
#171 = CARTESIAN_POINT ( 'NONE',  ( 0.0000000000000000000, 0.0000000000000000000, 0.0000000000000000000 ) ) ;
#172 = EDGE_CURVE ( 'NONE', #331, #210, #201, .T. ) ;
#173 = FACE_OUTER_BOUND ( 'NONE', #127, .T. ) ;
#174 = FACE_OUTER_BOUND ( 'NONE', #246, .T. ) ;
#175 = ORIENTED_EDGE ( 'NONE', *, *, #154, .T. ) ;
#176 = EDGE_CURVE ( 'NONE', #210, #213, #347, .T. ) ;
#177 = AXIS2_PLACEMENT_3D ( 'NONE', #167, #288, #285 ) ;
#178 = CYLINDRICAL_SURFACE ( 'NONE', #320, 0.04500000000000001221 ) ;
#179 = EDGE_CURVE ( 'NONE', #368, #14, #191, .T. ) ;
#180 = CARTESIAN_POINT ( 'NONE',  ( 0.0000000000000000000, 0.0000000000000000000, 2.000000000000000000 ) ) ;
#181 = DIRECTION ( 'NONE',  ( -0.0000000000000000000, -0.0000000000000000000, -1.000000000000000000 ) ) ;
#182 = ORIENTED_EDGE ( 'NONE', *, *, #198, .T. ) ;
#183 = EDGE_CURVE ( 'NONE', #6, #213, #79, .T. ) ;
#184 = AXIS2_PLACEMENT_3D ( 'NONE', #106, #215, #272 ) ;
#185 = DIRECTION ( 'NONE',  ( -1.000000000000000000, 0.0000000000000000000, 0.0000000000000000000 ) ) ;
#186 = ORIENTED_EDGE ( 'NONE', *, *, #172, .T. ) ;
#187 =( CONVERSION_BASED_UNIT ( 'INCH', #260 ) LENGTH_UNIT ( ) NAMED_UNIT ( #34 ) );
#188 = ADVANCED_FACE ( 'NONE', ( #174 ), #295, .T. ) ;
#189 = ORIENTED_EDGE ( 'NONE', *, *, #172, .F. ) ;
#190 = ORIENTED_EDGE ( 'NONE', *, *, #211, .T. ) ;
#191 = CIRCLE ( 'NONE', #240, 0.09375000000000002776 ) ;
#192 = PRESENTATION_LAYER_ASSIGNMENT (  '', '', ( #248 ) ) ;
#193 = VERTEX_POINT ( 'NONE', #125 ) ;
#194 = DIRECTION ( 'NONE',  ( -0.0000000000000000000, -0.0000000000000000000, -1.000000000000000000 ) ) ;
#195 = FACE_OUTER_BOUND ( 'NONE', #207, .T. ) ;
#196 = DIRECTION ( 'NONE',  ( 0.0000000000000000000, 0.0000000000000000000, -1.000000000000000000 ) ) ;
#197 = CIRCLE ( 'NONE', #184, 0.09375000000000001388 ) ;
#198 = EDGE_CURVE ( 'NONE', #51, #158, #337, .T. ) ;
#199 = ORIENTED_EDGE ( 'NONE', *, *, #198, .F. ) ;
#200 = DIRECTION ( 'NONE',  ( -0.7071067811865463515, 0.0000000000000000000, -0.7071067811865486830 ) ) ;
#201 = LINE ( 'NONE', #208, #144 ) ;
#202 = PRODUCT_DEFINITION ( 'UNKNOWN', '', #32, #13 ) ;
#203 = CONICAL_SURFACE ( 'NONE', #64, 0.07874999999999980627, 0.7853981633974466137 ) ;
#204 = PRESENTATION_LAYER_ASSIGNMENT (  '', '', ( #122 ) ) ;
#205 = LINE ( 'NONE', #59, #226 ) ;
#206 = DIRECTION ( 'NONE',  ( -1.000000000000000000, 0.0000000000000000000, 0.0000000000000000000 ) ) ;
#207 = EDGE_LOOP ( 'NONE', ( #266, #71 ) ) ;
#208 = CARTESIAN_POINT ( 'NONE',  ( 0.07874999999999980627, 9.644093543285380530E-18, 2.000000000000000000 ) ) ;
#209 = DIRECTION ( 'NONE',  ( -1.000000000000000000, 0.0000000000000000000, 0.0000000000000000000 ) ) ;
#210 = VERTEX_POINT ( 'NONE', #96 ) ;
#211 = EDGE_CURVE ( 'NONE', #336, #244, #169, .T. ) ;
#212 =( NAMED_UNIT ( * ) SI_UNIT ( $, .STERADIAN. ) SOLID_ANGLE_UNIT ( ) );
#213 = VERTEX_POINT ( 'NONE', #259 ) ;
#214 = ORIENTED_EDGE ( 'NONE', *, *, #84, .T. ) ;
#215 = DIRECTION ( 'NONE',  ( 0.0000000000000000000, 0.0000000000000000000, -1.000000000000000000 ) ) ;
#216 = ORIENTED_EDGE ( 'NONE', *, *, #46, .F. ) ;
#217 =( CONVERSION_BASED_UNIT ( 'INCH', #353 ) LENGTH_UNIT ( ) NAMED_UNIT ( #239 ) );
#218 = ORIENTED_EDGE ( 'NONE', *, *, #100, .T. ) ;
#219 = MANIFOLD_SOLID_BREP ( 'Cut-Revolve1', #47 ) ;
#220 = ORIENTED_EDGE ( 'NONE', *, *, #176, .T. ) ;
#221 = DIRECTION ( 'NONE',  ( -1.000000000000000000, 0.0000000000000000000, 0.0000000000000000000 ) ) ;
#222 = UNCERTAINTY_MEASURE_WITH_UNIT (LENGTH_MEASURE( 1.000000000000000082E-05 ), #217, 'distance_accuracy_value', 'NONE');
#223 = DIRECTION ( 'NONE',  ( -0.0000000000000000000, -0.0000000000000000000, -1.000000000000000000 ) ) ;
#224 = LINE ( 'NONE', #23, #139 ) ;
#225 = UNCERTAINTY_MEASURE_WITH_UNIT (LENGTH_MEASURE( 1.000000000000000082E-05 ), #75, 'distance_accuracy_value', 'NONE');
#226 = VECTOR ( 'NONE', #349, 39.37007874015748143 ) ;
#227 = DIRECTION ( 'NONE',  ( -0.0000000000000000000, -0.0000000000000000000, -1.000000000000000000 ) ) ;
#228 =( GEOMETRIC_REPRESENTATION_CONTEXT ( 3 ) GLOBAL_UNCERTAINTY_ASSIGNED_CONTEXT ( ( #73 ) ) GLOBAL_UNIT_ASSIGNED_CONTEXT ( ( #187, #351, #67 ) ) REPRESENTATION_CONTEXT ( 'NONE', 'WORKASPACE' ) );
#229 = CARTESIAN_POINT ( 'NONE',  ( -0.09375000000000001388, 0.0000000000000000000, 2.000000000000000000 ) ) ;
#230 = PRODUCT_RELATED_PRODUCT_CATEGORY ( 'part', '', ( #300 ) ) ;
#231 = APPLICATION_PROTOCOL_DEFINITION ( 'draft international standard', 'automotive_design', 1998, #278 ) ;
#232 = DIRECTION ( 'NONE',  ( -0.0000000000000000000, -0.0000000000000000000, -1.000000000000000000 ) ) ;
#233 = VECTOR ( 'NONE', #86, 39.37007874015748143 ) ;
#234 = CONICAL_SURFACE ( 'NONE', #95, 0.07874999999999980627, 0.7853981633974466137 ) ;
#235 = APPLICATION_PROTOCOL_DEFINITION ( 'draft international standard', 'automotive_design', 1998, #7 ) ;
#236 = CARTESIAN_POINT ( 'NONE',  ( 0.0000000000000000000, 0.0000000000000000000, 0.3487499999999997824 ) ) ;
#237 = DIRECTION ( 'NONE',  ( 0.0000000000000000000, 0.0000000000000000000, 1.000000000000000000 ) ) ;
#238 = CARTESIAN_POINT ( 'NONE',  ( 0.0000000000000000000, 0.0000000000000000000, 0.3487499999999997824 ) ) ;
#239 = DIMENSIONAL_EXPONENTS ( 1.000000000000000000, 0.0000000000000000000, 0.0000000000000000000, 0.0000000000000000000, 0.0000000000000000000, 0.0000000000000000000, 0.0000000000000000000 ) ;
#240 = AXIS2_PLACEMENT_3D ( 'NONE', #261, #325, #123 ) ;
#241 = ADVANCED_FACE ( 'NONE', ( #326 ), #178, .T. ) ;
#242 = EDGE_LOOP ( 'NONE', ( #175, #42, #80, #68 ) ) ;
#243 = CYLINDRICAL_SURFACE ( 'NONE', #296, 0.09375000000000001388 ) ;
#244 = VERTEX_POINT ( 'NONE', #159 ) ;
#245 = DIRECTION ( 'NONE',  ( -0.0000000000000000000, -0.0000000000000000000, -1.000000000000000000 ) ) ;
#246 = EDGE_LOOP ( 'NONE', ( #110, #103, #108, #190 ) ) ;
#247 = VECTOR ( 'NONE', #20, 39.37007874015748143 ) ;
#248 = STYLED_ITEM ( 'NONE', ( #374 ), #219 ) ;
#249 = ORIENTED_EDGE ( 'NONE', *, *, #35, .F. ) ;
#250 = ADVANCED_FACE ( 'NONE', ( #72 ), #243, .T. ) ;
#251 = ORIENTED_EDGE ( 'NONE', *, *, #162, .T. ) ;
#252 = DIRECTION ( 'NONE',  ( 0.7071067811865491270, 0.0000000000000000000, 0.7071067811865459074 ) ) ;
#253 = VECTOR ( 'NONE', #321, 39.37007874015748143 ) ;
#254 = FACE_BOUND ( 'NONE', #105, .T. ) ;
#255 = PLANE ( 'NONE',  #151 ) ;
#256 = DIRECTION ( 'NONE',  ( 0.0000000000000000000, 0.0000000000000000000, 1.000000000000000000 ) ) ;
#257 = DIRECTION ( 'NONE',  ( 1.000000000000000000, 0.0000000000000000000, -0.0000000000000000000 ) ) ;
#258 = CARTESIAN_POINT ( 'NONE',  ( 0.0000000000000000000, 0.0000000000000000000, 0.0000000000000000000 ) ) ;
#259 = CARTESIAN_POINT ( 'NONE',  ( 0.09375000000000001388, 1.148106374200643863E-17, 0.3487499999999997824 ) ) ;
#260 = LENGTH_MEASURE_WITH_UNIT ( LENGTH_MEASURE( 0.02539999999999999897 ), #342 );
#261 = CARTESIAN_POINT ( 'NONE',  ( 0.0000000000000000000, 0.0000000000000000000, 0.05000000000000000278 ) ) ;
#262 = VECTOR ( 'NONE', #142, 39.37007874015748143 ) ;
#263 = CARTESIAN_POINT ( 'NONE',  ( 0.0000000000000000000, 0.0000000000000000000, 2.000000000000000000 ) ) ;
#264 = FILL_AREA_STYLE_COLOUR ( '', #346 ) ;
#265 = DIRECTION ( 'NONE',  ( 1.000000000000000000, 0.0000000000000000000, 0.0000000000000000000 ) ) ;
#266 = ORIENTED_EDGE ( 'NONE', *, *, #334, .T. ) ;
#267 = AXIS2_PLACEMENT_3D ( 'NONE', #238, #232, #146 ) ;
#268 = DIRECTION ( 'NONE',  ( -0.0000000000000000000, -0.0000000000000000000, -1.000000000000000000 ) ) ;
#269 = EDGE_LOOP ( 'NONE', ( #189, #303, #81, #104 ) ) ;
#270 = DIRECTION ( 'NONE',  ( 0.0000000000000000000, 0.0000000000000000000, 1.000000000000000000 ) ) ;
#271 = EDGE_LOOP ( 'NONE', ( #199, #147, #317, #135 ) ) ;
#272 = DIRECTION ( 'NONE',  ( 1.000000000000000000, 0.0000000000000000000, 0.0000000000000000000 ) ) ;
#273 = VERTEX_POINT ( 'NONE', #298 ) ;
#274 = AXIS2_PLACEMENT_3D ( 'NONE', #322, #33, #206 ) ;
#275 = DIRECTION ( 'NONE',  ( 0.0000000000000000000, 0.0000000000000000000, 1.000000000000000000 ) ) ;
#276 = ORIENTED_EDGE ( 'NONE', *, *, #39, .F. ) ;
#277 = SURFACE_STYLE_USAGE ( .BOTH. , #138 ) ;
#278 = APPLICATION_CONTEXT ( 'automotive_design' ) ;
#279 = CARTESIAN_POINT ( 'NONE',  ( 0.0000000000000000000, 0.0000000000000000000, 1.984999999999999654 ) ) ;
#280 = DIRECTION ( 'NONE',  ( -1.000000000000000000, 0.0000000000000000000, 0.0000000000000000000 ) ) ;
#281 = EDGE_CURVE ( 'NONE', #244, #336, #41, .T. ) ;
#282 = DIRECTION ( 'NONE',  ( 1.000000000000000000, 0.0000000000000000000, 0.0000000000000000000 ) ) ;
#283 = AXIS2_PLACEMENT_3D ( 'NONE', #365, #340, #221 ) ;
#284 =( GEOMETRIC_REPRESENTATION_CONTEXT ( 3 ) GLOBAL_UNCERTAINTY_ASSIGNED_CONTEXT ( ( #225 ) ) GLOBAL_UNIT_ASSIGNED_CONTEXT ( ( #75, #363, #119 ) ) REPRESENTATION_CONTEXT ( 'NONE', 'WORKASPACE' ) );
#285 = DIRECTION ( 'NONE',  ( 1.000000000000000000, 0.0000000000000000000, 0.0000000000000000000 ) ) ;
#286 = LINE ( 'NONE', #24, #247 ) ;
#287 = DIRECTION ( 'NONE',  ( 0.0000000000000000000, 0.0000000000000000000, 1.000000000000000000 ) ) ;
#288 = DIRECTION ( 'NONE',  ( 0.0000000000000000000, 0.0000000000000000000, 1.000000000000000000 ) ) ;
#289 = PRODUCT_CONTEXT ( 'NONE', #7, 'mechanical' ) ;
#290 = AXIS2_PLACEMENT_3D ( 'NONE', #236, #297, #348 ) ;
#291 = COLOUR_RGB ( '',0.7921568627450980005, 0.8196078431372548767, 0.9333333333333333481 ) ;
#292 = SURFACE_STYLE_USAGE ( .BOTH. , #168 ) ;
#293 = DIRECTION ( 'NONE',  ( 1.000000000000000000, 0.0000000000000000000, 0.0000000000000000000 ) ) ;
#294 = CARTESIAN_POINT ( 'NONE',  ( 0.0000000000000000000, 0.0000000000000000000, 0.0000000000000000000 ) ) ;
#295 = CYLINDRICAL_SURFACE ( 'NONE', #94, 0.09375000000000001388 ) ;
#296 = AXIS2_PLACEMENT_3D ( 'NONE', #180, #299, #185 ) ;
#297 = DIRECTION ( 'NONE',  ( -0.0000000000000000000, -0.0000000000000000000, -1.000000000000000000 ) ) ;
#298 = CARTESIAN_POINT ( 'NONE',  ( -0.04500000000000000527, 0.0000000000000000000, 0.05000000000000000971 ) ) ;
#299 = DIRECTION ( 'NONE',  ( -0.0000000000000000000, -0.0000000000000000000, -1.000000000000000000 ) ) ;
#300 = PRODUCT ( 'Micro_KC-187-300-050', 'Micro_KC-187-300-050', '', ( #289 ) ) ;
#301 = EDGE_LOOP ( 'NONE', ( #182, #214, #44, #305 ) ) ;
#302 = AXIS2_PLACEMENT_3D ( 'NONE', #92, #102, #209 ) ;
#303 = ORIENTED_EDGE ( 'NONE', *, *, #334, .F. ) ;
#304 = DIRECTION ( 'NONE',  ( 1.000000000000000000, 0.0000000000000000000, 0.0000000000000000000 ) ) ;
#305 = ORIENTED_EDGE ( 'NONE', *, *, #37, .F. ) ;
#306 = PRESENTATION_STYLE_ASSIGNMENT (( #277 ) ) ;
#307 = ORIENTED_EDGE ( 'NONE', *, *, #176, .F. ) ;
#308 = AXIS2_PLACEMENT_3D ( 'NONE', #350, #29, #323 ) ;
#309 =( GEOMETRIC_REPRESENTATION_CONTEXT ( 3 ) GLOBAL_UNCERTAINTY_ASSIGNED_CONTEXT ( ( #222 ) ) GLOBAL_UNIT_ASSIGNED_CONTEXT ( ( #217, #361, #212 ) ) REPRESENTATION_CONTEXT ( 'NONE', 'WORKASPACE' ) );
#310 = ORIENTED_EDGE ( 'NONE', *, *, #63, .T. ) ;
#311 = ADVANCED_FACE ( 'NONE', ( #129 ), #327, .T. ) ;
#312 = CARTESIAN_POINT ( 'NONE',  ( 0.0000000000000000000, 0.0000000000000000000, 0.05000000000000000971 ) ) ;
#313 = CARTESIAN_POINT ( 'NONE',  ( -0.04500000000000003303, 8.495987169084765633E-18, 0.2999999999999999889 ) ) ;
#314 = PRODUCT_DEFINITION_SHAPE ( 'NONE', 'NONE',  #202 ) ;
#315 = CONICAL_SURFACE ( 'NONE', #87, 0.04500000000000003303, 0.7853981633974506105 ) ;
#316 = CARTESIAN_POINT ( 'NONE',  ( 0.09375000000000002776, 0.0000000000000000000, 0.05000000000000000971 ) ) ;
#317 = ORIENTED_EDGE ( 'NONE', *, *, #183, .T. ) ;
#318 = DIRECTION ( 'NONE',  ( -1.000000000000000000, 0.0000000000000000000, 0.0000000000000000000 ) ) ;
#319 = CIRCLE ( 'NONE', #165, 0.04500000000000000527 ) ;
#320 = AXIS2_PLACEMENT_3D ( 'NONE', #131, #181, #66 ) ;
#321 = DIRECTION ( 'NONE',  ( -0.0000000000000000000, -0.0000000000000000000, -1.000000000000000000 ) ) ;
#322 = CARTESIAN_POINT ( 'NONE',  ( 0.0000000000000000000, 0.0000000000000000000, 2.000000000000000000 ) ) ;
#323 = DIRECTION ( 'NONE',  ( 1.000000000000000000, 0.0000000000000000000, 0.0000000000000000000 ) ) ;
#324 = ORIENTED_EDGE ( 'NONE', *, *, #37, .T. ) ;
#325 = DIRECTION ( 'NONE',  ( -0.0000000000000000000, -0.0000000000000000000, -1.000000000000000000 ) ) ;
#326 = FACE_OUTER_BOUND ( 'NONE', #328, .T. ) ;
#327 = CYLINDRICAL_SURFACE ( 'NONE', #22, 0.09375000000000001388 ) ;
#328 = EDGE_LOOP ( 'NONE', ( #130, #360, #324, #335 ) ) ;
#329 = AXIS2_PLACEMENT_3D ( 'NONE', #43, #270, #265 ) ;
#330 = FACE_OUTER_BOUND ( 'NONE', #269, .T. ) ;
#331 = VERTEX_POINT ( 'NONE', #40 ) ;
#332 = FILL_AREA_STYLE ('',( #82 ) ) ;
#333 = CARTESIAN_POINT ( 'NONE',  ( -0.09375000000000001388, 0.0000000000000000000, 1.984999999999999654 ) ) ;
#334 = EDGE_CURVE ( 'NONE', #193, #331, #27, .T. ) ;
#335 = ORIENTED_EDGE ( 'NONE', *, *, #100, .F. ) ;
#336 = VERTEX_POINT ( 'NONE', #38 ) ;
#337 = CIRCLE ( 'NONE', #302, 0.04500000000000003303 ) ;
#338 = DIRECTION ( 'NONE',  ( -0.0000000000000000000, -0.0000000000000000000, -1.000000000000000000 ) ) ;
#339 = CARTESIAN_POINT ( 'NONE',  ( 0.04500000000000000527, 5.510910596163090326E-18, 0.05000000000000000971 ) ) ;
#340 = DIRECTION ( 'NONE',  ( -0.0000000000000000000, -0.0000000000000000000, -1.000000000000000000 ) ) ;
#341 = DIRECTION ( 'NONE',  ( 1.000000000000000000, 0.0000000000000000000, 0.0000000000000000000 ) ) ;
#342 =( LENGTH_UNIT ( ) NAMED_UNIT ( * ) SI_UNIT ( $, .METRE. ) );
#343 = SHAPE_DEFINITION_REPRESENTATION ( #314, #97 ) ;
#344 = CIRCLE ( 'NONE', #58, 0.09375000000000001388 ) ;
#345 = CIRCLE ( 'NONE', #267, 0.09375000000000001388 ) ;
#346 = COLOUR_RGB ( '',0.7921568627450980005, 0.8196078431372548767, 0.9333333333333333481 ) ;
#347 = LINE ( 'NONE', #61, #253 ) ;
#348 = DIRECTION ( 'NONE',  ( 1.000000000000000000, 0.0000000000000000000, 0.0000000000000000000 ) ) ;
#349 = DIRECTION ( 'NONE',  ( -0.0000000000000000000, -0.0000000000000000000, -1.000000000000000000 ) ) ;
#350 = CARTESIAN_POINT ( 'NONE',  ( 0.0000000000000000000, 0.0000000000000000000, 2.000000000000000000 ) ) ;
#351 =( NAMED_UNIT ( * ) PLANE_ANGLE_UNIT ( ) SI_UNIT ( $, .RADIAN. ) );
#352 = ORIENTED_EDGE ( 'NONE', *, *, #154, .F. ) ;
#353 = LENGTH_MEASURE_WITH_UNIT ( LENGTH_MEASURE( 0.02539999999999999897 ), #4 );
#354 = ADVANCED_FACE ( 'NONE', ( #157 ), #152, .T. ) ;
#355 = ORIENTED_EDGE ( 'NONE', *, *, #179, .F. ) ;
#356 = EDGE_CURVE ( 'NONE', #210, #362, #197, .T. ) ;
#357 = CARTESIAN_POINT ( 'NONE',  ( 0.0000000000000000000, 0.0000000000000000000, 0.0000000000000000000 ) ) ;
#358 = EDGE_LOOP ( 'NONE', ( #352, #355 ) ) ;
#359 = VECTOR ( 'NONE', #338, 39.37007874015748143 ) ;
#360 = ORIENTED_EDGE ( 'NONE', *, *, #35, .T. ) ;
#361 =( NAMED_UNIT ( * ) PLANE_ANGLE_UNIT ( ) SI_UNIT ( $, .RADIAN. ) );
#362 = VERTEX_POINT ( 'NONE', #333 ) ;
#363 =( NAMED_UNIT ( * ) PLANE_ANGLE_UNIT ( ) SI_UNIT ( $, .RADIAN. ) );
#364 = DIRECTION ( 'NONE',  ( 1.000000000000000000, 0.0000000000000000000, 0.0000000000000000000 ) ) ;
#365 = CARTESIAN_POINT ( 'NONE',  ( 0.0000000000000000000, 0.0000000000000000000, 0.2999999999999999889 ) ) ;
#366 = FACE_OUTER_BOUND ( 'NONE', #133, .T. ) ;
#367 = CARTESIAN_POINT ( 'NONE',  ( 0.04500000000000003303, 0.0000000000000000000, 0.2999999999999999889 ) ) ;
#368 = VERTEX_POINT ( 'NONE', #12 ) ;
#369 = AXIS2_PLACEMENT_3D ( 'NONE', #30, #378, #377 ) ;
#370 = MECHANICAL_DESIGN_GEOMETRIC_PRESENTATION_REPRESENTATION (  '', ( #248 ), #228 ) ;
#371 = FACE_OUTER_BOUND ( 'NONE', #358, .T. ) ;
#372 = FACE_OUTER_BOUND ( 'NONE', #17, .T. ) ;
#373 = ADVANCED_FACE ( 'NONE', ( #330 ), #234, .T. ) ;
#374 = PRESENTATION_STYLE_ASSIGNMENT (( #292 ) ) ;
#375 = CIRCLE ( 'NONE', #283, 0.04500000000000003303 ) ;
#376 = AXIS2_PLACEMENT_3D ( 'NONE', #258, #287, #282 ) ;
#377 = DIRECTION ( 'NONE',  ( -1.000000000000000000, 0.0000000000000000000, 0.0000000000000000000 ) ) ;
#378 = DIRECTION ( 'NONE',  ( -0.0000000000000000000, -0.0000000000000000000, -1.000000000000000000 ) ) ;
#379 = PLANE ( 'NONE',  #26 ) ;
ENDSEC;
END-ISO-10303-21;
