ISO-10303-21;
HEADER;
FILE_DESCRIPTION (( 'STEP AP214' ),
    '1' );
FILE_NAME ('Micro_RMEM-019-2X.STEP',
    '2021-09-02T00:19:55',
    ( '' ),
    ( '' ),
    'SwSTEP 2.0',
    'SolidWorks 2020',
    '' );
FILE_SCHEMA (( 'AUTOMOTIVE_DESIGN' ));
ENDSEC;

DATA;
#1 = FACE_OUTER_BOUND ( 'NONE', #31, .T. ) ;
#2 = VECTOR ( 'NONE', #283, 39.37007874015748143 ) ;
#3 =( NAMED_UNIT ( * ) PLANE_ANGLE_UNIT ( ) SI_UNIT ( $, .RADIAN. ) );
#4 = CARTESIAN_POINT ( 'NONE',  ( 0.0000000000000000000, 0.0000000000000000000, 0.0000000000000000000 ) ) ;
#5 = FACE_OUTER_BOUND ( 'NONE', #38, .T. ) ;
#6 = CONICAL_SURFACE ( 'NONE', #169, 0.03736409849999999810, 0.1745329251994338915 ) ;
#7 =( CONVERSION_BASED_UNIT ( 'INCH', #190 ) LENGTH_UNIT ( ) NAMED_UNIT ( #286 ) );
#8 = ORIENTED_EDGE ( 'NONE', *, *, #40, .T. ) ;
#9 = DIRECTION ( 'NONE',  ( -0.0000000000000000000, -0.0000000000000000000, -1.000000000000000000 ) ) ;
#10 = CIRCLE ( 'NONE', #95, 0.05905500000000000332 ) ;
#11 = MECHANICAL_DESIGN_GEOMETRIC_PRESENTATION_REPRESENTATION (  '', ( #272 ), #199 ) ;
#12 = CARTESIAN_POINT ( 'NONE',  ( 0.04405499999999973326, 6.313666573004162521E-18, 1.496062999999999921 ) ) ;
#13 = PRODUCT_RELATED_PRODUCT_CATEGORY ( 'part', '', ( #207 ) ) ;
#14 = EDGE_CURVE ( 'NONE', #24, #268, #72, .T. ) ;
#15 = CYLINDRICAL_SURFACE ( 'NONE', #127, 0.05905500000000000332 ) ;
#16 = ORIENTED_EDGE ( 'NONE', *, *, #232, .F. ) ;
#17 = DIRECTION ( 'NONE',  ( -0.1736481776669311916, 2.126576849575783316E-17, 0.9848077530122080203 ) ) ;
#18 = CARTESIAN_POINT ( 'NONE',  ( 0.05905500000000004496, 7.232151672364700045E-18, 0.3474242153280678314 ) ) ;
#19 = ORIENTED_EDGE ( 'NONE', *, *, #28, .F. ) ;
#20 =( NAMED_UNIT ( * ) PLANE_ANGLE_UNIT ( ) SI_UNIT ( $, .RADIAN. ) );
#21 = AXIS2_PLACEMENT_3D ( 'NONE', #162, #260, #50 ) ;
#22 = DIRECTION ( 'NONE',  ( -0.0000000000000000000, -0.0000000000000000000, -1.000000000000000000 ) ) ;
#23 = DIRECTION ( 'NONE',  ( 0.0000000000000000000, 0.0000000000000000000, -1.000000000000000000 ) ) ;
#24 = VERTEX_POINT ( 'NONE', #120 ) ;
#25 = ORIENTED_EDGE ( 'NONE', *, *, #89, .T. ) ;
#26 = CARTESIAN_POINT ( 'NONE',  ( 0.0000000000000000000, 0.0000000000000000000, 1.496062999999999921 ) ) ;
#27 = CARTESIAN_POINT ( 'NONE',  ( 5.603717224571623841E-34, 0.0000000000000000000, 4.575782363105141468E-18 ) ) ;
#28 = EDGE_CURVE ( 'NONE', #82, #222, #98, .T. ) ;
#29 = CARTESIAN_POINT ( 'NONE',  ( 0.0000000000000000000, 0.0000000000000000000, 0.0000000000000000000 ) ) ;
#30 = CARTESIAN_POINT ( 'NONE',  ( 0.04405499999999973326, 5.395181473643630390E-18, 1.496062999999999921 ) ) ;
#31 = EDGE_LOOP ( 'NONE', ( #264, #121, #255, #194 ) ) ;
#32 = DIRECTION ( 'NONE',  ( -1.000000000000000000, 0.0000000000000000000, 0.0000000000000000000 ) ) ;
#33 = ADVANCED_FACE ( 'NONE', ( #239 ), #79, .T. ) ;
#34 = DIRECTION ( 'NONE',  ( -1.224646799147353207E-16, -0.0000000000000000000, -1.000000000000000000 ) ) ;
#35 = ORIENTED_EDGE ( 'NONE', *, *, #70, .F. ) ;
#36 = VECTOR ( 'NONE', #221, 39.37007874015748143 ) ;
#37 = ORIENTED_EDGE ( 'NONE', *, *, #279, .F. ) ;
#38 = EDGE_LOOP ( 'NONE', ( #83, #8, #77, #170 ) ) ;
#39 = CARTESIAN_POINT ( 'NONE',  ( -0.03736409849999999810, 0.0000000000000000000, 9.151564726210282937E-18 ) ) ;
#40 = EDGE_CURVE ( 'NONE', #24, #105, #126, .T. ) ;
#41 = AXIS2_PLACEMENT_3D ( 'NONE', #150, #243, #287 ) ;
#42 = DIRECTION ( 'NONE',  ( 1.000000000000000000, 0.0000000000000000000, 0.0000000000000000000 ) ) ;
#43 = EDGE_LOOP ( 'NONE', ( #166, #146 ) ) ;
#44 = DIRECTION ( 'NONE',  ( 0.0000000000000000000, 0.0000000000000000000, 1.000000000000000000 ) ) ;
#45 = ADVANCED_FACE ( 'NONE', ( #253 ), #223, .T. ) ;
#46 = VERTEX_POINT ( 'NONE', #292 ) ;
#47 =( LENGTH_UNIT ( ) NAMED_UNIT ( * ) SI_UNIT ( $, .METRE. ) );
#48 = AXIS2_PLACEMENT_3D ( 'NONE', #158, #178, #233 ) ;
#49 = ADVANCED_FACE ( 'NONE', ( #88 ), #94, .T. ) ;
#50 = DIRECTION ( 'NONE',  ( 1.000000000000000000, 0.0000000000000000000, 0.0000000000000000000 ) ) ;
#51 = FILL_AREA_STYLE ('',( #119 ) ) ;
#52 =( GEOMETRIC_REPRESENTATION_CONTEXT ( 3 ) GLOBAL_UNCERTAINTY_ASSIGNED_CONTEXT ( ( #200 ) ) GLOBAL_UNIT_ASSIGNED_CONTEXT ( ( #106, #20, #274 ) ) REPRESENTATION_CONTEXT ( 'NONE', 'WORKASPACE' ) );
#53 = EDGE_CURVE ( 'NONE', #222, #105, #107, .T. ) ;
#54 = DIRECTION ( 'NONE',  ( 1.224646799147353207E-16, 0.0000000000000000000, 1.000000000000000000 ) ) ;
#55 = PRODUCT_DEFINITION_FORMATION_WITH_SPECIFIED_SOURCE ( 'ANY', '', #207, .NOT_KNOWN. ) ;
#56 = EDGE_CURVE ( 'NONE', #46, #222, #10, .T. ) ;
#57 = ORIENTED_EDGE ( 'NONE', *, *, #75, .F. ) ;
#58 = UNCERTAINTY_MEASURE_WITH_UNIT (LENGTH_MEASURE( 1.000000000000000082E-05 ), #154, 'distance_accuracy_value', 'NONE');
#59 = AXIS2_PLACEMENT_3D ( 'NONE', #63, #131, #155 ) ;
#60 =( GEOMETRIC_REPRESENTATION_CONTEXT ( 3 ) GLOBAL_UNCERTAINTY_ASSIGNED_CONTEXT ( ( #84 ) ) GLOBAL_UNIT_ASSIGNED_CONTEXT ( ( #7, #3, #96 ) ) REPRESENTATION_CONTEXT ( 'NONE', 'WORKASPACE' ) );
#61 = FACE_OUTER_BOUND ( 'NONE', #246, .T. ) ;
#62 = DIRECTION ( 'NONE',  ( 1.000000000000000000, 0.0000000000000000000, -0.0000000000000000000 ) ) ;
#63 = CARTESIAN_POINT ( 'NONE',  ( 0.0000000000000000000, 0.0000000000000000000, 1.496062999999999921 ) ) ;
#64 = CARTESIAN_POINT ( 'NONE',  ( 0.03736409850000002586, 0.0000000000000000000, 0.2244089999999999974 ) ) ;
#65 = CARTESIAN_POINT ( 'NONE',  ( 0.0000000000000000000, 0.0000000000000000000, 1.496062999999999921 ) ) ;
#66 = DIRECTION ( 'NONE',  ( -1.224646799147353207E-16, -0.0000000000000000000, -1.000000000000000000 ) ) ;
#67 = DIRECTION ( 'NONE',  ( 0.1736481776669313859, 0.0000000000000000000, 0.9848077530122077983 ) ) ;
#68 = AXIS2_PLACEMENT_3D ( 'NONE', #242, #34, #179 ) ;
#69 = SHAPE_DEFINITION_REPRESENTATION ( #102, #181 ) ;
#70 = EDGE_CURVE ( 'NONE', #46, #97, #228, .T. ) ;
#71 = DIRECTION ( 'NONE',  ( 1.000000000000000000, 0.0000000000000000000, 0.0000000000000000000 ) ) ;
#72 = CIRCLE ( 'NONE', #234, 0.03736409849999999810 ) ;
#73 = CARTESIAN_POINT ( 'NONE',  ( 2.748217635498583829E-17, 0.0000000000000000000, 0.2244089999999999974 ) ) ;
#74 = EDGE_CURVE ( 'NONE', #268, #24, #216, .T. ) ;
#75 = EDGE_CURVE ( 'NONE', #244, #290, #191, .T. ) ;
#76 = ORIENTED_EDGE ( 'NONE', *, *, #28, .T. ) ;
#77 = ORIENTED_EDGE ( 'NONE', *, *, #284, .T. ) ;
#78 = DIMENSIONAL_EXPONENTS ( 1.000000000000000000, 0.0000000000000000000, 0.0000000000000000000, 0.0000000000000000000, 0.0000000000000000000, 0.0000000000000000000, 0.0000000000000000000 ) ;
#79 = CYLINDRICAL_SURFACE ( 'NONE', #151, 0.03736409849999999810 ) ;
#80 = EDGE_LOOP ( 'NONE', ( #16, #117, #37, #19 ) ) ;
#81 = ORIENTED_EDGE ( 'NONE', *, *, #141, .T. ) ;
#82 = VERTEX_POINT ( 'NONE', #245 ) ;
#83 = ORIENTED_EDGE ( 'NONE', *, *, #14, .F. ) ;
#84 = UNCERTAINTY_MEASURE_WITH_UNIT (LENGTH_MEASURE( 1.000000000000000082E-05 ), #7, 'distance_accuracy_value', 'NONE');
#85 = DIRECTION ( 'NONE',  ( 0.0000000000000000000, 0.0000000000000000000, 1.000000000000000000 ) ) ;
#86 = COLOUR_RGB ( '',0.7921568627450980005, 0.8196078431372548767, 0.9333333333333333481 ) ;
#87 = DIRECTION ( 'NONE',  ( -1.000000000000000000, 0.0000000000000000000, 0.0000000000000000000 ) ) ;
#88 = FACE_OUTER_BOUND ( 'NONE', #80, .T. ) ;
#89 = EDGE_CURVE ( 'NONE', #82, #171, #160, .T. ) ;
#90 = ORIENTED_EDGE ( 'NONE', *, *, #288, .T. ) ;
#91 = FACE_OUTER_BOUND ( 'NONE', #193, .T. ) ;
#92 = DIRECTION ( 'NONE',  ( -1.000000000000000000, 0.0000000000000000000, 0.0000000000000000000 ) ) ;
#93 = DIRECTION ( 'NONE',  ( 1.000000000000000000, 0.0000000000000000000, 0.0000000000000000000 ) ) ;
#94 = CONICAL_SURFACE ( 'NONE', #59, 0.04405499999999973326, 0.7853981633974491672 ) ;
#95 = AXIS2_PLACEMENT_3D ( 'NONE', #114, #269, #197 ) ;
#96 =( NAMED_UNIT ( * ) SI_UNIT ( $, .STERADIAN. ) SOLID_ANGLE_UNIT ( ) );
#97 = VERTEX_POINT ( 'NONE', #18 ) ;
#98 = LINE ( 'NONE', #267, #165 ) ;
#99 = ORIENTED_EDGE ( 'NONE', *, *, #74, .F. ) ;
#100 = DIRECTION ( 'NONE',  ( 1.224646799147353207E-16, 0.0000000000000000000, 1.000000000000000000 ) ) ;
#101 = DIMENSIONAL_EXPONENTS ( 1.000000000000000000, 0.0000000000000000000, 0.0000000000000000000, 0.0000000000000000000, 0.0000000000000000000, 0.0000000000000000000, 0.0000000000000000000 ) ;
#102 = PRODUCT_DEFINITION_SHAPE ( 'NONE', 'NONE',  #227 ) ;
#103 = CARTESIAN_POINT ( 'NONE',  ( -0.05905500000000000332, 0.0000000000000000000, 1.481062999999999574 ) ) ;
#104 = DIRECTION ( 'NONE',  ( -1.000000000000000000, 0.0000000000000000000, 0.0000000000000000000 ) ) ;
#105 = VERTEX_POINT ( 'NONE', #278 ) ;
#106 =( CONVERSION_BASED_UNIT ( 'INCH', #111 ) LENGTH_UNIT ( ) NAMED_UNIT ( #78 ) );
#107 = LINE ( 'NONE', #180, #36 ) ;
#108 = PRESENTATION_LAYER_ASSIGNMENT (  '', '', ( #241 ) ) ;
#109 = AXIS2_PLACEMENT_3D ( 'NONE', #293, #85, #42 ) ;
#110 = FILL_AREA_STYLE ('',( #229 ) ) ;
#111 = LENGTH_MEASURE_WITH_UNIT ( LENGTH_MEASURE( 0.02539999999999999897 ), #297 );
#112 = ORIENTED_EDGE ( 'NONE', *, *, #124, .T. ) ;
#113 = FACE_OUTER_BOUND ( 'NONE', #291, .T. ) ;
#114 = CARTESIAN_POINT ( 'NONE',  ( 0.0000000000000000000, 0.0000000000000000000, 1.481062999999999574 ) ) ;
#115 = DIRECTION ( 'NONE',  ( -1.000000000000000000, 0.0000000000000000000, 1.224646799147353207E-16 ) ) ;
#116 = ADVANCED_FACE ( 'NONE', ( #61 ), #15, .T. ) ;
#117 = ORIENTED_EDGE ( 'NONE', *, *, #130, .T. ) ;
#118 = CIRCLE ( 'NONE', #68, 0.05905500000000000332 ) ;
#119 = FILL_AREA_STYLE_COLOUR ( '', #192 ) ;
#120 = CARTESIAN_POINT ( 'NONE',  ( -0.03736409849999997035, 5.903967017734917675E-18, 0.2244089999999999974 ) ) ;
#121 = ORIENTED_EDGE ( 'NONE', *, *, #74, .T. ) ;
#122 = VECTOR ( 'NONE', #153, 39.37007874015748143 ) ;
#123 = DIRECTION ( 'NONE',  ( 0.0000000000000000000, 0.0000000000000000000, 1.000000000000000000 ) ) ;
#124 = EDGE_CURVE ( 'NONE', #268, #97, #204, .T. ) ;
#125 = ORIENTED_EDGE ( 'NONE', *, *, #284, .F. ) ;
#126 = LINE ( 'NONE', #129, #198 ) ;
#127 = AXIS2_PLACEMENT_3D ( 'NONE', #211, #9, #32 ) ;
#128 = ORIENTED_EDGE ( 'NONE', *, *, #53, .T. ) ;
#129 = CARTESIAN_POINT ( 'NONE',  ( -0.03736409849999997035, 4.575782363105141468E-18, 0.2244089999999999974 ) ) ;
#130 = EDGE_CURVE ( 'NONE', #171, #46, #186, .T. ) ;
#131 = DIRECTION ( 'NONE',  ( 0.0000000000000000000, 0.0000000000000000000, -1.000000000000000000 ) ) ;
#132 = DIRECTION ( 'NONE',  ( 1.000000000000000000, 0.0000000000000000000, -0.0000000000000000000 ) ) ;
#133 = CIRCLE ( 'NONE', #217, 0.05905500000000000332 ) ;
#134 = LENGTH_MEASURE_WITH_UNIT ( LENGTH_MEASURE( 0.02539999999999999897 ), #231 );
#135 = SURFACE_STYLE_FILL_AREA ( #110 ) ;
#136 = PLANE ( 'NONE',  #144 ) ;
#137 = APPLICATION_PROTOCOL_DEFINITION ( 'draft international standard', 'automotive_design', 1998, #164 ) ;
#138 = PRESENTATION_STYLE_ASSIGNMENT (( #282 ) ) ;
#139 = CONICAL_SURFACE ( 'NONE', #258, 0.04405499999999973326, 0.7853981633974491672 ) ;
#140 = CYLINDRICAL_SURFACE ( 'NONE', #177, 0.03736409849999999810 ) ;
#141 = EDGE_CURVE ( 'NONE', #97, #105, #147, .T. ) ;
#142 = DIRECTION ( 'NONE',  ( -1.224646799147353207E-16, -0.0000000000000000000, -1.000000000000000000 ) ) ;
#143 = LINE ( 'NONE', #225, #254 ) ;
#144 = AXIS2_PLACEMENT_3D ( 'NONE', #256, #123, #132 ) ;
#145 = DIRECTION ( 'NONE',  ( -0.7071067811865482389, 0.0000000000000000000, -0.7071067811865469066 ) ) ;
#146 = ORIENTED_EDGE ( 'NONE', *, *, #187, .T. ) ;
#147 = CIRCLE ( 'NONE', #21, 0.05905500000000000332 ) ;
#148 = EDGE_CURVE ( 'NONE', #24, #244, #143, .T. ) ;
#149 = ADVANCED_FACE ( 'NONE', ( #5 ), #6, .T. ) ;
#150 = CARTESIAN_POINT ( 'NONE',  ( 5.603717224571623841E-34, 0.0000000000000000000, 4.575782363105141468E-18 ) ) ;
#151 = AXIS2_PLACEMENT_3D ( 'NONE', #168, #195, #182 ) ;
#152 = DIRECTION ( 'NONE',  ( -1.224646799147353207E-16, -0.0000000000000000000, -1.000000000000000000 ) ) ;
#153 = DIRECTION ( 'NONE',  ( -0.0000000000000000000, -0.0000000000000000000, -1.000000000000000000 ) ) ;
#154 =( CONVERSION_BASED_UNIT ( 'INCH', #134 ) LENGTH_UNIT ( ) NAMED_UNIT ( #101 ) );
#155 = DIRECTION ( 'NONE',  ( -1.000000000000000000, 0.0000000000000000000, 0.0000000000000000000 ) ) ;
#156 = AXIS2_PLACEMENT_3D ( 'NONE', #266, #54, #218 ) ;
#157 = ORIENTED_EDGE ( 'NONE', *, *, #56, .F. ) ;
#158 = CARTESIAN_POINT ( 'NONE',  ( 0.0000000000000000000, 0.0000000000000000000, 1.496062999999999921 ) ) ;
#159 = ADVANCED_FACE ( 'NONE', ( #167 ), #208, .T. ) ;
#160 = CIRCLE ( 'NONE', #48, 0.04405499999999973326 ) ;
#161 = CIRCLE ( 'NONE', #109, 0.04405499999999973326 ) ;
#162 = CARTESIAN_POINT ( 'NONE',  ( 4.254719532477991004E-17, 0.0000000000000000000, 0.3474242153280678314 ) ) ;
#163 = PRODUCT_CONTEXT ( 'NONE', #189, 'mechanical' ) ;
#164 = APPLICATION_CONTEXT ( 'automotive_design' ) ;
#165 = VECTOR ( 'NONE', #145, 39.37007874015748143 ) ;
#166 = ORIENTED_EDGE ( 'NONE', *, *, #75, .T. ) ;
#167 = FACE_OUTER_BOUND ( 'NONE', #296, .T. ) ;
#168 = CARTESIAN_POINT ( 'NONE',  ( 0.0000000000000000000, 0.0000000000000000000, 0.0000000000000000000 ) ) ;
#169 = AXIS2_PLACEMENT_3D ( 'NONE', #73, #100, #215 ) ;
#170 = ORIENTED_EDGE ( 'NONE', *, *, #124, .F. ) ;
#171 = VERTEX_POINT ( 'NONE', #12 ) ;
#172 = PRODUCT_DEFINITION_CONTEXT ( 'detailed design', #164, 'design' ) ;
#173 = CARTESIAN_POINT ( 'NONE',  ( 0.05905500000000000332, 7.232151672364695422E-18, 1.496062999999999921 ) ) ;
#174 = ORIENTED_EDGE ( 'NONE', *, *, #232, .T. ) ;
#175 = CARTESIAN_POINT ( 'NONE',  ( 0.03736409849999999810, 4.575782363105141468E-18, -4.575782363105141468E-18 ) ) ;
#176 = CARTESIAN_POINT ( 'NONE',  ( 0.0000000000000000000, 0.0000000000000000000, 1.496062999999999921 ) ) ;
#177 = AXIS2_PLACEMENT_3D ( 'NONE', #29, #66, #115 ) ;
#178 = DIRECTION ( 'NONE',  ( 0.0000000000000000000, 0.0000000000000000000, 1.000000000000000000 ) ) ;
#179 = DIRECTION ( 'NONE',  ( 1.000000000000000000, 0.0000000000000000000, 0.0000000000000000000 ) ) ;
#180 = CARTESIAN_POINT ( 'NONE',  ( -0.05905500000000000332, 0.0000000000000000000, 1.496062999999999921 ) ) ;
#181 = ADVANCED_BREP_SHAPE_REPRESENTATION ( 'Micro_RMEM-019-2X', ( #259, #281 ), #52 ) ;
#182 = DIRECTION ( 'NONE',  ( -1.000000000000000000, 0.0000000000000000000, 1.224646799147353207E-16 ) ) ;
#183 = VECTOR ( 'NONE', #299, 39.37007874015748143 ) ;
#184 = LINE ( 'NONE', #175, #183 ) ;
#185 = CARTESIAN_POINT ( 'NONE',  ( 2.748217635498583829E-17, 0.0000000000000000000, 0.2244089999999999974 ) ) ;
#186 = LINE ( 'NONE', #30, #2 ) ;
#187 = EDGE_CURVE ( 'NONE', #290, #244, #285, .T. ) ;
#188 = CARTESIAN_POINT ( 'NONE',  ( 0.03736409850000002586, 0.0000000000000000000, 0.2244089999999999974 ) ) ;
#189 = APPLICATION_CONTEXT ( 'automotive_design' ) ;
#190 = LENGTH_MEASURE_WITH_UNIT ( LENGTH_MEASURE( 0.02539999999999999897 ), #47 );
#191 = CIRCLE ( 'NONE', #262, 0.03736409849999999810 ) ;
#192 = COLOUR_RGB ( '',0.7921568627450980005, 0.8196078431372548767, 0.9333333333333333481 ) ;
#193 = EDGE_LOOP ( 'NONE', ( #249, #210, #76, #157 ) ) ;
#194 = ORIENTED_EDGE ( 'NONE', *, *, #187, .F. ) ;
#195 = DIRECTION ( 'NONE',  ( -1.224646799147353207E-16, -0.0000000000000000000, -1.000000000000000000 ) ) ;
#196 = EDGE_LOOP ( 'NONE', ( #35, #270, #128, #295 ) ) ;
#197 = DIRECTION ( 'NONE',  ( 1.000000000000000000, 0.0000000000000000000, 0.0000000000000000000 ) ) ;
#198 = VECTOR ( 'NONE', #17, 39.37007874015747433 ) ;
#199 =( GEOMETRIC_REPRESENTATION_CONTEXT ( 3 ) GLOBAL_UNCERTAINTY_ASSIGNED_CONTEXT ( ( #58 ) ) GLOBAL_UNIT_ASSIGNED_CONTEXT ( ( #154, #271, #277 ) ) REPRESENTATION_CONTEXT ( 'NONE', 'WORKASPACE' ) );
#200 = UNCERTAINTY_MEASURE_WITH_UNIT (LENGTH_MEASURE( 1.000000000000000082E-05 ), #106, 'distance_accuracy_value', 'NONE');
#201 = PLANE ( 'NONE',  #203 ) ;
#202 = ADVANCED_FACE ( 'NONE', ( #1 ), #140, .T. ) ;
#203 = AXIS2_PLACEMENT_3D ( 'NONE', #65, #230, #62 ) ;
#204 = LINE ( 'NONE', #188, #280 ) ;
#205 = APPLICATION_PROTOCOL_DEFINITION ( 'draft international standard', 'automotive_design', 1998, #189 ) ;
#206 = FACE_OUTER_BOUND ( 'NONE', #43, .T. ) ;
#207 = PRODUCT ( 'Micro_RMEM-019-2X', 'Micro_RMEM-019-2X', '', ( #163 ) ) ;
#208 = CONICAL_SURFACE ( 'NONE', #156, 0.03736409849999999810, 0.1745329251994338915 ) ;
#209 = SURFACE_SIDE_STYLE ('',( #237 ) ) ;
#210 = ORIENTED_EDGE ( 'NONE', *, *, #89, .F. ) ;
#211 = CARTESIAN_POINT ( 'NONE',  ( 0.0000000000000000000, 0.0000000000000000000, 1.496062999999999921 ) ) ;
#212 = ORIENTED_EDGE ( 'NONE', *, *, #148, .F. ) ;
#213 = ORIENTED_EDGE ( 'NONE', *, *, #40, .F. ) ;
#214 = ADVANCED_FACE ( 'NONE', ( #206 ), #136, .F. ) ;
#215 = DIRECTION ( 'NONE',  ( 1.000000000000000000, 0.0000000000000000000, 0.0000000000000000000 ) ) ;
#216 = CIRCLE ( 'NONE', #247, 0.03736409849999999810 ) ;
#217 = AXIS2_PLACEMENT_3D ( 'NONE', #226, #23, #93 ) ;
#218 = DIRECTION ( 'NONE',  ( 1.000000000000000000, 0.0000000000000000000, 0.0000000000000000000 ) ) ;
#219 = DIRECTION ( 'NONE',  ( -1.224646799147353207E-16, -0.0000000000000000000, -1.000000000000000000 ) ) ;
#220 = CLOSED_SHELL ( 'NONE', ( #33, #149, #49, #116, #45, #263, #238, #159, #202, #214 ) ) ;
#221 = DIRECTION ( 'NONE',  ( -0.0000000000000000000, -0.0000000000000000000, -1.000000000000000000 ) ) ;
#222 = VERTEX_POINT ( 'NONE', #103 ) ;
#223 = CYLINDRICAL_SURFACE ( 'NONE', #240, 0.05905500000000000332 ) ;
#224 = ORIENTED_EDGE ( 'NONE', *, *, #53, .F. ) ;
#225 = CARTESIAN_POINT ( 'NONE',  ( -0.03736409849999999810, 0.0000000000000000000, 4.575782363105141468E-18 ) ) ;
#226 = CARTESIAN_POINT ( 'NONE',  ( 0.0000000000000000000, 0.0000000000000000000, 1.481062999999999574 ) ) ;
#227 = PRODUCT_DEFINITION ( 'UNKNOWN', '', #55, #172 ) ;
#228 = LINE ( 'NONE', #173, #122 ) ;
#229 = FILL_AREA_STYLE_COLOUR ( '', #86 ) ;
#230 = DIRECTION ( 'NONE',  ( 0.0000000000000000000, 0.0000000000000000000, 1.000000000000000000 ) ) ;
#231 =( LENGTH_UNIT ( ) NAMED_UNIT ( * ) SI_UNIT ( $, .METRE. ) );
#232 = EDGE_CURVE ( 'NONE', #171, #82, #161, .T. ) ;
#233 = DIRECTION ( 'NONE',  ( 1.000000000000000000, 0.0000000000000000000, 0.0000000000000000000 ) ) ;
#234 = AXIS2_PLACEMENT_3D ( 'NONE', #185, #219, #261 ) ;
#235 = MECHANICAL_DESIGN_GEOMETRIC_PRESENTATION_REPRESENTATION (  '', ( #241 ), #60 ) ;
#236 = ORIENTED_EDGE ( 'NONE', *, *, #279, .T. ) ;
#237 = SURFACE_STYLE_FILL_AREA ( #51 ) ;
#238 = ADVANCED_FACE ( 'NONE', ( #91 ), #139, .T. ) ;
#239 = FACE_OUTER_BOUND ( 'NONE', #265, .T. ) ;
#240 = AXIS2_PLACEMENT_3D ( 'NONE', #176, #22, #92 ) ;
#241 = STYLED_ITEM ( 'NONE', ( #138 ), #181 ) ;
#242 = CARTESIAN_POINT ( 'NONE',  ( 4.254719532477991004E-17, 0.0000000000000000000, 0.3474242153280678314 ) ) ;
#243 = DIRECTION ( 'NONE',  ( -1.224646799147353207E-16, -0.0000000000000000000, -1.000000000000000000 ) ) ;
#244 = VERTEX_POINT ( 'NONE', #39 ) ;
#245 = CARTESIAN_POINT ( 'NONE',  ( -0.04405499999999973326, 0.0000000000000000000, 1.496062999999999921 ) ) ;
#246 = EDGE_LOOP ( 'NONE', ( #236, #248, #125, #224 ) ) ;
#247 = AXIS2_PLACEMENT_3D ( 'NONE', #289, #273, #104 ) ;
#248 = ORIENTED_EDGE ( 'NONE', *, *, #70, .T. ) ;
#249 = ORIENTED_EDGE ( 'NONE', *, *, #130, .F. ) ;
#250 = DIRECTION ( 'NONE',  ( -1.000000000000000000, 0.0000000000000000000, 1.224646799147353207E-16 ) ) ;
#251 = SURFACE_SIDE_STYLE ('',( #135 ) ) ;
#252 = CARTESIAN_POINT ( 'NONE',  ( 0.03736409849999999810, 4.575782363105141468E-18, 0.0000000000000000000 ) ) ;
#253 = FACE_OUTER_BOUND ( 'NONE', #196, .T. ) ;
#254 = VECTOR ( 'NONE', #142, 39.37007874015748143 ) ;
#255 = ORIENTED_EDGE ( 'NONE', *, *, #148, .T. ) ;
#256 = CARTESIAN_POINT ( 'NONE',  ( 0.0000000000000000000, 0.0000000000000000000, 0.0000000000000000000 ) ) ;
#257 = ORIENTED_EDGE ( 'NONE', *, *, #14, .T. ) ;
#258 = AXIS2_PLACEMENT_3D ( 'NONE', #26, #275, #87 ) ;
#259 = MANIFOLD_SOLID_BREP ( 'Cut-Revolve1', #220 ) ;
#260 = DIRECTION ( 'NONE',  ( -1.224646799147353207E-16, -0.0000000000000000000, -1.000000000000000000 ) ) ;
#261 = DIRECTION ( 'NONE',  ( -1.000000000000000000, 0.0000000000000000000, 0.0000000000000000000 ) ) ;
#262 = AXIS2_PLACEMENT_3D ( 'NONE', #27, #152, #250 ) ;
#263 = ADVANCED_FACE ( 'NONE', ( #113 ), #201, .T. ) ;
#264 = ORIENTED_EDGE ( 'NONE', *, *, #288, .F. ) ;
#265 = EDGE_LOOP ( 'NONE', ( #257, #90, #57, #212 ) ) ;
#266 = CARTESIAN_POINT ( 'NONE',  ( 2.748217635498583829E-17, 0.0000000000000000000, 0.2244089999999999974 ) ) ;
#267 = CARTESIAN_POINT ( 'NONE',  ( -0.04405499999999973326, 0.0000000000000000000, 1.496062999999999921 ) ) ;
#268 = VERTEX_POINT ( 'NONE', #64 ) ;
#269 = DIRECTION ( 'NONE',  ( 0.0000000000000000000, 0.0000000000000000000, -1.000000000000000000 ) ) ;
#270 = ORIENTED_EDGE ( 'NONE', *, *, #56, .T. ) ;
#271 =( NAMED_UNIT ( * ) PLANE_ANGLE_UNIT ( ) SI_UNIT ( $, .RADIAN. ) );
#272 = STYLED_ITEM ( 'NONE', ( #276 ), #259 ) ;
#273 = DIRECTION ( 'NONE',  ( -1.224646799147353207E-16, -0.0000000000000000000, -1.000000000000000000 ) ) ;
#274 =( NAMED_UNIT ( * ) SI_UNIT ( $, .STERADIAN. ) SOLID_ANGLE_UNIT ( ) );
#275 = DIRECTION ( 'NONE',  ( 0.0000000000000000000, 0.0000000000000000000, -1.000000000000000000 ) ) ;
#276 = PRESENTATION_STYLE_ASSIGNMENT (( #298 ) ) ;
#277 =( NAMED_UNIT ( * ) SI_UNIT ( $, .STERADIAN. ) SOLID_ANGLE_UNIT ( ) );
#278 = CARTESIAN_POINT ( 'NONE',  ( -0.05905499999999996169, 0.0000000000000000000, 0.3474242153280678314 ) ) ;
#279 = EDGE_CURVE ( 'NONE', #222, #46, #133, .T. ) ;
#280 = VECTOR ( 'NONE', #67, 39.37007874015748143 ) ;
#281 = AXIS2_PLACEMENT_3D ( 'NONE', #4, #44, #71 ) ;
#282 = SURFACE_STYLE_USAGE ( .BOTH. , #209 ) ;
#283 = DIRECTION ( 'NONE',  ( 0.7071067811865482389, 8.659560562354941486E-17, -0.7071067811865469066 ) ) ;
#284 = EDGE_CURVE ( 'NONE', #105, #97, #118, .T. ) ;
#285 = CIRCLE ( 'NONE', #41, 0.03736409849999999810 ) ;
#286 = DIMENSIONAL_EXPONENTS ( 1.000000000000000000, 0.0000000000000000000, 0.0000000000000000000, 0.0000000000000000000, 0.0000000000000000000, 0.0000000000000000000, 0.0000000000000000000 ) ;
#287 = DIRECTION ( 'NONE',  ( -1.000000000000000000, 0.0000000000000000000, 1.224646799147353207E-16 ) ) ;
#288 = EDGE_CURVE ( 'NONE', #268, #290, #184, .T. ) ;
#289 = CARTESIAN_POINT ( 'NONE',  ( 2.748217635498583829E-17, 0.0000000000000000000, 0.2244089999999999974 ) ) ;
#290 = VERTEX_POINT ( 'NONE', #252 ) ;
#291 = EDGE_LOOP ( 'NONE', ( #25, #174 ) ) ;
#292 = CARTESIAN_POINT ( 'NONE',  ( 0.05905500000000000332, 7.232151672364695422E-18, 1.481062999999999574 ) ) ;
#293 = CARTESIAN_POINT ( 'NONE',  ( 0.0000000000000000000, 0.0000000000000000000, 1.496062999999999921 ) ) ;
#294 = PRESENTATION_LAYER_ASSIGNMENT (  '', '', ( #272 ) ) ;
#295 = ORIENTED_EDGE ( 'NONE', *, *, #141, .F. ) ;
#296 = EDGE_LOOP ( 'NONE', ( #213, #99, #112, #81 ) ) ;
#297 =( LENGTH_UNIT ( ) NAMED_UNIT ( * ) SI_UNIT ( $, .METRE. ) );
#298 = SURFACE_STYLE_USAGE ( .BOTH. , #251 ) ;
#299 = DIRECTION ( 'NONE',  ( -1.224646799147353207E-16, -0.0000000000000000000, -1.000000000000000000 ) ) ;
ENDSEC;
END-ISO-10303-21;
