ISO-10303-21;
HEADER;
FILE_DESCRIPTION (( 'STEP AP214' ),
    '1' );
FILE_NAME ('82851.STEP',
    '2023-06-23T06:50:51',
    ( '' ),
    ( '' ),
    'SwSTEP 2.0',
    'SolidWorks 2023',
    '' );
FILE_SCHEMA (( 'AUTOMOTIVE_DESIGN' ));
ENDSEC;

DATA;
#1 = PRESENTATION_LAYER_ASSIGNMENT (  '', '', ( #142 ) ) ;
#2 = FILL_AREA_STYLE ('',( #269 ) ) ;
#3 = DIMENSIONAL_EXPONENTS ( 1.000000000000000000, 0.000000000000000000, 0.000000000000000000, 0.000000000000000000, 0.000000000000000000, 0.000000000000000000, 0.000000000000000000 ) ;
#4 = DIRECTION ( 'NONE',  ( -1.000000000000000000, 0.000000000000000000, 0.000000000000000000 ) ) ;
#5 = ORIENTED_EDGE ( 'NONE', *, *, #303, .F. ) ;
#6 = ORIENTED_EDGE ( 'NONE', *, *, #122, .F. ) ;
#7 = ADVANCED_FACE ( 'NONE', ( #166 ), #212, .T. ) ;
#8 = STYLED_ITEM ( 'NONE', ( #123 ), #149 ) ;
#9 = SURFACE_STYLE_USAGE ( .BOTH. , #237 ) ;
#10 =( CONVERSION_BASED_UNIT ( 'INCH', #290 ) LENGTH_UNIT ( ) NAMED_UNIT ( #90 ) );
#11 = DIRECTION ( 'NONE',  ( -0.000000000000000000, -1.000000000000000000, -0.000000000000000000 ) ) ;
#12 =( CONVERSION_BASED_UNIT ( 'INCH', #85 ) LENGTH_UNIT ( ) NAMED_UNIT ( #281 ) );
#13 = DIRECTION ( 'NONE',  ( 0.000000000000000000, 0.000000000000000000, -1.000000000000000000 ) ) ;
#14 = PRESENTATION_LAYER_ASSIGNMENT (  '', '', ( #8 ) ) ;
#15 = DIRECTION ( 'NONE',  ( 0.000000000000000000, 0.000000000000000000, -1.000000000000000000 ) ) ;
#16 = CARTESIAN_POINT ( 'NONE',  ( 7.582401355855259480E-33, 1.187499999999999778, 0.000000000000000000 ) ) ;
#17 =( GEOMETRIC_REPRESENTATION_CONTEXT ( 3 ) GLOBAL_UNCERTAINTY_ASSIGNED_CONTEXT ( ( #160 ) ) GLOBAL_UNIT_ASSIGNED_CONTEXT ( ( #10, #196, #28 ) ) REPRESENTATION_CONTEXT ( 'NONE', 'WORKASPACE' ) );
#18 = MECHANICAL_DESIGN_GEOMETRIC_PRESENTATION_REPRESENTATION (  '', ( #8 ), #154 ) ;
#19 = ORIENTED_EDGE ( 'NONE', *, *, #229, .F. ) ;
#20 = SURFACE_STYLE_USAGE ( .BOTH. , #175 ) ;
#21 = EDGE_LOOP ( 'NONE', ( #282, #170 ) ) ;
#22 =( NAMED_UNIT ( * ) PLANE_ANGLE_UNIT ( ) SI_UNIT ( $, .RADIAN. ) );
#23 = EDGE_LOOP ( 'NONE', ( #239, #157 ) ) ;
#24 = CARTESIAN_POINT ( 'NONE',  ( -0.09375000000000001388, 1.187499999999999778, 0.000000000000000000 ) ) ;
#25 = SURFACE_SIDE_STYLE ('',( #294 ) ) ;
#26 = COLOUR_RGB ( '',1.000000000000000000, 0.000000000000000000, 0.000000000000000000 ) ;
#27 = FACE_OUTER_BOUND ( 'NONE', #66, .T. ) ;
#28 =( NAMED_UNIT ( * ) SI_UNIT ( $, .STERADIAN. ) SOLID_ANGLE_UNIT ( ) );
#29 =( NAMED_UNIT ( * ) SI_UNIT ( $, .STERADIAN. ) SOLID_ANGLE_UNIT ( ) );
#30 = AXIS2_PLACEMENT_3D ( 'NONE', #295, #244, #150 ) ;
#31 = DIRECTION ( 'NONE',  ( 0.000000000000000000, 0.000000000000000000, 1.000000000000000000 ) ) ;
#32 = APPLICATION_PROTOCOL_DEFINITION ( 'draft international standard', 'automotive_design', 1998, #127 ) ;
#33 = FACE_OUTER_BOUND ( 'NONE', #251, .T. ) ;
#34 =( LENGTH_UNIT ( ) NAMED_UNIT ( * ) SI_UNIT ( $, .METRE. ) );
#35 = PRESENTATION_LAYER_ASSIGNMENT (  '', '', ( #247 ) ) ;
#36 = CIRCLE ( 'NONE', #257, 0.09375000000000001388 ) ;
#37 = ORIENTED_EDGE ( 'NONE', *, *, #207, .F. ) ;
#38 = ADVANCED_FACE ( 'NONE', ( #241 ), #216, .T. ) ;
#39 = DIMENSIONAL_EXPONENTS ( 1.000000000000000000, 0.000000000000000000, 0.000000000000000000, 0.000000000000000000, 0.000000000000000000, 0.000000000000000000, 0.000000000000000000 ) ;
#40 =( LENGTH_UNIT ( ) NAMED_UNIT ( * ) SI_UNIT ( $, .METRE. ) );
#41 =( CONVERSION_BASED_UNIT ( 'INCH', #258 ) LENGTH_UNIT ( ) NAMED_UNIT ( #117 ) );
#42 = ADVANCED_FACE ( 'NONE', ( #219 ), #293, .F. ) ;
#43 = CARTESIAN_POINT ( 'NONE',  ( -6.123233995736772199E-17, 3.000000000000000444, 0.000000000000000000 ) ) ;
#44 = VERTEX_POINT ( 'NONE', #183 ) ;
#45 = PRESENTATION_LAYER_ASSIGNMENT (  '', '', ( #300 ) ) ;
#46 = PRODUCT_DEFINITION_FORMATION_WITH_SPECIFIED_SOURCE ( 'ANY', '', #70, .NOT_KNOWN. ) ;
#47 =( NAMED_UNIT ( * ) PLANE_ANGLE_UNIT ( ) SI_UNIT ( $, .RADIAN. ) );
#48 = EDGE_CURVE ( 'NONE', #304, #221, #61, .T. ) ;
#49 =( LENGTH_UNIT ( ) NAMED_UNIT ( * ) SI_UNIT ( $, .METRE. ) );
#50 = DIRECTION ( 'NONE',  ( -3.378335997647874040E-17, 1.000000000000000000, -0.000000000000000000 ) ) ;
#51 = VERTEX_POINT ( 'NONE', #151 ) ;
#52 = DIRECTION ( 'NONE',  ( -0.000000000000000000, -1.000000000000000000, -0.000000000000000000 ) ) ;
#53 = ORIENTED_EDGE ( 'NONE', *, *, #303, .T. ) ;
#54 = MECHANICAL_DESIGN_GEOMETRIC_PRESENTATION_REPRESENTATION (  '', ( #142 ), #71 ) ;
#55 =( GEOMETRIC_REPRESENTATION_CONTEXT ( 3 ) GLOBAL_UNCERTAINTY_ASSIGNED_CONTEXT ( ( #134 ) ) GLOBAL_UNIT_ASSIGNED_CONTEXT ( ( #211, #47, #86 ) ) REPRESENTATION_CONTEXT ( 'NONE', 'WORKASPACE' ) );
#56 = SURFACE_STYLE_FILL_AREA ( #2 ) ;
#57 = EDGE_CURVE ( 'NONE', #139, #208, #173, .T. ) ;
#58 =( LENGTH_UNIT ( ) NAMED_UNIT ( * ) SI_UNIT ( $, .METRE. ) );
#59 = FILL_AREA_STYLE ('',( #152 ) ) ;
#60 = DIRECTION ( 'NONE',  ( -1.000000000000000000, -3.378335997647874040E-17, 0.000000000000000000 ) ) ;
#61 = CIRCLE ( 'NONE', #231, 0.09375000000000001388 ) ;
#62 = EDGE_LOOP ( 'NONE', ( #116, #118, #285, #179 ) ) ;
#63 = ADVANCED_FACE ( 'NONE', ( #33 ), #148, .T. ) ;
#64 = VERTEX_POINT ( 'NONE', #233 ) ;
#65 = SURFACE_STYLE_USAGE ( .BOTH. , #88 ) ;
#66 = EDGE_LOOP ( 'NONE', ( #136, #87, #82, #259 ) ) ;
#67 = CARTESIAN_POINT ( 'NONE',  ( 1.148106374200643863E-17, 0.000000000000000000, 0.09375000000000001388 ) ) ;
#68 =( LENGTH_UNIT ( ) NAMED_UNIT ( * ) SI_UNIT ( $, .METRE. ) );
#69 = FILL_AREA_STYLE ('',( #240 ) ) ;
#70 = PRODUCT ( '82851', '82851', '', ( #168 ) ) ;
#71 =( GEOMETRIC_REPRESENTATION_CONTEXT ( 3 ) GLOBAL_UNCERTAINTY_ASSIGNED_CONTEXT ( ( #202 ) ) GLOBAL_UNIT_ASSIGNED_CONTEXT ( ( #189, #164, #29 ) ) REPRESENTATION_CONTEXT ( 'NONE', 'WORKASPACE' ) );
#72 = STYLED_ITEM ( 'NONE', ( #89 ), #144 ) ;
#73 = DIRECTION ( 'NONE',  ( -0.000000000000000000, -1.000000000000000000, -0.000000000000000000 ) ) ;
#74 = FILL_AREA_STYLE_COLOUR ( '', #107 ) ;
#75 = APPLICATION_PROTOCOL_DEFINITION ( 'draft international standard', 'automotive_design', 1998, #105 ) ;
#76 = AXIS2_PLACEMENT_3D ( 'NONE', #194, #262, #93 ) ;
#77 =( CONVERSION_BASED_UNIT ( 'INCH', #145 ) LENGTH_UNIT ( ) NAMED_UNIT ( #255 ) );
#78 = PRODUCT_DEFINITION_SHAPE ( 'NONE', 'NONE',  #254 ) ;
#79 =( NAMED_UNIT ( * ) PLANE_ANGLE_UNIT ( ) SI_UNIT ( $, .RADIAN. ) );
#80 = ADVANCED_FACE ( 'NONE', ( #224 ), #275, .T. ) ;
#81 = PRESENTATION_STYLE_ASSIGNMENT (( #20 ) ) ;
#82 = ORIENTED_EDGE ( 'NONE', *, *, #223, .T. ) ;
#83 = PRESENTATION_LAYER_ASSIGNMENT (  '', '', ( #72 ) ) ;
#84 = ORIENTED_EDGE ( 'NONE', *, *, #122, .T. ) ;
#85 = LENGTH_MEASURE_WITH_UNIT ( LENGTH_MEASURE( 0.02539999999999999897 ), #298 );
#86 =( NAMED_UNIT ( * ) SI_UNIT ( $, .STERADIAN. ) SOLID_ANGLE_UNIT ( ) );
#87 = ORIENTED_EDGE ( 'NONE', *, *, #272, .T. ) ;
#88 = SURFACE_SIDE_STYLE ('',( #121 ) ) ;
#89 = PRESENTATION_STYLE_ASSIGNMENT (( #65 ) ) ;
#90 = DIMENSIONAL_EXPONENTS ( 1.000000000000000000, 0.000000000000000000, 0.000000000000000000, 0.000000000000000000, 0.000000000000000000, 0.000000000000000000, 0.000000000000000000 ) ;
#91 = FILL_AREA_STYLE ('',( #74 ) ) ;
#92 = DIRECTION ( 'NONE',  ( 0.000000000000000000, -1.000000000000000000, -0.000000000000000000 ) ) ;
#93 = DIRECTION ( 'NONE',  ( 0.000000000000000000, -0.000000000000000000, 1.000000000000000000 ) ) ;
#94 = CYLINDRICAL_SURFACE ( 'NONE', #125, 0.09375000000000004163 ) ;
#95 = PRESENTATION_STYLE_ASSIGNMENT (( #120 ) ) ;
#96 = CARTESIAN_POINT ( 'NONE',  ( 0.000000000000000000, 0.000000000000000000, -0.09375000000000001388 ) ) ;
#97 = CARTESIAN_POINT ( 'NONE',  ( 1.148106374200643863E-17, 0.000000000000000000, 0.09375000000000001388 ) ) ;
#98 = FILL_AREA_STYLE_COLOUR ( '', #209 ) ;
#99 = AXIS2_PLACEMENT_3D ( 'NONE', #301, #132, #271 ) ;
#100 = PLANE ( 'NONE',  #30 ) ;
#101 = LENGTH_MEASURE_WITH_UNIT ( LENGTH_MEASURE( 0.02539999999999999897 ), #34 );
#102 = ADVANCED_FACE ( 'NONE', ( #27 ), #238, .T. ) ;
#103 = DIRECTION ( 'NONE',  ( -0.000000000000000000, -1.000000000000000000, -0.000000000000000000 ) ) ;
#104 =( NAMED_UNIT ( * ) SI_UNIT ( $, .STERADIAN. ) SOLID_ANGLE_UNIT ( ) );
#105 = APPLICATION_CONTEXT ( 'automotive_design' ) ;
#106 = UNCERTAINTY_MEASURE_WITH_UNIT (LENGTH_MEASURE( 1.000000000000000082E-05 ), #199, 'distance_accuracy_value', 'NONE');
#107 = COLOUR_RGB ( '',1.000000000000000000, 0.000000000000000000, 0.000000000000000000 ) ;
#108 = AXIS2_PLACEMENT_3D ( 'NONE', #16, #220, #222 ) ;
#109 = ORIENTED_EDGE ( 'NONE', *, *, #223, .F. ) ;
#110 =( GEOMETRIC_REPRESENTATION_CONTEXT ( 3 ) GLOBAL_UNCERTAINTY_ASSIGNED_CONTEXT ( ( #174 ) ) GLOBAL_UNIT_ASSIGNED_CONTEXT ( ( #12, #133, #104 ) ) REPRESENTATION_CONTEXT ( 'NONE', 'WORKASPACE' ) );
#111 = PRESENTATION_STYLE_ASSIGNMENT (( #155 ) ) ;
#112 = VECTOR ( 'NONE', #50, 39.37007874015748143 ) ;
#113 = EDGE_LOOP ( 'NONE', ( #307, #234, #6, #109 ) ) ;
#114 = EDGE_CURVE ( 'NONE', #208, #64, #288, .T. ) ;
#115 = DIRECTION ( 'NONE',  ( -3.378335997647874040E-17, 1.000000000000000000, -0.000000000000000000 ) ) ;
#116 = ORIENTED_EDGE ( 'NONE', *, *, #229, .T. ) ;
#117 = DIMENSIONAL_EXPONENTS ( 1.000000000000000000, 0.000000000000000000, 0.000000000000000000, 0.000000000000000000, 0.000000000000000000, 0.000000000000000000, 0.000000000000000000 ) ;
#118 = ORIENTED_EDGE ( 'NONE', *, *, #207, .T. ) ;
#119 = CIRCLE ( 'NONE', #177, 0.09375000000000001388 ) ;
#120 = SURFACE_STYLE_USAGE ( .BOTH. , #25 ) ;
#121 = SURFACE_STYLE_FILL_AREA ( #236 ) ;
#122 = EDGE_CURVE ( 'NONE', #64, #208, #227, .T. ) ;
#123 = PRESENTATION_STYLE_ASSIGNMENT (( #163 ) ) ;
#124 = FACE_OUTER_BOUND ( 'NONE', #203, .T. ) ;
#125 = AXIS2_PLACEMENT_3D ( 'NONE', #291, #246, #228 ) ;
#126 = DIRECTION ( 'NONE',  ( 1.000000000000000000, 0.000000000000000000, 0.000000000000000000 ) ) ;
#127 = APPLICATION_CONTEXT ( 'automotive_design' ) ;
#128 = CARTESIAN_POINT ( 'NONE',  ( 5.349915990470371091E-35, 1.187500000000000000, 0.000000000000000000 ) ) ;
#129 = FACE_OUTER_BOUND ( 'NONE', #113, .T. ) ;
#130 =( NAMED_UNIT ( * ) SI_UNIT ( $, .STERADIAN. ) SOLID_ANGLE_UNIT ( ) );
#131 =( NAMED_UNIT ( * ) PLANE_ANGLE_UNIT ( ) SI_UNIT ( $, .RADIAN. ) );
#132 = DIRECTION ( 'NONE',  ( -0.000000000000000000, -1.000000000000000000, -0.000000000000000000 ) ) ;
#133 =( NAMED_UNIT ( * ) PLANE_ANGLE_UNIT ( ) SI_UNIT ( $, .RADIAN. ) );
#134 = UNCERTAINTY_MEASURE_WITH_UNIT (LENGTH_MEASURE( 1.000000000000000082E-05 ), #211, 'distance_accuracy_value', 'NONE');
#135 = COLOUR_RGB ( '',0.7921568627450980005, 0.8196078431372548767, 0.9333333333333333481 ) ;
#136 = ORIENTED_EDGE ( 'NONE', *, *, #57, .F. ) ;
#137 = DIRECTION ( 'NONE',  ( 0.000000000000000000, 0.000000000000000000, -1.000000000000000000 ) ) ;
#138 = VECTOR ( 'NONE', #73, 39.37007874015748143 ) ;
#139 = VERTEX_POINT ( 'NONE', #191 ) ;
#140 = DIRECTION ( 'NONE',  ( -1.000000000000000000, 0.000000000000000000, 0.000000000000000000 ) ) ;
#141 = SURFACE_SIDE_STYLE ('',( #261 ) ) ;
#142 = STYLED_ITEM ( 'NONE', ( #95 ), #38 ) ;
#143 = COLOUR_RGB ( '',0.7921568627450980005, 0.8196078431372548767, 0.9333333333333333481 ) ;
#144 = MANIFOLD_SOLID_BREP ( 'Revolve - Cutting Edge', #158 ) ;
#145 = LENGTH_MEASURE_WITH_UNIT ( LENGTH_MEASURE( 0.02539999999999999897 ), #58 );
#146 = DIRECTION ( 'NONE',  ( 0.000000000000000000, 0.000000000000000000, -1.000000000000000000 ) ) ;
#147 = MECHANICAL_DESIGN_GEOMETRIC_PRESENTATION_REPRESENTATION (  '', ( #72 ), #55 ) ;
#148 = CYLINDRICAL_SURFACE ( 'NONE', #99, 0.09375000000000001388 ) ;
#149 = MANIFOLD_SOLID_BREP ( 'Revolve - Tool Body (Straight Shanked)', #218 ) ;
#150 = DIRECTION ( 'NONE',  ( 1.000000000000000000, 3.378335997647874040E-17, 0.000000000000000000 ) ) ;
#151 = CARTESIAN_POINT ( 'NONE',  ( 0.000000000000000000, 1.187500000000000000, -0.09375000000000001388 ) ) ;
#152 = FILL_AREA_STYLE_COLOUR ( '', #26 ) ;
#153 = AXIS2_PLACEMENT_3D ( 'NONE', #43, #115, #213 ) ;
#154 =( GEOMETRIC_REPRESENTATION_CONTEXT ( 3 ) GLOBAL_UNCERTAINTY_ASSIGNED_CONTEXT ( ( #171 ) ) GLOBAL_UNIT_ASSIGNED_CONTEXT ( ( #41, #22, #284 ) ) REPRESENTATION_CONTEXT ( 'NONE', 'WORKASPACE' ) );
#155 = SURFACE_STYLE_USAGE ( .BOTH. , #252 ) ;
#156 =( GEOMETRIC_REPRESENTATION_CONTEXT ( 3 ) GLOBAL_UNCERTAINTY_ASSIGNED_CONTEXT ( ( #106 ) ) GLOBAL_UNIT_ASSIGNED_CONTEXT ( ( #199, #79, #130 ) ) REPRESENTATION_CONTEXT ( 'NONE', 'WORKASPACE' ) );
#157 = ORIENTED_EDGE ( 'NONE', *, *, #272, .F. ) ;
#158 = CLOSED_SHELL ( 'NONE', ( #7, #38, #63, #80 ) ) ;
#159 = FILL_AREA_STYLE_COLOUR ( '', #143 ) ;
#160 = UNCERTAINTY_MEASURE_WITH_UNIT (LENGTH_MEASURE( 1.000000000000000082E-05 ), #10, 'distance_accuracy_value', 'NONE');
#161 = CARTESIAN_POINT ( 'NONE',  ( 7.582401355855259480E-33, 1.187499999999999778, 0.000000000000000000 ) ) ;
#162 = DIRECTION ( 'NONE',  ( -3.378335997647874040E-17, 1.000000000000000000, -0.000000000000000000 ) ) ;
#163 = SURFACE_STYLE_USAGE ( .BOTH. , #141 ) ;
#164 =( NAMED_UNIT ( * ) PLANE_ANGLE_UNIT ( ) SI_UNIT ( $, .RADIAN. ) );
#165 = CARTESIAN_POINT ( 'NONE',  ( 0.000000000000000000, 0.000000000000000000, -0.09375000000000001388 ) ) ;
#166 = FACE_OUTER_BOUND ( 'NONE', #62, .T. ) ;
#167 = DIRECTION ( 'NONE',  ( 0.000000000000000000, 0.000000000000000000, -1.000000000000000000 ) ) ;
#168 = PRODUCT_CONTEXT ( 'NONE', #105, 'mechanical' ) ;
#169 = AXIS2_PLACEMENT_3D ( 'NONE', #214, #187, #146 ) ;
#170 = ORIENTED_EDGE ( 'NONE', *, *, #267, .T. ) ;
#171 = UNCERTAINTY_MEASURE_WITH_UNIT (LENGTH_MEASURE( 1.000000000000000082E-05 ), #41, 'distance_accuracy_value', 'NONE');
#172 = CARTESIAN_POINT ( 'NONE',  ( 0.000000000000000000, 1.187500000000000000, 0.000000000000000000 ) ) ;
#173 = LINE ( 'NONE', #296, #256 ) ;
#174 = UNCERTAINTY_MEASURE_WITH_UNIT (LENGTH_MEASURE( 1.000000000000000082E-05 ), #12, 'distance_accuracy_value', 'NONE');
#175 = SURFACE_SIDE_STYLE ('',( #274 ) ) ;
#176 = COLOUR_RGB ( '',1.000000000000000000, 0.000000000000000000, 0.000000000000000000 ) ;
#177 = AXIS2_PLACEMENT_3D ( 'NONE', #172, #11, #13 ) ;
#178 = SURFACE_STYLE_FILL_AREA ( #245 ) ;
#179 = ORIENTED_EDGE ( 'NONE', *, *, #299, .F. ) ;
#180 = AXIS2_PLACEMENT_3D ( 'NONE', #128, #200, #60 ) ;
#181 =( GEOMETRIC_REPRESENTATION_CONTEXT ( 3 ) GLOBAL_UNCERTAINTY_ASSIGNED_CONTEXT ( ( #278 ) ) GLOBAL_UNIT_ASSIGNED_CONTEXT ( ( #77, #131, #270 ) ) REPRESENTATION_CONTEXT ( 'NONE', 'WORKASPACE' ) );
#182 = EDGE_LOOP ( 'NONE', ( #19, #5 ) ) ;
#183 = CARTESIAN_POINT ( 'NONE',  ( 1.148106374200643863E-17, 1.187500000000000000, 0.09375000000000001388 ) ) ;
#184 = CARTESIAN_POINT ( 'NONE',  ( -6.123233995736772199E-17, 3.000000000000000444, 0.000000000000000000 ) ) ;
#185 = AXIS2_PLACEMENT_3D ( 'NONE', #204, #162, #308 ) ;
#186 = PRODUCT_RELATED_PRODUCT_CATEGORY ( 'part', '', ( #70 ) ) ;
#187 = DIRECTION ( 'NONE',  ( -0.000000000000000000, -1.000000000000000000, -0.000000000000000000 ) ) ;
#188 =( LENGTH_UNIT ( ) NAMED_UNIT ( * ) SI_UNIT ( $, .METRE. ) );
#189 =( CONVERSION_BASED_UNIT ( 'INCH', #265 ) LENGTH_UNIT ( ) NAMED_UNIT ( #3 ) );
#190 = EDGE_CURVE ( 'NONE', #206, #139, #36, .T. ) ;
#191 = CARTESIAN_POINT ( 'NONE',  ( 0.09375000000000001388, 1.187499999999999778, 1.148106374200644325E-17 ) ) ;
#192 = PRESENTATION_LAYER_ASSIGNMENT (  '', '', ( #306 ) ) ;
#193 = LINE ( 'NONE', #96, #210 ) ;
#194 = CARTESIAN_POINT ( 'NONE',  ( 0.000000000000000000, 1.187500000000000000, 0.000000000000000000 ) ) ;
#195 = CARTESIAN_POINT ( 'NONE',  ( 0.000000000000000000, 1.187500000000000000, 0.000000000000000000 ) ) ;
#196 =( NAMED_UNIT ( * ) PLANE_ANGLE_UNIT ( ) SI_UNIT ( $, .RADIAN. ) );
#197 = CARTESIAN_POINT ( 'NONE',  ( 0.09375000000000001388, 3.000000000000000444, 1.148106374200644325E-17 ) ) ;
#198 = CARTESIAN_POINT ( 'NONE',  ( 0.000000000000000000, 0.000000000000000000, 0.000000000000000000 ) ) ;
#199 =( CONVERSION_BASED_UNIT ( 'INCH', #101 ) LENGTH_UNIT ( ) NAMED_UNIT ( #39 ) );
#200 = DIRECTION ( 'NONE',  ( -3.378335997647874040E-17, 1.000000000000000000, 0.000000000000000000 ) ) ;
#201 = MECHANICAL_DESIGN_GEOMETRIC_PRESENTATION_REPRESENTATION (  '', ( #306 ), #17 ) ;
#202 = UNCERTAINTY_MEASURE_WITH_UNIT (LENGTH_MEASURE( 1.000000000000000082E-05 ), #189, 'distance_accuracy_value', 'NONE');
#203 = EDGE_LOOP ( 'NONE', ( #84, #280 ) ) ;
#204 = CARTESIAN_POINT ( 'NONE',  ( -6.123233995736772199E-17, 3.000000000000000444, 0.000000000000000000 ) ) ;
#205 = ADVANCED_BREP_SHAPE_REPRESENTATION ( '82851', ( #144, #149, #283 ), #181 ) ;
#206 = VERTEX_POINT ( 'NONE', #24 ) ;
#207 = EDGE_CURVE ( 'NONE', #44, #221, #286, .T. ) ;
#208 = VERTEX_POINT ( 'NONE', #197 ) ;
#209 = COLOUR_RGB ( '',1.000000000000000000, 0.000000000000000000, 0.000000000000000000 ) ;
#210 = VECTOR ( 'NONE', #103, 39.37007874015748143 ) ;
#211 =( CONVERSION_BASED_UNIT ( 'INCH', #215 ) LENGTH_UNIT ( ) NAMED_UNIT ( #217 ) );
#212 = CYLINDRICAL_SURFACE ( 'NONE', #169, 0.09375000000000001388 ) ;
#213 = DIRECTION ( 'NONE',  ( -1.000000000000000000, 0.000000000000000000, 0.000000000000000000 ) ) ;
#214 = CARTESIAN_POINT ( 'NONE',  ( 0.000000000000000000, 0.000000000000000000, 0.000000000000000000 ) ) ;
#215 = LENGTH_MEASURE_WITH_UNIT ( LENGTH_MEASURE( 0.02539999999999999897 ), #188 );
#216 = PLANE ( 'NONE',  #76 ) ;
#217 = DIMENSIONAL_EXPONENTS ( 1.000000000000000000, 0.000000000000000000, 0.000000000000000000, 0.000000000000000000, 0.000000000000000000, 0.000000000000000000, 0.000000000000000000 ) ;
#218 = CLOSED_SHELL ( 'NONE', ( #292, #42, #102, #235 ) ) ;
#219 = FACE_OUTER_BOUND ( 'NONE', #23, .T. ) ;
#220 = DIRECTION ( 'NONE',  ( -3.378335997647874040E-17, 1.000000000000000000, -0.000000000000000000 ) ) ;
#221 = VERTEX_POINT ( 'NONE', #97 ) ;
#222 = DIRECTION ( 'NONE',  ( -1.000000000000000000, 0.000000000000000000, 0.000000000000000000 ) ) ;
#223 = EDGE_CURVE ( 'NONE', #206, #64, #297, .T. ) ;
#224 = FACE_OUTER_BOUND ( 'NONE', #21, .T. ) ;
#225 = CARTESIAN_POINT ( 'NONE',  ( -0.09375000000000011102, 3.000000000000000444, 0.000000000000000000 ) ) ;
#226 = DIRECTION ( 'NONE',  ( -0.000000000000000000, -1.000000000000000000, -0.000000000000000000 ) ) ;
#227 = CIRCLE ( 'NONE', #185, 0.09375000000000006939 ) ;
#228 = DIRECTION ( 'NONE',  ( -1.000000000000000000, 0.000000000000000000, 0.000000000000000000 ) ) ;
#229 = EDGE_CURVE ( 'NONE', #51, #44, #119, .T. ) ;
#230 = CARTESIAN_POINT ( 'NONE',  ( 0.000000000000000000, 0.000000000000000000, 0.000000000000000000 ) ) ;
#231 = AXIS2_PLACEMENT_3D ( 'NONE', #230, #226, #15 ) ;
#232 = CIRCLE ( 'NONE', #276, 0.09375000000000001388 ) ;
#233 = CARTESIAN_POINT ( 'NONE',  ( -0.09375000000000013878, 3.000000000000000444, 0.000000000000000000 ) ) ;
#234 = ORIENTED_EDGE ( 'NONE', *, *, #57, .T. ) ;
#235 = ADVANCED_FACE ( 'NONE', ( #124 ), #100, .F. ) ;
#236 = FILL_AREA_STYLE ('',( #159 ) ) ;
#237 = SURFACE_SIDE_STYLE ('',( #56 ) ) ;
#238 = CYLINDRICAL_SURFACE ( 'NONE', #153, 0.09375000000000004163 ) ;
#239 = ORIENTED_EDGE ( 'NONE', *, *, #190, .F. ) ;
#240 = FILL_AREA_STYLE_COLOUR ( '', #135 ) ;
#241 = FACE_OUTER_BOUND ( 'NONE', #182, .T. ) ;
#242 = AXIS2_PLACEMENT_3D ( 'NONE', #198, #92, #137 ) ;
#243 = CIRCLE ( 'NONE', #108, 0.09375000000000001388 ) ;
#244 = DIRECTION ( 'NONE',  ( 3.378335997647874040E-17, -1.000000000000000000, 0.000000000000000000 ) ) ;
#245 = FILL_AREA_STYLE ('',( #98 ) ) ;
#246 = DIRECTION ( 'NONE',  ( -3.378335997647874040E-17, 1.000000000000000000, -0.000000000000000000 ) ) ;
#247 = STYLED_ITEM ( 'NONE', ( #111 ), #63 ) ;
#248 = CIRCLE ( 'NONE', #302, 0.09375000000000001388 ) ;
#249 = MECHANICAL_DESIGN_GEOMETRIC_PRESENTATION_REPRESENTATION (  '', ( #247 ), #156 ) ;
#250 = AXIS2_PLACEMENT_3D ( 'NONE', #184, #263, #4 ) ;
#251 = EDGE_LOOP ( 'NONE', ( #37, #53, #309, #253 ) ) ;
#252 = SURFACE_SIDE_STYLE ('',( #178 ) ) ;
#253 = ORIENTED_EDGE ( 'NONE', *, *, #267, .F. ) ;
#254 = PRODUCT_DEFINITION ( 'UNKNOWN', '', #46, #305 ) ;
#255 = DIMENSIONAL_EXPONENTS ( 1.000000000000000000, 0.000000000000000000, 0.000000000000000000, 0.000000000000000000, 0.000000000000000000, 0.000000000000000000, 0.000000000000000000 ) ;
#256 = VECTOR ( 'NONE', #277, 39.37007874015748143 ) ;
#257 = AXIS2_PLACEMENT_3D ( 'NONE', #161, #260, #140 ) ;
#258 = LENGTH_MEASURE_WITH_UNIT ( LENGTH_MEASURE( 0.02539999999999999897 ), #40 );
#259 = ORIENTED_EDGE ( 'NONE', *, *, #114, .F. ) ;
#260 = DIRECTION ( 'NONE',  ( -3.378335997647874040E-17, 1.000000000000000000, -0.000000000000000000 ) ) ;
#261 = SURFACE_STYLE_FILL_AREA ( #69 ) ;
#262 = DIRECTION ( 'NONE',  ( 0.000000000000000000, 1.000000000000000000, 0.000000000000000000 ) ) ;
#263 = DIRECTION ( 'NONE',  ( -3.378335997647874040E-17, 1.000000000000000000, -0.000000000000000000 ) ) ;
#264 = DIRECTION ( 'NONE',  ( -0.000000000000000000, -1.000000000000000000, -0.000000000000000000 ) ) ;
#265 = LENGTH_MEASURE_WITH_UNIT ( LENGTH_MEASURE( 0.02539999999999999897 ), #68 );
#266 = CARTESIAN_POINT ( 'NONE',  ( 0.000000000000000000, 0.000000000000000000, 0.000000000000000000 ) ) ;
#267 = EDGE_CURVE ( 'NONE', #221, #304, #232, .T. ) ;
#268 = SHAPE_DEFINITION_REPRESENTATION ( #78, #205 ) ;
#269 = FILL_AREA_STYLE_COLOUR ( '', #176 ) ;
#270 =( NAMED_UNIT ( * ) SI_UNIT ( $, .STERADIAN. ) SOLID_ANGLE_UNIT ( ) );
#271 = DIRECTION ( 'NONE',  ( 0.000000000000000000, 0.000000000000000000, -1.000000000000000000 ) ) ;
#272 = EDGE_CURVE ( 'NONE', #139, #206, #243, .T. ) ;
#273 = CARTESIAN_POINT ( 'NONE',  ( 0.000000000000000000, 0.000000000000000000, 0.000000000000000000 ) ) ;
#274 = SURFACE_STYLE_FILL_AREA ( #59 ) ;
#275 = PLANE ( 'NONE',  #242 ) ;
#276 = AXIS2_PLACEMENT_3D ( 'NONE', #273, #264, #167 ) ;
#277 = DIRECTION ( 'NONE',  ( -3.378335997647874040E-17, 1.000000000000000000, -0.000000000000000000 ) ) ;
#278 = UNCERTAINTY_MEASURE_WITH_UNIT (LENGTH_MEASURE( 1.000000000000000082E-05 ), #77, 'distance_accuracy_value', 'NONE');
#279 = MECHANICAL_DESIGN_GEOMETRIC_PRESENTATION_REPRESENTATION (  '', ( #300 ), #110 ) ;
#280 = ORIENTED_EDGE ( 'NONE', *, *, #114, .T. ) ;
#281 = DIMENSIONAL_EXPONENTS ( 1.000000000000000000, 0.000000000000000000, 0.000000000000000000, 0.000000000000000000, 0.000000000000000000, 0.000000000000000000, 0.000000000000000000 ) ;
#282 = ORIENTED_EDGE ( 'NONE', *, *, #48, .T. ) ;
#283 = AXIS2_PLACEMENT_3D ( 'NONE', #266, #31, #126 ) ;
#284 =( NAMED_UNIT ( * ) SI_UNIT ( $, .STERADIAN. ) SOLID_ANGLE_UNIT ( ) );
#285 = ORIENTED_EDGE ( 'NONE', *, *, #48, .F. ) ;
#286 = LINE ( 'NONE', #67, #138 ) ;
#287 = PRESENTATION_STYLE_ASSIGNMENT (( #9 ) ) ;
#288 = CIRCLE ( 'NONE', #250, 0.09375000000000006939 ) ;
#289 = DIRECTION ( 'NONE',  ( 0.000000000000000000, 0.000000000000000000, -1.000000000000000000 ) ) ;
#290 = LENGTH_MEASURE_WITH_UNIT ( LENGTH_MEASURE( 0.02539999999999999897 ), #49 );
#291 = CARTESIAN_POINT ( 'NONE',  ( -6.123233995736772199E-17, 3.000000000000000444, 0.000000000000000000 ) ) ;
#292 = ADVANCED_FACE ( 'NONE', ( #129 ), #94, .T. ) ;
#293 = PLANE ( 'NONE',  #180 ) ;
#294 = SURFACE_STYLE_FILL_AREA ( #91 ) ;
#295 = CARTESIAN_POINT ( 'NONE',  ( 0.09375000000000001388, 3.000000000000000444, 0.000000000000000000 ) ) ;
#296 = CARTESIAN_POINT ( 'NONE',  ( 0.09374999999999997224, 3.000000000000000444, 1.148106374200644171E-17 ) ) ;
#297 = LINE ( 'NONE', #225, #112 ) ;
#298 =( LENGTH_UNIT ( ) NAMED_UNIT ( * ) SI_UNIT ( $, .METRE. ) );
#299 = EDGE_CURVE ( 'NONE', #51, #304, #193, .T. ) ;
#300 = STYLED_ITEM ( 'NONE', ( #81 ), #80 ) ;
#301 = CARTESIAN_POINT ( 'NONE',  ( 0.000000000000000000, 0.000000000000000000, 0.000000000000000000 ) ) ;
#302 = AXIS2_PLACEMENT_3D ( 'NONE', #195, #52, #289 ) ;
#303 = EDGE_CURVE ( 'NONE', #44, #51, #248, .T. ) ;
#304 = VERTEX_POINT ( 'NONE', #165 ) ;
#305 = PRODUCT_DEFINITION_CONTEXT ( 'detailed design', #127, 'design' ) ;
#306 = STYLED_ITEM ( 'NONE', ( #287 ), #7 ) ;
#307 = ORIENTED_EDGE ( 'NONE', *, *, #190, .T. ) ;
#308 = DIRECTION ( 'NONE',  ( -1.000000000000000000, 0.000000000000000000, 0.000000000000000000 ) ) ;
#309 = ORIENTED_EDGE ( 'NONE', *, *, #299, .T. ) ;
ENDSEC;
END-ISO-10303-21;
