ISO-10303-21;
HEADER;
FILE_DESCRIPTION (( 'STEP AP214' ),
    '1' );
FILE_NAME ('06543.STEP',
    '2023-07-05T16:04:35',
    ( '' ),
    ( '' ),
    'SwSTEP 2.0',
    'SolidWorks 2023',
    '' );
FILE_SCHEMA (( 'AUTOMOTIVE_DESIGN' ));
ENDSEC;

DATA;
#1 = ORIENTED_EDGE ( 'NONE', *, *, #259, .T. ) ;
#2 = CYLINDRICAL_SURFACE ( 'NONE', #63, 0.3749999999999998335 ) ;
#3 = AXIS2_PLACEMENT_3D ( 'NONE', #51, #251, #212 ) ;
#4 = DIRECTION ( 'NONE',  ( 0.000000000000000000, 0.000000000000000000, 1.000000000000000000 ) ) ;
#5 = STYLED_ITEM ( 'NONE', ( #97 ), #7 ) ;
#6 = PRESENTATION_STYLE_ASSIGNMENT (( #153 ) ) ;
#7 = ADVANCED_FACE ( 'NONE', ( #198 ), #18, .T. ) ;
#8 = CARTESIAN_POINT ( 'NONE',  ( -0.3749999999999998890, 3.000000000000000444, 0.000000000000000000 ) ) ;
#9 = VECTOR ( 'NONE', #87, 39.37007874015748143 ) ;
#10 = CONICAL_SURFACE ( 'NONE', #227, 68.19097667594041923, 1.047197551196600074 ) ;
#11 = DIRECTION ( 'NONE',  ( 0.000000000000000000, 0.000000000000000000, 1.000000000000000000 ) ) ;
#12 = DIRECTION ( 'NONE',  ( -1.431455849776166882E-16, 1.000000000000000000, -0.000000000000000000 ) ) ;
#13 = EDGE_CURVE ( 'NONE', #58, #92, #169, .T. ) ;
#14 = DIRECTION ( 'NONE',  ( 1.431455849776166882E-16, -1.000000000000000000, 0.000000000000000000 ) ) ;
#15 = PRODUCT_DEFINITION_FORMATION_WITH_SPECIFIED_SOURCE ( 'ANY', '', #253, .NOT_KNOWN. ) ;
#16 = DIMENSIONAL_EXPONENTS ( 1.000000000000000000, 0.000000000000000000, 0.000000000000000000, 0.000000000000000000, 0.000000000000000000, 0.000000000000000000, 0.000000000000000000 ) ;
#17 = ORIENTED_EDGE ( 'NONE', *, *, #217, .F. ) ;
#18 = PLANE ( 'NONE',  #234 ) ;
#19 =( CONVERSION_BASED_UNIT ( 'INCH', #163 ) LENGTH_UNIT ( ) NAMED_UNIT ( #215 ) );
#20 = EDGE_LOOP ( 'NONE', ( #197, #242 ) ) ;
#21 = UNCERTAINTY_MEASURE_WITH_UNIT (LENGTH_MEASURE( 1.000000000000000082E-05 ), #95, 'distance_accuracy_value', 'NONE');
#22 = MANIFOLD_SOLID_BREP ( 'Revolve - Tool Body (Pointed)', #79 ) ;
#23 = SURFACE_STYLE_FILL_AREA ( #120 ) ;
#24 =( GEOMETRIC_REPRESENTATION_CONTEXT ( 3 ) GLOBAL_UNCERTAINTY_ASSIGNED_CONTEXT ( ( #160 ) ) GLOBAL_UNIT_ASSIGNED_CONTEXT ( ( #36, #113, #38 ) ) REPRESENTATION_CONTEXT ( 'NONE', 'WORKASPACE' ) );
#25 = VERTEX_POINT ( 'NONE', #159 ) ;
#26 = DIRECTION ( 'NONE',  ( 0.000000000000000000, 1.000000000000000000, 0.000000000000000000 ) ) ;
#27 = LENGTH_MEASURE_WITH_UNIT ( LENGTH_MEASURE( 0.02539999999999999897 ), #228 );
#28 = MECHANICAL_DESIGN_GEOMETRIC_PRESENTATION_REPRESENTATION (  '', ( #67 ), #229 ) ;
#29 = ADVANCED_FACE ( 'NONE', ( #224 ), #2, .T. ) ;
#30 = PRESENTATION_STYLE_ASSIGNMENT (( #166 ) ) ;
#31 = ADVANCED_BREP_SHAPE_REPRESENTATION ( '06543', ( #195, #22, #3 ), #154 ) ;
#32 = CARTESIAN_POINT ( 'NONE',  ( 0.000000000000000000, 0.000000000000000000, 0.000000000000000000 ) ) ;
#33 = EDGE_CURVE ( 'NONE', #76, #25, #240, .T. ) ;
#34 = CARTESIAN_POINT ( 'NONE',  ( 0.3749999999999999445, 3.000000000000000444, 0.000000000000000000 ) ) ;
#35 = PRODUCT_RELATED_PRODUCT_CATEGORY ( 'part', '', ( #253 ) ) ;
#36 =( CONVERSION_BASED_UNIT ( 'INCH', #192 ) LENGTH_UNIT ( ) NAMED_UNIT ( #257 ) );
#37 = DIMENSIONAL_EXPONENTS ( 1.000000000000000000, 0.000000000000000000, 0.000000000000000000, 0.000000000000000000, 0.000000000000000000, 0.000000000000000000, 0.000000000000000000 ) ;
#38 =( NAMED_UNIT ( * ) SI_UNIT ( $, .STERADIAN. ) SOLID_ANGLE_UNIT ( ) );
#39 = CARTESIAN_POINT ( 'NONE',  ( 0.000000000000000000, 0.2165063509461085112, 0.000000000000000000 ) ) ;
#40 = LENGTH_MEASURE_WITH_UNIT ( LENGTH_MEASURE( 0.02539999999999999897 ), #54 );
#41 = EDGE_LOOP ( 'NONE', ( #219, #243, #74 ) ) ;
#42 = ADVANCED_FACE ( 'NONE', ( #140 ), #44, .T. ) ;
#43 = ORIENTED_EDGE ( 'NONE', *, *, #110, .T. ) ;
#44 = CYLINDRICAL_SURFACE ( 'NONE', #264, 0.3749999999999998335 ) ;
#45 = CONICAL_SURFACE ( 'NONE', #136, 68.19097667594041923, 1.047197551196600074 ) ;
#46 = DIRECTION ( 'NONE',  ( -1.431455849776166882E-16, 1.000000000000000000, 0.000000000000000000 ) ) ;
#47 = DIRECTION ( 'NONE',  ( -0.000000000000000000, -1.000000000000000000, -0.000000000000000000 ) ) ;
#48 = CIRCLE ( 'NONE', #168, 0.3750000000000000555 ) ;
#49 = DIRECTION ( 'NONE',  ( -1.000000000000000000, 0.000000000000000000, 0.000000000000000000 ) ) ;
#50 =( NAMED_UNIT ( * ) SI_UNIT ( $, .STERADIAN. ) SOLID_ANGLE_UNIT ( ) );
#51 = CARTESIAN_POINT ( 'NONE',  ( 0.000000000000000000, 0.000000000000000000, 0.000000000000000000 ) ) ;
#52 = UNCERTAINTY_MEASURE_WITH_UNIT (LENGTH_MEASURE( 1.000000000000000082E-05 ), #19, 'distance_accuracy_value', 'NONE');
#53 = DIRECTION ( 'NONE',  ( -1.431455849776166882E-16, 1.000000000000000000, -0.000000000000000000 ) ) ;
#54 =( LENGTH_UNIT ( ) NAMED_UNIT ( * ) SI_UNIT ( $, .METRE. ) );
#55 = UNCERTAINTY_MEASURE_WITH_UNIT (LENGTH_MEASURE( 1.000000000000000082E-05 ), #235, 'distance_accuracy_value', 'NONE');
#56 = VERTEX_POINT ( 'NONE', #98 ) ;
#57 = DIRECTION ( 'NONE',  ( -1.431455849776166882E-16, 1.000000000000000000, -0.000000000000000000 ) ) ;
#58 = VERTEX_POINT ( 'NONE', #206 ) ;
#59 = CARTESIAN_POINT ( 'NONE',  ( -6.123233995736772199E-17, 3.000000000000000444, 0.000000000000000000 ) ) ;
#60 = DIRECTION ( 'NONE',  ( 0.000000000000000000, -0.000000000000000000, 1.000000000000000000 ) ) ;
#61 =( GEOMETRIC_REPRESENTATION_CONTEXT ( 3 ) GLOBAL_UNCERTAINTY_ASSIGNED_CONTEXT ( ( #52 ) ) GLOBAL_UNIT_ASSIGNED_CONTEXT ( ( #19, #118, #262 ) ) REPRESENTATION_CONTEXT ( 'NONE', 'WORKASPACE' ) );
#62 = DIRECTION ( 'NONE',  ( 0.000000000000000000, 1.000000000000000000, 0.000000000000000000 ) ) ;
#63 = AXIS2_PLACEMENT_3D ( 'NONE', #146, #121, #203 ) ;
#64 = CARTESIAN_POINT ( 'NONE',  ( 3.372124867179324756E-16, 0.2165063509461084557, 0.000000000000000000 ) ) ;
#65 = DIRECTION ( 'NONE',  ( 0.000000000000000000, 0.000000000000000000, -1.000000000000000000 ) ) ;
#66 = DIRECTION ( 'NONE',  ( 1.000000000000000000, 1.431455849776166882E-16, 0.000000000000000000 ) ) ;
#67 = STYLED_ITEM ( 'NONE', ( #6 ), #193 ) ;
#68 = EDGE_CURVE ( 'NONE', #92, #58, #233, .T. ) ;
#69 = ORIENTED_EDGE ( 'NONE', *, *, #33, .F. ) ;
#70 = SURFACE_STYLE_USAGE ( .BOTH. , #260 ) ;
#71 = MECHANICAL_DESIGN_GEOMETRIC_PRESENTATION_REPRESENTATION (  '', ( #78 ), #214 ) ;
#72 = ORIENTED_EDGE ( 'NONE', *, *, #238, .T. ) ;
#73 = FILL_AREA_STYLE_COLOUR ( '', #258 ) ;
#74 = ORIENTED_EDGE ( 'NONE', *, *, #217, .T. ) ;
#75 =( LENGTH_UNIT ( ) NAMED_UNIT ( * ) SI_UNIT ( $, .METRE. ) );
#76 = VERTEX_POINT ( 'NONE', #164 ) ;
#77 = DIRECTION ( 'NONE',  ( -1.000000000000000000, 0.000000000000000000, 0.000000000000000000 ) ) ;
#78 = STYLED_ITEM ( 'NONE', ( #239 ), #81 ) ;
#79 = CLOSED_SHELL ( 'NONE', ( #29, #149, #42, #241 ) ) ;
#80 = CARTESIAN_POINT ( 'NONE',  ( 0.000000000000000000, 0.2165063509461085389, 0.000000000000000000 ) ) ;
#81 = ADVANCED_FACE ( 'NONE', ( #178 ), #10, .T. ) ;
#82 = FILL_AREA_STYLE ('',( #249 ) ) ;
#83 =( GEOMETRIC_REPRESENTATION_CONTEXT ( 3 ) GLOBAL_UNCERTAINTY_ASSIGNED_CONTEXT ( ( #55 ) ) GLOBAL_UNIT_ASSIGNED_CONTEXT ( ( #235, #196, #172 ) ) REPRESENTATION_CONTEXT ( 'NONE', 'WORKASPACE' ) );
#84 = DIRECTION ( 'NONE',  ( 0.000000000000000000, 0.000000000000000000, -1.000000000000000000 ) ) ;
#85 = CLOSED_SHELL ( 'NONE', ( #81, #7, #193 ) ) ;
#86 = STYLED_ITEM ( 'NONE', ( #225 ), #22 ) ;
#87 = DIRECTION ( 'NONE',  ( -1.431455849776166882E-16, 1.000000000000000000, -0.000000000000000000 ) ) ;
#88 = AXIS2_PLACEMENT_3D ( 'NONE', #188, #47, #84 ) ;
#89 =( CONVERSION_BASED_UNIT ( 'INCH', #108 ) LENGTH_UNIT ( ) NAMED_UNIT ( #186 ) );
#90 = APPLICATION_PROTOCOL_DEFINITION ( 'draft international standard', 'automotive_design', 1998, #157 ) ;
#91 = COLOUR_RGB ( '',0.7921568627450980005, 0.8196078431372548767, 0.9333333333333333481 ) ;
#92 = VERTEX_POINT ( 'NONE', #209 ) ;
#93 = CARTESIAN_POINT ( 'NONE',  ( 3.372124867179324756E-16, 0.2165063509461084279, 0.000000000000000000 ) ) ;
#94 = ORIENTED_EDGE ( 'NONE', *, *, #110, .F. ) ;
#95 =( CONVERSION_BASED_UNIT ( 'INCH', #40 ) LENGTH_UNIT ( ) NAMED_UNIT ( #16 ) );
#96 = AXIS2_PLACEMENT_3D ( 'NONE', #185, #237, #77 ) ;
#97 = PRESENTATION_STYLE_ASSIGNMENT (( #265 ) ) ;
#98 = CARTESIAN_POINT ( 'NONE',  ( 4.592425496802575451E-17, 0.2165063509461085389, -0.3750000000000000555 ) ) ;
#99 = COLOUR_RGB ( '',1.000000000000000000, 0.000000000000000000, 0.000000000000000000 ) ;
#100 = EDGE_LOOP ( 'NONE', ( #116, #202, #69, #94 ) ) ;
#101 = FILL_AREA_STYLE ('',( #73 ) ) ;
#102 = SURFACE_SIDE_STYLE ('',( #187 ) ) ;
#103 = AXIS2_PLACEMENT_3D ( 'NONE', #64, #46, #190 ) ;
#104 = LINE ( 'NONE', #207, #115 ) ;
#105 = FACE_OUTER_BOUND ( 'NONE', #20, .T. ) ;
#106 =( NAMED_UNIT ( * ) PLANE_ANGLE_UNIT ( ) SI_UNIT ( $, .RADIAN. ) );
#107 = LENGTH_MEASURE_WITH_UNIT ( LENGTH_MEASURE( 0.02539999999999999897 ), #150 );
#108 = LENGTH_MEASURE_WITH_UNIT ( LENGTH_MEASURE( 0.02539999999999999897 ), #194 );
#109 = DIRECTION ( 'NONE',  ( 1.060575238724908024E-16, 0.4999999999999979461, -0.8660254037844397068 ) ) ;
#110 = EDGE_CURVE ( 'NONE', #92, #76, #147, .T. ) ;
#111 = DIMENSIONAL_EXPONENTS ( 1.000000000000000000, 0.000000000000000000, 0.000000000000000000, 0.000000000000000000, 0.000000000000000000, 0.000000000000000000, 0.000000000000000000 ) ;
#112 = ORIENTED_EDGE ( 'NONE', *, *, #33, .T. ) ;
#113 =( NAMED_UNIT ( * ) PLANE_ANGLE_UNIT ( ) SI_UNIT ( $, .RADIAN. ) );
#114 = PRODUCT_DEFINITION_CONTEXT ( 'detailed design', #263, 'design' ) ;
#115 = VECTOR ( 'NONE', #170, 39.37007874015748854 ) ;
#116 = ORIENTED_EDGE ( 'NONE', *, *, #68, .T. ) ;
#117 = VERTEX_POINT ( 'NONE', #32 ) ;
#118 =( NAMED_UNIT ( * ) PLANE_ANGLE_UNIT ( ) SI_UNIT ( $, .RADIAN. ) );
#119 = UNCERTAINTY_MEASURE_WITH_UNIT (LENGTH_MEASURE( 1.000000000000000082E-05 ), #89, 'distance_accuracy_value', 'NONE');
#120 = FILL_AREA_STYLE ('',( #142 ) ) ;
#121 = DIRECTION ( 'NONE',  ( -1.431455849776166882E-16, 1.000000000000000000, -0.000000000000000000 ) ) ;
#122 = AXIS2_PLACEMENT_3D ( 'NONE', #34, #14, #66 ) ;
#123 = EDGE_LOOP ( 'NONE', ( #17, #162 ) ) ;
#124 = DIRECTION ( 'NONE',  ( -1.431455849776166882E-16, 1.000000000000000000, -0.000000000000000000 ) ) ;
#125 = AXIS2_PLACEMENT_3D ( 'NONE', #180, #53, #245 ) ;
#126 = SURFACE_SIDE_STYLE ('',( #244 ) ) ;
#127 = FACE_OUTER_BOUND ( 'NONE', #41, .T. ) ;
#128 = CIRCLE ( 'NONE', #176, 0.3750000000000000555 ) ;
#129 =( CONVERSION_BASED_UNIT ( 'INCH', #27 ) LENGTH_UNIT ( ) NAMED_UNIT ( #37 ) );
#130 = MECHANICAL_DESIGN_GEOMETRIC_PRESENTATION_REPRESENTATION (  '', ( #86 ), #61 ) ;
#131 = DIRECTION ( 'NONE',  ( 0.000000000000000000, 1.000000000000000000, 0.000000000000000000 ) ) ;
#132 = PLANE ( 'NONE',  #103 ) ;
#133 = PRODUCT_DEFINITION_SHAPE ( 'NONE', 'NONE',  #246 ) ;
#134 = FACE_OUTER_BOUND ( 'NONE', #158, .T. ) ;
#135 = PLANE ( 'NONE',  #122 ) ;
#136 = AXIS2_PLACEMENT_3D ( 'NONE', #247, #62, #4 ) ;
#137 = DIRECTION ( 'NONE',  ( -0.000000000000000000, -1.000000000000000000, -0.000000000000000000 ) ) ;
#138 = APPLICATION_PROTOCOL_DEFINITION ( 'draft international standard', 'automotive_design', 1998, #263 ) ;
#139 = EDGE_CURVE ( 'NONE', #117, #222, #104, .T. ) ;
#140 = FACE_OUTER_BOUND ( 'NONE', #179, .T. ) ;
#141 = MECHANICAL_DESIGN_GEOMETRIC_PRESENTATION_REPRESENTATION (  '', ( #181 ), #83 ) ;
#142 = FILL_AREA_STYLE_COLOUR ( '', #99 ) ;
#143 = SURFACE_STYLE_USAGE ( .BOTH. , #126 ) ;
#144 = FILL_AREA_STYLE_COLOUR ( '', #254 ) ;
#145 = CIRCLE ( 'NONE', #88, 0.3750000000000000555 ) ;
#146 = CARTESIAN_POINT ( 'NONE',  ( -6.123233995736772199E-17, 3.000000000000000444, 0.000000000000000000 ) ) ;
#147 = LINE ( 'NONE', #8, #204 ) ;
#148 = SURFACE_STYLE_FILL_AREA ( #248 ) ;
#149 = ADVANCED_FACE ( 'NONE', ( #105 ), #132, .F. ) ;
#150 =( LENGTH_UNIT ( ) NAMED_UNIT ( * ) SI_UNIT ( $, .METRE. ) );
#151 = PRESENTATION_LAYER_ASSIGNMENT (  '', '', ( #67 ) ) ;
#152 = MECHANICAL_DESIGN_GEOMETRIC_PRESENTATION_REPRESENTATION (  '', ( #5 ), #24 ) ;
#153 = SURFACE_STYLE_USAGE ( .BOTH. , #102 ) ;
#154 =( GEOMETRIC_REPRESENTATION_CONTEXT ( 3 ) GLOBAL_UNCERTAINTY_ASSIGNED_CONTEXT ( ( #119 ) ) GLOBAL_UNIT_ASSIGNED_CONTEXT ( ( #89, #155, #50 ) ) REPRESENTATION_CONTEXT ( 'NONE', 'WORKASPACE' ) );
#155 =( NAMED_UNIT ( * ) PLANE_ANGLE_UNIT ( ) SI_UNIT ( $, .RADIAN. ) );
#156 = PRESENTATION_LAYER_ASSIGNMENT (  '', '', ( #181 ) ) ;
#157 = APPLICATION_CONTEXT ( 'automotive_design' ) ;
#158 = EDGE_LOOP ( 'NONE', ( #112, #72 ) ) ;
#159 = CARTESIAN_POINT ( 'NONE',  ( 0.3749999999999999445, 3.000000000000000444, 4.592425496802574219E-17 ) ) ;
#160 = UNCERTAINTY_MEASURE_WITH_UNIT (LENGTH_MEASURE( 1.000000000000000082E-05 ), #36, 'distance_accuracy_value', 'NONE');
#161 = ORIENTED_EDGE ( 'NONE', *, *, #139, .F. ) ;
#162 = ORIENTED_EDGE ( 'NONE', *, *, #191, .F. ) ;
#163 = LENGTH_MEASURE_WITH_UNIT ( LENGTH_MEASURE( 0.02539999999999999897 ), #75 );
#164 = CARTESIAN_POINT ( 'NONE',  ( -0.3750000000000001110, 3.000000000000000444, 0.000000000000000000 ) ) ;
#165 = FILL_AREA_STYLE_COLOUR ( '', #91 ) ;
#166 = SURFACE_STYLE_USAGE ( .BOTH. , #226 ) ;
#167 =( NAMED_UNIT ( * ) SI_UNIT ( $, .STERADIAN. ) SOLID_ANGLE_UNIT ( ) );
#168 = AXIS2_PLACEMENT_3D ( 'NONE', #80, #137, #65 ) ;
#169 = CIRCLE ( 'NONE', #125, 0.3749999999999996114 ) ;
#170 = DIRECTION ( 'NONE',  ( 0.000000000000000000, 0.4999999999999979461, 0.8660254037844397068 ) ) ;
#171 = CARTESIAN_POINT ( 'NONE',  ( 0.000000000000000000, 0.000000000000000000, 0.000000000000000000 ) ) ;
#172 =( NAMED_UNIT ( * ) SI_UNIT ( $, .STERADIAN. ) SOLID_ANGLE_UNIT ( ) );
#173 = CARTESIAN_POINT ( 'NONE',  ( 0.3749999999999997780, 3.000000000000000444, 4.592425496802572370E-17 ) ) ;
#174 = PRESENTATION_LAYER_ASSIGNMENT (  '', '', ( #86 ) ) ;
#175 = PRODUCT_CONTEXT ( 'NONE', #157, 'mechanical' ) ;
#176 = AXIS2_PLACEMENT_3D ( 'NONE', #232, #256, #49 ) ;
#177 = EDGE_LOOP ( 'NONE', ( #161, #1, #261 ) ) ;
#178 = FACE_OUTER_BOUND ( 'NONE', #177, .T. ) ;
#179 = EDGE_LOOP ( 'NONE', ( #200, #205, #43, #236 ) ) ;
#180 = CARTESIAN_POINT ( 'NONE',  ( 3.372124867179324756E-16, 0.2165063509461084279, 0.000000000000000000 ) ) ;
#181 = STYLED_ITEM ( 'NONE', ( #30 ), #195 ) ;
#182 = CARTESIAN_POINT ( 'NONE',  ( 0.000000000000000000, 39.37007874015748143, 0.000000000000000000 ) ) ;
#183 =( LENGTH_UNIT ( ) NAMED_UNIT ( * ) SI_UNIT ( $, .METRE. ) );
#184 = SURFACE_STYLE_FILL_AREA ( #101 ) ;
#185 = CARTESIAN_POINT ( 'NONE',  ( -6.123233995736770966E-17, 3.000000000000000444, 0.000000000000000000 ) ) ;
#186 = DIMENSIONAL_EXPONENTS ( 1.000000000000000000, 0.000000000000000000, 0.000000000000000000, 0.000000000000000000, 0.000000000000000000, 0.000000000000000000, 0.000000000000000000 ) ;
#187 = SURFACE_STYLE_FILL_AREA ( #82 ) ;
#188 = CARTESIAN_POINT ( 'NONE',  ( 0.000000000000000000, 0.2165063509461085389, 0.000000000000000000 ) ) ;
#189 = AXIS2_PLACEMENT_3D ( 'NONE', #93, #57, #199 ) ;
#190 = DIRECTION ( 'NONE',  ( -1.000000000000000000, -1.431455849776166882E-16, 0.000000000000000000 ) ) ;
#191 = EDGE_CURVE ( 'NONE', #56, #222, #145, .T. ) ;
#192 = LENGTH_MEASURE_WITH_UNIT ( LENGTH_MEASURE( 0.02539999999999999897 ), #183 );
#193 = ADVANCED_FACE ( 'NONE', ( #127 ), #45, .T. ) ;
#194 =( LENGTH_UNIT ( ) NAMED_UNIT ( * ) SI_UNIT ( $, .METRE. ) );
#195 = MANIFOLD_SOLID_BREP ( 'Revolve - Cutting Edge', #85 ) ;
#196 =( NAMED_UNIT ( * ) PLANE_ANGLE_UNIT ( ) SI_UNIT ( $, .RADIAN. ) );
#197 = ORIENTED_EDGE ( 'NONE', *, *, #68, .F. ) ;
#198 = FACE_OUTER_BOUND ( 'NONE', #123, .T. ) ;
#199 = DIRECTION ( 'NONE',  ( -1.000000000000000000, -1.821231995776177451E-16, 0.000000000000000000 ) ) ;
#200 = ORIENTED_EDGE ( 'NONE', *, *, #252, .F. ) ;
#201 = FILL_AREA_STYLE ('',( #144 ) ) ;
#202 = ORIENTED_EDGE ( 'NONE', *, *, #252, .T. ) ;
#203 = DIRECTION ( 'NONE',  ( -1.000000000000000000, 0.000000000000000000, 0.000000000000000000 ) ) ;
#204 = VECTOR ( 'NONE', #12, 39.37007874015748143 ) ;
#205 = ORIENTED_EDGE ( 'NONE', *, *, #13, .T. ) ;
#206 = CARTESIAN_POINT ( 'NONE',  ( 0.3749999999999999445, 0.2165063509461084834, 4.592425496802574219E-17 ) ) ;
#207 = CARTESIAN_POINT ( 'NONE',  ( 0.000000000000000000, 0.000000000000000000, 0.000000000000000000 ) ) ;
#208 =( NAMED_UNIT ( * ) SI_UNIT ( $, .STERADIAN. ) SOLID_ANGLE_UNIT ( ) );
#209 = CARTESIAN_POINT ( 'NONE',  ( -0.3749999999999992784, 0.2165063509461083446, 0.000000000000000000 ) ) ;
#210 = VECTOR ( 'NONE', #109, 39.37007874015748854 ) ;
#211 =( NAMED_UNIT ( * ) PLANE_ANGLE_UNIT ( ) SI_UNIT ( $, .RADIAN. ) );
#212 = DIRECTION ( 'NONE',  ( 1.000000000000000000, 0.000000000000000000, 0.000000000000000000 ) ) ;
#213 = LINE ( 'NONE', #173, #9 ) ;
#214 =( GEOMETRIC_REPRESENTATION_CONTEXT ( 3 ) GLOBAL_UNCERTAINTY_ASSIGNED_CONTEXT ( ( #21 ) ) GLOBAL_UNIT_ASSIGNED_CONTEXT ( ( #95, #106, #167 ) ) REPRESENTATION_CONTEXT ( 'NONE', 'WORKASPACE' ) );
#215 = DIMENSIONAL_EXPONENTS ( 1.000000000000000000, 0.000000000000000000, 0.000000000000000000, 0.000000000000000000, 0.000000000000000000, 0.000000000000000000, 0.000000000000000000 ) ;
#216 = SHAPE_DEFINITION_REPRESENTATION ( #133, #31 ) ;
#217 = EDGE_CURVE ( 'NONE', #222, #56, #48, .T. ) ;
#218 = UNCERTAINTY_MEASURE_WITH_UNIT (LENGTH_MEASURE( 1.000000000000000082E-05 ), #129, 'distance_accuracy_value', 'NONE');
#219 = ORIENTED_EDGE ( 'NONE', *, *, #259, .F. ) ;
#220 = DIRECTION ( 'NONE',  ( -1.000000000000000000, 0.000000000000000000, 0.000000000000000000 ) ) ;
#221 = PRESENTATION_LAYER_ASSIGNMENT (  '', '', ( #78 ) ) ;
#222 = VERTEX_POINT ( 'NONE', #255 ) ;
#223 = SURFACE_SIDE_STYLE ('',( #23 ) ) ;
#224 = FACE_OUTER_BOUND ( 'NONE', #100, .T. ) ;
#225 = PRESENTATION_STYLE_ASSIGNMENT (( #143 ) ) ;
#226 = SURFACE_SIDE_STYLE ('',( #148 ) ) ;
#227 = AXIS2_PLACEMENT_3D ( 'NONE', #182, #131, #11 ) ;
#228 =( LENGTH_UNIT ( ) NAMED_UNIT ( * ) SI_UNIT ( $, .METRE. ) );
#229 =( GEOMETRIC_REPRESENTATION_CONTEXT ( 3 ) GLOBAL_UNCERTAINTY_ASSIGNED_CONTEXT ( ( #218 ) ) GLOBAL_UNIT_ASSIGNED_CONTEXT ( ( #129, #211, #208 ) ) REPRESENTATION_CONTEXT ( 'NONE', 'WORKASPACE' ) );
#230 = PRESENTATION_LAYER_ASSIGNMENT (  '', '', ( #5 ) ) ;
#231 = LINE ( 'NONE', #171, #210 ) ;
#232 = CARTESIAN_POINT ( 'NONE',  ( -6.123233995736770966E-17, 3.000000000000000444, 0.000000000000000000 ) ) ;
#233 = CIRCLE ( 'NONE', #189, 0.3749999999999996114 ) ;
#234 = AXIS2_PLACEMENT_3D ( 'NONE', #39, #26, #60 ) ;
#235 =( CONVERSION_BASED_UNIT ( 'INCH', #107 ) LENGTH_UNIT ( ) NAMED_UNIT ( #111 ) );
#236 = ORIENTED_EDGE ( 'NONE', *, *, #238, .F. ) ;
#237 = DIRECTION ( 'NONE',  ( -1.431455849776166882E-16, 1.000000000000000000, -0.000000000000000000 ) ) ;
#238 = EDGE_CURVE ( 'NONE', #25, #76, #128, .T. ) ;
#239 = PRESENTATION_STYLE_ASSIGNMENT (( #70 ) ) ;
#240 = CIRCLE ( 'NONE', #96, 0.3750000000000000555 ) ;
#241 = ADVANCED_FACE ( 'NONE', ( #134 ), #135, .F. ) ;
#242 = ORIENTED_EDGE ( 'NONE', *, *, #13, .F. ) ;
#243 = ORIENTED_EDGE ( 'NONE', *, *, #139, .T. ) ;
#244 = SURFACE_STYLE_FILL_AREA ( #201 ) ;
#245 = DIRECTION ( 'NONE',  ( -1.000000000000000000, -1.821231995776177451E-16, 0.000000000000000000 ) ) ;
#246 = PRODUCT_DEFINITION ( 'UNKNOWN', '', #15, #114 ) ;
#247 = CARTESIAN_POINT ( 'NONE',  ( 0.000000000000000000, 39.37007874015748143, 0.000000000000000000 ) ) ;
#248 = FILL_AREA_STYLE ('',( #165 ) ) ;
#249 = FILL_AREA_STYLE_COLOUR ( '', #250 ) ;
#250 = COLOUR_RGB ( '',1.000000000000000000, 0.000000000000000000, 0.000000000000000000 ) ;
#251 = DIRECTION ( 'NONE',  ( 0.000000000000000000, 0.000000000000000000, 1.000000000000000000 ) ) ;
#252 = EDGE_CURVE ( 'NONE', #58, #25, #213, .T. ) ;
#253 = PRODUCT ( '06543', '06543', '', ( #175 ) ) ;
#254 = COLOUR_RGB ( '',0.7921568627450980005, 0.8196078431372548767, 0.9333333333333333481 ) ;
#255 = CARTESIAN_POINT ( 'NONE',  ( 0.000000000000000000, 0.2165063509461085389, 0.3750000000000000555 ) ) ;
#256 = DIRECTION ( 'NONE',  ( -1.431455849776166882E-16, 1.000000000000000000, -0.000000000000000000 ) ) ;
#257 = DIMENSIONAL_EXPONENTS ( 1.000000000000000000, 0.000000000000000000, 0.000000000000000000, 0.000000000000000000, 0.000000000000000000, 0.000000000000000000, 0.000000000000000000 ) ;
#258 = COLOUR_RGB ( '',1.000000000000000000, 0.000000000000000000, 0.000000000000000000 ) ;
#259 = EDGE_CURVE ( 'NONE', #117, #56, #231, .T. ) ;
#260 = SURFACE_SIDE_STYLE ('',( #184 ) ) ;
#261 = ORIENTED_EDGE ( 'NONE', *, *, #191, .T. ) ;
#262 =( NAMED_UNIT ( * ) SI_UNIT ( $, .STERADIAN. ) SOLID_ANGLE_UNIT ( ) );
#263 = APPLICATION_CONTEXT ( 'automotive_design' ) ;
#264 = AXIS2_PLACEMENT_3D ( 'NONE', #59, #124, #220 ) ;
#265 = SURFACE_STYLE_USAGE ( .BOTH. , #223 ) ;
ENDSEC;
END-ISO-10303-21;
