ISO-10303-21;
HEADER;
FILE_DESCRIPTION (( 'STEP AP214' ),
    '1' );
FILE_NAME ('84388.STEP',
    '2023-06-23T12:49:55',
    ( '' ),
    ( '' ),
    'SwSTEP 2.0',
    'SolidWorks 2023',
    '' );
FILE_SCHEMA (( 'AUTOMOTIVE_DESIGN' ));
ENDSEC;

DATA;
#1 = DIRECTION ( 'NONE',  ( -1.000000000000000000, 0.000000000000000000, 0.000000000000000000 ) ) ;
#2 = EDGE_CURVE ( 'NONE', #18, #255, #44, .T. ) ;
#3 = EDGE_CURVE ( 'NONE', #200, #176, #206, .T. ) ;
#4 = SURFACE_STYLE_USAGE ( .BOTH. , #308 ) ;
#5 = DIRECTION ( 'NONE',  ( -1.000000000000000000, 0.000000000000000000, 0.000000000000000000 ) ) ;
#6 =( GEOMETRIC_REPRESENTATION_CONTEXT ( 3 ) GLOBAL_UNCERTAINTY_ASSIGNED_CONTEXT ( ( #96 ) ) GLOBAL_UNIT_ASSIGNED_CONTEXT ( ( #148, #215, #292 ) ) REPRESENTATION_CONTEXT ( 'NONE', 'WORKASPACE' ) );
#7 = FILL_AREA_STYLE_COLOUR ( '', #68 ) ;
#8 = SURFACE_SIDE_STYLE ('',( #220 ) ) ;
#9 = CARTESIAN_POINT ( 'NONE',  ( 0.000000000000000000, 0.000000000000000000, -0.09375000000000001388 ) ) ;
#10 =( NAMED_UNIT ( * ) PLANE_ANGLE_UNIT ( ) SI_UNIT ( $, .RADIAN. ) );
#11 = FILL_AREA_STYLE_COLOUR ( '', #213 ) ;
#12 = DIRECTION ( 'NONE',  ( -0.000000000000000000, -1.000000000000000000, -0.000000000000000000 ) ) ;
#13 = CIRCLE ( 'NONE', #160, 0.09375000000000005551 ) ;
#14 = ORIENTED_EDGE ( 'NONE', *, *, #2, .T. ) ;
#15 = ORIENTED_EDGE ( 'NONE', *, *, #54, .T. ) ;
#16 = DIRECTION ( 'NONE',  ( 0.000000000000000000, 1.000000000000000000, 0.000000000000000000 ) ) ;
#17 = EDGE_LOOP ( 'NONE', ( #228, #79 ) ) ;
#18 = VERTEX_POINT ( 'NONE', #203 ) ;
#19 =( LENGTH_UNIT ( ) NAMED_UNIT ( * ) SI_UNIT ( $, .METRE. ) );
#20 =( NAMED_UNIT ( * ) PLANE_ANGLE_UNIT ( ) SI_UNIT ( $, .RADIAN. ) );
#21 =( LENGTH_UNIT ( ) NAMED_UNIT ( * ) SI_UNIT ( $, .METRE. ) );
#22 = MECHANICAL_DESIGN_GEOMETRIC_PRESENTATION_REPRESENTATION (  '', ( #290 ), #6 ) ;
#23 = APPLICATION_PROTOCOL_DEFINITION ( 'draft international standard', 'automotive_design', 1998, #191 ) ;
#24 = CARTESIAN_POINT ( 'NONE',  ( 0.000000000000000000, 0.5625000000000001110, 0.000000000000000000 ) ) ;
#25 = EDGE_CURVE ( 'NONE', #113, #18, #78, .T. ) ;
#26 = FACE_OUTER_BOUND ( 'NONE', #41, .T. ) ;
#27 = UNCERTAINTY_MEASURE_WITH_UNIT (LENGTH_MEASURE( 1.000000000000000082E-05 ), #91, 'distance_accuracy_value', 'NONE');
#28 = MECHANICAL_DESIGN_GEOMETRIC_PRESENTATION_REPRESENTATION (  '', ( #103 ), #164 ) ;
#29 =( GEOMETRIC_REPRESENTATION_CONTEXT ( 3 ) GLOBAL_UNCERTAINTY_ASSIGNED_CONTEXT ( ( #262 ) ) GLOBAL_UNIT_ASSIGNED_CONTEXT ( ( #280, #20, #258 ) ) REPRESENTATION_CONTEXT ( 'NONE', 'WORKASPACE' ) );
#30 = EDGE_CURVE ( 'NONE', #135, #108, #136, .T. ) ;
#31 = LENGTH_MEASURE_WITH_UNIT ( LENGTH_MEASURE( 0.02539999999999999897 ), #214 );
#32 = CYLINDRICAL_SURFACE ( 'NONE', #35, 0.09374999999999998612 ) ;
#33 =( LENGTH_UNIT ( ) NAMED_UNIT ( * ) SI_UNIT ( $, .METRE. ) );
#34 = UNCERTAINTY_MEASURE_WITH_UNIT (LENGTH_MEASURE( 1.000000000000000082E-05 ), #294, 'distance_accuracy_value', 'NONE');
#35 = AXIS2_PLACEMENT_3D ( 'NONE', #125, #194, #149 ) ;
#36 = ADVANCED_FACE ( 'NONE', ( #304 ), #117, .F. ) ;
#37 = SURFACE_STYLE_FILL_AREA ( #253 ) ;
#38 = CLOSED_SHELL ( 'NONE', ( #144, #254, #141, #193 ) ) ;
#39 = CARTESIAN_POINT ( 'NONE',  ( 0.000000000000000000, 0.000000000000000000, 0.000000000000000000 ) ) ;
#40 =( NAMED_UNIT ( * ) PLANE_ANGLE_UNIT ( ) SI_UNIT ( $, .RADIAN. ) );
#41 = EDGE_LOOP ( 'NONE', ( #199, #15, #278, #65 ) ) ;
#42 =( LENGTH_UNIT ( ) NAMED_UNIT ( * ) SI_UNIT ( $, .METRE. ) );
#43 = COLOUR_RGB ( '',0.7921568627450980005, 0.8196078431372548767, 0.9333333333333333481 ) ;
#44 = LINE ( 'NONE', #137, #155 ) ;
#45 = DIRECTION ( 'NONE',  ( -3.160378836509298460E-17, 1.000000000000000000, -0.000000000000000000 ) ) ;
#46 = PRESENTATION_STYLE_ASSIGNMENT (( #281 ) ) ;
#47 = PRESENTATION_STYLE_ASSIGNMENT (( #4 ) ) ;
#48 = EDGE_CURVE ( 'NONE', #176, #135, #52, .T. ) ;
#49 = CYLINDRICAL_SURFACE ( 'NONE', #183, 0.09375000000000002776 ) ;
#50 =( GEOMETRIC_REPRESENTATION_CONTEXT ( 3 ) GLOBAL_UNCERTAINTY_ASSIGNED_CONTEXT ( ( #27 ) ) GLOBAL_UNIT_ASSIGNED_CONTEXT ( ( #91, #210, #114 ) ) REPRESENTATION_CONTEXT ( 'NONE', 'WORKASPACE' ) );
#51 = UNCERTAINTY_MEASURE_WITH_UNIT (LENGTH_MEASURE( 1.000000000000000082E-05 ), #58, 'distance_accuracy_value', 'NONE');
#52 = LINE ( 'NONE', #307, #122 ) ;
#53 = CARTESIAN_POINT ( 'NONE',  ( -6.123233995736766036E-17, 2.500000000000000000, 0.000000000000000000 ) ) ;
#54 = EDGE_CURVE ( 'NONE', #176, #200, #295, .T. ) ;
#55 = SURFACE_STYLE_USAGE ( .BOTH. , #8 ) ;
#56 = SURFACE_STYLE_FILL_AREA ( #119 ) ;
#57 = DIMENSIONAL_EXPONENTS ( 1.000000000000000000, 0.000000000000000000, 0.000000000000000000, 0.000000000000000000, 0.000000000000000000, 0.000000000000000000, 0.000000000000000000 ) ;
#58 =( CONVERSION_BASED_UNIT ( 'INCH', #31 ) LENGTH_UNIT ( ) NAMED_UNIT ( #285 ) );
#59 = AXIS2_PLACEMENT_3D ( 'NONE', #175, #173, #151 ) ;
#60 = SURFACE_STYLE_USAGE ( .BOTH. , #244 ) ;
#61 =( LENGTH_UNIT ( ) NAMED_UNIT ( * ) SI_UNIT ( $, .METRE. ) );
#62 = ORIENTED_EDGE ( 'NONE', *, *, #25, .F. ) ;
#63 = VECTOR ( 'NONE', #275, 39.37007874015748143 ) ;
#64 = DIRECTION ( 'NONE',  ( 0.000000000000000000, -1.000000000000000000, -0.000000000000000000 ) ) ;
#65 = ORIENTED_EDGE ( 'NONE', *, *, #30, .F. ) ;
#66 = DIRECTION ( 'NONE',  ( -0.000000000000000000, -1.000000000000000000, -0.000000000000000000 ) ) ;
#67 = ORIENTED_EDGE ( 'NONE', *, *, #3, .T. ) ;
#68 = COLOUR_RGB ( '',1.000000000000000000, 0.000000000000000000, 0.000000000000000000 ) ;
#69 = DIRECTION ( 'NONE',  ( 0.000000000000000000, 0.000000000000000000, -1.000000000000000000 ) ) ;
#70 = DIRECTION ( 'NONE',  ( -3.160378836509298460E-17, 1.000000000000000000, -0.000000000000000000 ) ) ;
#71 = DIMENSIONAL_EXPONENTS ( 1.000000000000000000, 0.000000000000000000, 0.000000000000000000, 0.000000000000000000, 0.000000000000000000, 0.000000000000000000, 0.000000000000000000 ) ;
#72 = PRESENTATION_LAYER_ASSIGNMENT (  '', '', ( #103 ) ) ;
#73 =( LENGTH_UNIT ( ) NAMED_UNIT ( * ) SI_UNIT ( $, .METRE. ) );
#74 = AXIS2_PLACEMENT_3D ( 'NONE', #182, #120, #166 ) ;
#75 = UNCERTAINTY_MEASURE_WITH_UNIT (LENGTH_MEASURE( 1.000000000000000082E-05 ), #129, 'distance_accuracy_value', 'NONE');
#76 = CARTESIAN_POINT ( 'NONE',  ( 0.000000000000000000, 0.5625000000000000000, -0.09374999999999998612 ) ) ;
#77 = DIRECTION ( 'NONE',  ( 0.000000000000000000, 0.000000000000000000, -1.000000000000000000 ) ) ;
#78 = CIRCLE ( 'NONE', #195, 0.09374999999999998612 ) ;
#79 = ORIENTED_EDGE ( 'NONE', *, *, #227, .T. ) ;
#80 = FACE_OUTER_BOUND ( 'NONE', #110, .T. ) ;
#81 = ORIENTED_EDGE ( 'NONE', *, *, #197, .T. ) ;
#82 = FACE_OUTER_BOUND ( 'NONE', #154, .T. ) ;
#83 = EDGE_LOOP ( 'NONE', ( #67, #174, #276, #159 ) ) ;
#84 = LINE ( 'NONE', #178, #63 ) ;
#85 = AXIS2_PLACEMENT_3D ( 'NONE', #24, #309, #186 ) ;
#86 = COLOUR_RGB ( '',0.7921568627450980005, 0.8196078431372548767, 0.9333333333333333481 ) ;
#87 = ORIENTED_EDGE ( 'NONE', *, *, #303, .F. ) ;
#88 =( NAMED_UNIT ( * ) SI_UNIT ( $, .STERADIAN. ) SOLID_ANGLE_UNIT ( ) );
#89 = AXIS2_PLACEMENT_3D ( 'NONE', #39, #64, #271 ) ;
#90 = DIRECTION ( 'NONE',  ( -1.000000000000000000, 0.000000000000000000, 0.000000000000000000 ) ) ;
#91 =( CONVERSION_BASED_UNIT ( 'INCH', #188 ) LENGTH_UNIT ( ) NAMED_UNIT ( #165 ) );
#92 = ADVANCED_FACE ( 'NONE', ( #26 ), #284, .T. ) ;
#93 = CARTESIAN_POINT ( 'NONE',  ( -6.123233995736766036E-17, 2.500000000000000000, 0.000000000000000000 ) ) ;
#94 = CARTESIAN_POINT ( 'NONE',  ( -6.123233995736766036E-17, 2.500000000000000000, 0.000000000000000000 ) ) ;
#95 = CIRCLE ( 'NONE', #267, 0.09375000000000001388 ) ;
#96 = UNCERTAINTY_MEASURE_WITH_UNIT (LENGTH_MEASURE( 1.000000000000000082E-05 ), #148, 'distance_accuracy_value', 'NONE');
#97 = SURFACE_STYLE_FILL_AREA ( #266 ) ;
#98 = MANIFOLD_SOLID_BREP ( 'Revolve - Cutting Edge', #38 ) ;
#99 = FILL_AREA_STYLE_COLOUR ( '', #242 ) ;
#100 = DIRECTION ( 'NONE',  ( -0.000000000000000000, -1.000000000000000000, -0.000000000000000000 ) ) ;
#101 = FACE_OUTER_BOUND ( 'NONE', #17, .T. ) ;
#102 = ADVANCED_FACE ( 'NONE', ( #286 ), #49, .T. ) ;
#103 = STYLED_ITEM ( 'NONE', ( #169 ), #144 ) ;
#104 = CYLINDRICAL_SURFACE ( 'NONE', #189, 0.09374999999999998612 ) ;
#105 = AXIS2_PLACEMENT_3D ( 'NONE', #202, #66, #302 ) ;
#106 = LINE ( 'NONE', #156, #232 ) ;
#107 = EDGE_CURVE ( 'NONE', #108, #135, #13, .T. ) ;
#108 = VERTEX_POINT ( 'NONE', #190 ) ;
#109 = DIRECTION ( 'NONE',  ( 0.000000000000000000, -0.000000000000000000, 1.000000000000000000 ) ) ;
#110 = EDGE_LOOP ( 'NONE', ( #62, #229 ) ) ;
#111 = PLANE ( 'NONE',  #296 ) ;
#112 = MECHANICAL_DESIGN_GEOMETRIC_PRESENTATION_REPRESENTATION (  '', ( #236 ), #50 ) ;
#113 = VERTEX_POINT ( 'NONE', #76 ) ;
#114 =( NAMED_UNIT ( * ) SI_UNIT ( $, .STERADIAN. ) SOLID_ANGLE_UNIT ( ) );
#115 = DIMENSIONAL_EXPONENTS ( 1.000000000000000000, 0.000000000000000000, 0.000000000000000000, 0.000000000000000000, 0.000000000000000000, 0.000000000000000000, 0.000000000000000000 ) ;
#116 = PRESENTATION_LAYER_ASSIGNMENT (  '', '', ( #236 ) ) ;
#117 = PLANE ( 'NONE',  #74 ) ;
#118 = LENGTH_MEASURE_WITH_UNIT ( LENGTH_MEASURE( 0.02539999999999999897 ), #19 );
#119 = FILL_AREA_STYLE ('',( #237 ) ) ;
#120 = DIRECTION ( 'NONE',  ( 3.160378836509298460E-17, -1.000000000000000000, 0.000000000000000000 ) ) ;
#121 = DIRECTION ( 'NONE',  ( -3.160378836509298460E-17, 1.000000000000000000, -0.000000000000000000 ) ) ;
#122 = VECTOR ( 'NONE', #234, 39.37007874015748143 ) ;
#123 = CIRCLE ( 'NONE', #105, 0.09375000000000001388 ) ;
#124 =( NAMED_UNIT ( * ) SI_UNIT ( $, .STERADIAN. ) SOLID_ANGLE_UNIT ( ) );
#125 = CARTESIAN_POINT ( 'NONE',  ( 0.000000000000000000, 0.000000000000000000, 0.000000000000000000 ) ) ;
#126 = UNCERTAINTY_MEASURE_WITH_UNIT (LENGTH_MEASURE( 1.000000000000000082E-05 ), #181, 'distance_accuracy_value', 'NONE');
#127 = PRESENTATION_LAYER_ASSIGNMENT (  '', '', ( #290 ) ) ;
#128 = AXIS2_PLACEMENT_3D ( 'NONE', #283, #209, #204 ) ;
#129 =( CONVERSION_BASED_UNIT ( 'INCH', #134 ) LENGTH_UNIT ( ) NAMED_UNIT ( #235 ) );
#130 =( NAMED_UNIT ( * ) SI_UNIT ( $, .STERADIAN. ) SOLID_ANGLE_UNIT ( ) );
#131 = ORIENTED_EDGE ( 'NONE', *, *, #30, .T. ) ;
#132 = CARTESIAN_POINT ( 'NONE',  ( 0.000000000000000000, 0.5625000000000000000, 0.000000000000000000 ) ) ;
#133 = VERTEX_POINT ( 'NONE', #9 ) ;
#134 = LENGTH_MEASURE_WITH_UNIT ( LENGTH_MEASURE( 0.02539999999999999897 ), #73 );
#135 = VERTEX_POINT ( 'NONE', #268 ) ;
#136 = CIRCLE ( 'NONE', #279, 0.09375000000000005551 ) ;
#137 = CARTESIAN_POINT ( 'NONE',  ( 1.148106374200643401E-17, 0.000000000000000000, 0.09374999999999998612 ) ) ;
#138 = FILL_AREA_STYLE_COLOUR ( '', #43 ) ;
#139 = PRODUCT ( '84388', '84388', '', ( #187 ) ) ;
#140 =( NAMED_UNIT ( * ) PLANE_ANGLE_UNIT ( ) SI_UNIT ( $, .RADIAN. ) );
#141 = ADVANCED_FACE ( 'NONE', ( #222 ), #104, .T. ) ;
#142 = DIRECTION ( 'NONE',  ( -0.000000000000000000, -1.000000000000000000, -0.000000000000000000 ) ) ;
#143 = CARTESIAN_POINT ( 'NONE',  ( -6.123233995736766036E-17, 2.500000000000000000, 0.000000000000000000 ) ) ;
#144 = ADVANCED_FACE ( 'NONE', ( #261 ), #32, .T. ) ;
#145 =( GEOMETRIC_REPRESENTATION_CONTEXT ( 3 ) GLOBAL_UNCERTAINTY_ASSIGNED_CONTEXT ( ( #75 ) ) GLOBAL_UNIT_ASSIGNED_CONTEXT ( ( #129, #40, #230 ) ) REPRESENTATION_CONTEXT ( 'NONE', 'WORKASPACE' ) );
#146 =( GEOMETRIC_REPRESENTATION_CONTEXT ( 3 ) GLOBAL_UNCERTAINTY_ASSIGNED_CONTEXT ( ( #126 ) ) GLOBAL_UNIT_ASSIGNED_CONTEXT ( ( #181, #140, #88 ) ) REPRESENTATION_CONTEXT ( 'NONE', 'WORKASPACE' ) );
#147 = SURFACE_STYLE_USAGE ( .BOTH. , #216 ) ;
#148 =( CONVERSION_BASED_UNIT ( 'INCH', #170 ) LENGTH_UNIT ( ) NAMED_UNIT ( #71 ) );
#149 = DIRECTION ( 'NONE',  ( 0.000000000000000000, 0.000000000000000000, -1.000000000000000000 ) ) ;
#150 = AXIS2_PLACEMENT_3D ( 'NONE', #248, #12, #251 ) ;
#151 = DIRECTION ( 'NONE',  ( -1.000000000000000000, -3.160378836509298460E-17, 0.000000000000000000 ) ) ;
#152 = EDGE_LOOP ( 'NONE', ( #180, #14, #87, #299 ) ) ;
#153 = CARTESIAN_POINT ( 'NONE',  ( -0.09374999999999998612, 0.5625000000000001110, 0.000000000000000000 ) ) ;
#154 = EDGE_LOOP ( 'NONE', ( #270, #297 ) ) ;
#155 = VECTOR ( 'NONE', #233, 39.37007874015748143 ) ;
#156 = CARTESIAN_POINT ( 'NONE',  ( 0.000000000000000000, 0.000000000000000000, -0.09374999999999998612 ) ) ;
#157 = DIRECTION ( 'NONE',  ( 0.000000000000000000, 0.000000000000000000, -1.000000000000000000 ) ) ;
#158 = ORIENTED_EDGE ( 'NONE', *, *, #2, .F. ) ;
#159 = ORIENTED_EDGE ( 'NONE', *, *, #282, .F. ) ;
#160 = AXIS2_PLACEMENT_3D ( 'NONE', #93, #70, #240 ) ;
#161 = ADVANCED_BREP_SHAPE_REPRESENTATION ( '84388', ( #98, #306, #128 ), #146 ) ;
#162 = FILL_AREA_STYLE_COLOUR ( '', #86 ) ;
#163 = SURFACE_STYLE_FILL_AREA ( #260 ) ;
#164 =( GEOMETRIC_REPRESENTATION_CONTEXT ( 3 ) GLOBAL_UNCERTAINTY_ASSIGNED_CONTEXT ( ( #51 ) ) GLOBAL_UNIT_ASSIGNED_CONTEXT ( ( #58, #10, #124 ) ) REPRESENTATION_CONTEXT ( 'NONE', 'WORKASPACE' ) );
#165 = DIMENSIONAL_EXPONENTS ( 1.000000000000000000, 0.000000000000000000, 0.000000000000000000, 0.000000000000000000, 0.000000000000000000, 0.000000000000000000, 0.000000000000000000 ) ;
#166 = DIRECTION ( 'NONE',  ( 1.000000000000000000, 3.160378836509298460E-17, 0.000000000000000000 ) ) ;
#167 = CIRCLE ( 'NONE', #150, 0.09374999999999998612 ) ;
#168 = PRODUCT_DEFINITION_FORMATION_WITH_SPECIFIED_SOURCE ( 'ANY', '', #139, .NOT_KNOWN. ) ;
#169 = PRESENTATION_STYLE_ASSIGNMENT (( #55 ) ) ;
#170 = LENGTH_MEASURE_WITH_UNIT ( LENGTH_MEASURE( 0.02539999999999999897 ), #33 );
#171 = CLOSED_SHELL ( 'NONE', ( #102, #218, #92, #36 ) ) ;
#172 = MECHANICAL_DESIGN_GEOMETRIC_PRESENTATION_REPRESENTATION (  '', ( #291 ), #29 ) ;
#173 = DIRECTION ( 'NONE',  ( -3.160378836509298460E-17, 1.000000000000000000, 0.000000000000000000 ) ) ;
#174 = ORIENTED_EDGE ( 'NONE', *, *, #48, .T. ) ;
#175 = CARTESIAN_POINT ( 'NONE',  ( 4.681872370432437241E-35, 0.5625000000000000000, 0.000000000000000000 ) ) ;
#176 = VERTEX_POINT ( 'NONE', #245 ) ;
#177 = ORIENTED_EDGE ( 'NONE', *, *, #219, .T. ) ;
#178 = CARTESIAN_POINT ( 'NONE',  ( -0.09375000000000009714, 2.500000000000000000, 0.000000000000000000 ) ) ;
#179 = CARTESIAN_POINT ( 'NONE',  ( 0.000000000000000000, 0.000000000000000000, 0.000000000000000000 ) ) ;
#180 = ORIENTED_EDGE ( 'NONE', *, *, #25, .T. ) ;
#181 =( CONVERSION_BASED_UNIT ( 'INCH', #118 ) LENGTH_UNIT ( ) NAMED_UNIT ( #57 ) );
#182 = CARTESIAN_POINT ( 'NONE',  ( 0.09374999999999998612, 2.500000000000000000, 0.000000000000000000 ) ) ;
#183 = AXIS2_PLACEMENT_3D ( 'NONE', #143, #238, #1 ) ;
#184 = FILL_AREA_STYLE ('',( #162 ) ) ;
#185 =( GEOMETRIC_REPRESENTATION_CONTEXT ( 3 ) GLOBAL_UNCERTAINTY_ASSIGNED_CONTEXT ( ( #34 ) ) GLOBAL_UNIT_ASSIGNED_CONTEXT ( ( #294, #249, #130 ) ) REPRESENTATION_CONTEXT ( 'NONE', 'WORKASPACE' ) );
#186 = DIRECTION ( 'NONE',  ( -1.000000000000000000, 0.000000000000000000, 0.000000000000000000 ) ) ;
#187 = PRODUCT_CONTEXT ( 'NONE', #263, 'mechanical' ) ;
#188 = LENGTH_MEASURE_WITH_UNIT ( LENGTH_MEASURE( 0.02539999999999999897 ), #21 );
#189 = AXIS2_PLACEMENT_3D ( 'NONE', #247, #100, #77 ) ;
#190 = CARTESIAN_POINT ( 'NONE',  ( -0.09375000000000012490, 2.500000000000000000, 0.000000000000000000 ) ) ;
#191 = APPLICATION_CONTEXT ( 'automotive_design' ) ;
#192 = PRESENTATION_STYLE_ASSIGNMENT (( #60 ) ) ;
#193 = ADVANCED_FACE ( 'NONE', ( #101 ), #293, .T. ) ;
#194 = DIRECTION ( 'NONE',  ( -0.000000000000000000, -1.000000000000000000, -0.000000000000000000 ) ) ;
#195 = AXIS2_PLACEMENT_3D ( 'NONE', #212, #142, #69 ) ;
#196 = PRESENTATION_LAYER_ASSIGNMENT (  '', '', ( #257 ) ) ;
#197 = EDGE_CURVE ( 'NONE', #18, #113, #167, .T. ) ;
#198 = STYLED_ITEM ( 'NONE', ( #192 ), #193 ) ;
#199 = ORIENTED_EDGE ( 'NONE', *, *, #48, .F. ) ;
#200 = VERTEX_POINT ( 'NONE', #153 ) ;
#201 = PRESENTATION_LAYER_ASSIGNMENT (  '', '', ( #198 ) ) ;
#202 = CARTESIAN_POINT ( 'NONE',  ( 0.000000000000000000, 0.000000000000000000, 0.000000000000000000 ) ) ;
#203 = CARTESIAN_POINT ( 'NONE',  ( 1.148106374200643401E-17, 0.5625000000000000000, 0.09374999999999998612 ) ) ;
#204 = DIRECTION ( 'NONE',  ( 1.000000000000000000, 0.000000000000000000, 0.000000000000000000 ) ) ;
#205 = DIRECTION ( 'NONE',  ( -3.160378836509298460E-17, 1.000000000000000000, -0.000000000000000000 ) ) ;
#206 = CIRCLE ( 'NONE', #85, 0.09374999999999998612 ) ;
#207 = SURFACE_STYLE_FILL_AREA ( #184 ) ;
#208 = CARTESIAN_POINT ( 'NONE',  ( 0.000000000000000000, 0.5625000000000001110, 0.000000000000000000 ) ) ;
#209 = DIRECTION ( 'NONE',  ( 0.000000000000000000, 0.000000000000000000, 1.000000000000000000 ) ) ;
#210 =( NAMED_UNIT ( * ) PLANE_ANGLE_UNIT ( ) SI_UNIT ( $, .RADIAN. ) );
#211 = LENGTH_MEASURE_WITH_UNIT ( LENGTH_MEASURE( 0.02539999999999999897 ), #42 );
#212 = CARTESIAN_POINT ( 'NONE',  ( 0.000000000000000000, 0.5625000000000000000, 0.000000000000000000 ) ) ;
#213 = COLOUR_RGB ( '',1.000000000000000000, 0.000000000000000000, 0.000000000000000000 ) ;
#214 =( LENGTH_UNIT ( ) NAMED_UNIT ( * ) SI_UNIT ( $, .METRE. ) );
#215 =( NAMED_UNIT ( * ) PLANE_ANGLE_UNIT ( ) SI_UNIT ( $, .RADIAN. ) );
#216 = SURFACE_SIDE_STYLE ('',( #56 ) ) ;
#217 = FILL_AREA_STYLE ('',( #7 ) ) ;
#218 = ADVANCED_FACE ( 'NONE', ( #82 ), #272, .F. ) ;
#219 = EDGE_CURVE ( 'NONE', #113, #133, #106, .T. ) ;
#220 = SURFACE_STYLE_FILL_AREA ( #217 ) ;
#221 = PRESENTATION_STYLE_ASSIGNMENT (( #298 ) ) ;
#222 = FACE_OUTER_BOUND ( 'NONE', #274, .T. ) ;
#223 = DIRECTION ( 'NONE',  ( -0.000000000000000000, -1.000000000000000000, -0.000000000000000000 ) ) ;
#224 = EDGE_LOOP ( 'NONE', ( #231, #131 ) ) ;
#225 = PRESENTATION_LAYER_ASSIGNMENT (  '', '', ( #291 ) ) ;
#226 = SURFACE_SIDE_STYLE ('',( #37 ) ) ;
#227 = EDGE_CURVE ( 'NONE', #255, #133, #95, .T. ) ;
#228 = ORIENTED_EDGE ( 'NONE', *, *, #303, .T. ) ;
#229 = ORIENTED_EDGE ( 'NONE', *, *, #197, .F. ) ;
#230 =( NAMED_UNIT ( * ) SI_UNIT ( $, .STERADIAN. ) SOLID_ANGLE_UNIT ( ) );
#231 = ORIENTED_EDGE ( 'NONE', *, *, #107, .T. ) ;
#232 = VECTOR ( 'NONE', #223, 39.37007874015748143 ) ;
#233 = DIRECTION ( 'NONE',  ( -0.000000000000000000, -1.000000000000000000, -0.000000000000000000 ) ) ;
#234 = DIRECTION ( 'NONE',  ( -3.160378836509298460E-17, 1.000000000000000000, -0.000000000000000000 ) ) ;
#235 = DIMENSIONAL_EXPONENTS ( 1.000000000000000000, 0.000000000000000000, 0.000000000000000000, 0.000000000000000000, 0.000000000000000000, 0.000000000000000000, 0.000000000000000000 ) ;
#236 = STYLED_ITEM ( 'NONE', ( #46 ), #98 ) ;
#237 = FILL_AREA_STYLE_COLOUR ( '', #273 ) ;
#238 = DIRECTION ( 'NONE',  ( -3.160378836509298460E-17, 1.000000000000000000, -0.000000000000000000 ) ) ;
#239 = SHAPE_DEFINITION_REPRESENTATION ( #241, #161 ) ;
#240 = DIRECTION ( 'NONE',  ( -1.000000000000000000, 0.000000000000000000, 0.000000000000000000 ) ) ;
#241 = PRODUCT_DEFINITION_SHAPE ( 'NONE', 'NONE',  #300 ) ;
#242 = COLOUR_RGB ( '',1.000000000000000000, 0.000000000000000000, 0.000000000000000000 ) ;
#243 = MECHANICAL_DESIGN_GEOMETRIC_PRESENTATION_REPRESENTATION (  '', ( #257 ), #185 ) ;
#244 = SURFACE_SIDE_STYLE ('',( #97 ) ) ;
#245 = CARTESIAN_POINT ( 'NONE',  ( 0.09374999999999998612, 0.5625000000000001110, 1.148106374200644171E-17 ) ) ;
#246 = MECHANICAL_DESIGN_GEOMETRIC_PRESENTATION_REPRESENTATION (  '', ( #198 ), #145 ) ;
#247 = CARTESIAN_POINT ( 'NONE',  ( 0.000000000000000000, 0.000000000000000000, 0.000000000000000000 ) ) ;
#248 = CARTESIAN_POINT ( 'NONE',  ( 0.000000000000000000, 0.5625000000000000000, 0.000000000000000000 ) ) ;
#249 =( NAMED_UNIT ( * ) PLANE_ANGLE_UNIT ( ) SI_UNIT ( $, .RADIAN. ) );
#250 = AXIS2_PLACEMENT_3D ( 'NONE', #208, #121, #90 ) ;
#251 = DIRECTION ( 'NONE',  ( 0.000000000000000000, 0.000000000000000000, -1.000000000000000000 ) ) ;
#252 = ORIENTED_EDGE ( 'NONE', *, *, #227, .F. ) ;
#253 = FILL_AREA_STYLE ('',( #11 ) ) ;
#254 = ADVANCED_FACE ( 'NONE', ( #80 ), #111, .T. ) ;
#255 = VERTEX_POINT ( 'NONE', #301 ) ;
#256 = AXIS2_PLACEMENT_3D ( 'NONE', #53, #45, #5 ) ;
#257 = STYLED_ITEM ( 'NONE', ( #221 ), #254 ) ;
#258 =( NAMED_UNIT ( * ) SI_UNIT ( $, .STERADIAN. ) SOLID_ANGLE_UNIT ( ) );
#259 = DIRECTION ( 'NONE',  ( -1.000000000000000000, 0.000000000000000000, 0.000000000000000000 ) ) ;
#260 = FILL_AREA_STYLE ('',( #138 ) ) ;
#261 = FACE_OUTER_BOUND ( 'NONE', #152, .T. ) ;
#262 = UNCERTAINTY_MEASURE_WITH_UNIT (LENGTH_MEASURE( 1.000000000000000082E-05 ), #280, 'distance_accuracy_value', 'NONE');
#263 = APPLICATION_CONTEXT ( 'automotive_design' ) ;
#264 = PRODUCT_RELATED_PRODUCT_CATEGORY ( 'part', '', ( #139 ) ) ;
#265 = PRODUCT_DEFINITION_CONTEXT ( 'detailed design', #191, 'design' ) ;
#266 = FILL_AREA_STYLE ('',( #99 ) ) ;
#267 = AXIS2_PLACEMENT_3D ( 'NONE', #179, #269, #157 ) ;
#268 = CARTESIAN_POINT ( 'NONE',  ( 0.09374999999999998612, 2.500000000000000000, 1.148106374200644171E-17 ) ) ;
#269 = DIRECTION ( 'NONE',  ( -0.000000000000000000, -1.000000000000000000, -0.000000000000000000 ) ) ;
#270 = ORIENTED_EDGE ( 'NONE', *, *, #3, .F. ) ;
#271 = DIRECTION ( 'NONE',  ( 0.000000000000000000, 0.000000000000000000, -1.000000000000000000 ) ) ;
#272 = PLANE ( 'NONE',  #59 ) ;
#273 = COLOUR_RGB ( '',1.000000000000000000, 0.000000000000000000, 0.000000000000000000 ) ;
#274 = EDGE_LOOP ( 'NONE', ( #158, #81, #177, #252 ) ) ;
#275 = DIRECTION ( 'NONE',  ( -3.160378836509298460E-17, 1.000000000000000000, -0.000000000000000000 ) ) ;
#276 = ORIENTED_EDGE ( 'NONE', *, *, #107, .F. ) ;
#277 = LENGTH_MEASURE_WITH_UNIT ( LENGTH_MEASURE( 0.02539999999999999897 ), #61 );
#278 = ORIENTED_EDGE ( 'NONE', *, *, #282, .T. ) ;
#279 = AXIS2_PLACEMENT_3D ( 'NONE', #94, #205, #259 ) ;
#280 =( CONVERSION_BASED_UNIT ( 'INCH', #211 ) LENGTH_UNIT ( ) NAMED_UNIT ( #288 ) );
#281 = SURFACE_STYLE_USAGE ( .BOTH. , #287 ) ;
#282 = EDGE_CURVE ( 'NONE', #200, #108, #84, .T. ) ;
#283 = CARTESIAN_POINT ( 'NONE',  ( 0.000000000000000000, 0.000000000000000000, 0.000000000000000000 ) ) ;
#284 = CYLINDRICAL_SURFACE ( 'NONE', #256, 0.09375000000000002776 ) ;
#285 = DIMENSIONAL_EXPONENTS ( 1.000000000000000000, 0.000000000000000000, 0.000000000000000000, 0.000000000000000000, 0.000000000000000000, 0.000000000000000000, 0.000000000000000000 ) ;
#286 = FACE_OUTER_BOUND ( 'NONE', #83, .T. ) ;
#287 = SURFACE_SIDE_STYLE ('',( #163 ) ) ;
#288 = DIMENSIONAL_EXPONENTS ( 1.000000000000000000, 0.000000000000000000, 0.000000000000000000, 0.000000000000000000, 0.000000000000000000, 0.000000000000000000, 0.000000000000000000 ) ;
#289 = PRESENTATION_STYLE_ASSIGNMENT (( #147 ) ) ;
#290 = STYLED_ITEM ( 'NONE', ( #289 ), #141 ) ;
#291 = STYLED_ITEM ( 'NONE', ( #47 ), #306 ) ;
#292 =( NAMED_UNIT ( * ) SI_UNIT ( $, .STERADIAN. ) SOLID_ANGLE_UNIT ( ) );
#293 = PLANE ( 'NONE',  #89 ) ;
#294 =( CONVERSION_BASED_UNIT ( 'INCH', #277 ) LENGTH_UNIT ( ) NAMED_UNIT ( #115 ) );
#295 = CIRCLE ( 'NONE', #250, 0.09374999999999998612 ) ;
#296 = AXIS2_PLACEMENT_3D ( 'NONE', #132, #16, #109 ) ;
#297 = ORIENTED_EDGE ( 'NONE', *, *, #54, .F. ) ;
#298 = SURFACE_STYLE_USAGE ( .BOTH. , #226 ) ;
#299 = ORIENTED_EDGE ( 'NONE', *, *, #219, .F. ) ;
#300 = PRODUCT_DEFINITION ( 'UNKNOWN', '', #168, #265 ) ;
#301 = CARTESIAN_POINT ( 'NONE',  ( 1.148106374200643555E-17, 0.000000000000000000, 0.09375000000000001388 ) ) ;
#302 = DIRECTION ( 'NONE',  ( 0.000000000000000000, 0.000000000000000000, -1.000000000000000000 ) ) ;
#303 = EDGE_CURVE ( 'NONE', #133, #255, #123, .T. ) ;
#304 = FACE_OUTER_BOUND ( 'NONE', #224, .T. ) ;
#305 = APPLICATION_PROTOCOL_DEFINITION ( 'draft international standard', 'automotive_design', 1998, #263 ) ;
#306 = MANIFOLD_SOLID_BREP ( 'Revolve - Tool Body (Straight Shanked)', #171 ) ;
#307 = CARTESIAN_POINT ( 'NONE',  ( 0.09374999999999995837, 2.500000000000000000, 1.148106374200644017E-17 ) ) ;
#308 = SURFACE_SIDE_STYLE ('',( #207 ) ) ;
#309 = DIRECTION ( 'NONE',  ( -3.160378836509298460E-17, 1.000000000000000000, -0.000000000000000000 ) ) ;
ENDSEC;
END-ISO-10303-21;
