ISO-10303-21;
HEADER;
FILE_DESCRIPTION (( 'STEP AP214' ),
    '1' );
FILE_NAME ('01240.STEP',
    '2023-06-22T14:23:24',
    ( '' ),
    ( '' ),
    'SwSTEP 2.0',
    'SolidWorks 2023',
    '' );
FILE_SCHEMA (( 'AUTOMOTIVE_DESIGN' ));
ENDSEC;

DATA;
#1 = ORIENTED_EDGE ( 'NONE', *, *, #134, .T. ) ;
#2 = VERTEX_POINT ( 'NONE', #191 ) ;
#3 = DIRECTION ( 'NONE',  ( 0.000000000000000000, 0.000000000000000000, -1.000000000000000000 ) ) ;
#4 = EDGE_CURVE ( 'NONE', #235, #167, #6, .T. ) ;
#5 =( LENGTH_UNIT ( ) NAMED_UNIT ( * ) SI_UNIT ( $, .METRE. ) );
#6 = LINE ( 'NONE', #287, #137 ) ;
#7 = CIRCLE ( 'NONE', #263, 0.1562500000000000000 ) ;
#8 = SURFACE_SIDE_STYLE ('',( #177 ) ) ;
#9 = DIRECTION ( 'NONE',  ( 1.000000000000000000, 0.000000000000000000, 0.000000000000000000 ) ) ;
#10 =( LENGTH_UNIT ( ) NAMED_UNIT ( * ) SI_UNIT ( $, .METRE. ) );
#11 = PRODUCT_DEFINITION_CONTEXT ( 'detailed design', #203, 'design' ) ;
#12 = APPLICATION_PROTOCOL_DEFINITION ( 'draft international standard', 'automotive_design', 1998, #203 ) ;
#13 =( NAMED_UNIT ( * ) PLANE_ANGLE_UNIT ( ) SI_UNIT ( $, .RADIAN. ) );
#14 =( NAMED_UNIT ( * ) SI_UNIT ( $, .STERADIAN. ) SOLID_ANGLE_UNIT ( ) );
#15 = MECHANICAL_DESIGN_GEOMETRIC_PRESENTATION_REPRESENTATION (  '', ( #146 ), #69 ) ;
#16 = CIRCLE ( 'NONE', #80, 0.1562500000000000000 ) ;
#17 =( NAMED_UNIT ( * ) SI_UNIT ( $, .STERADIAN. ) SOLID_ANGLE_UNIT ( ) );
#18 = FACE_OUTER_BOUND ( 'NONE', #213, .T. ) ;
#19 = LINE ( 'NONE', #261, #221 ) ;
#20 = FACE_OUTER_BOUND ( 'NONE', #121, .T. ) ;
#21 = COLOUR_RGB ( '',0.7921568627450980005, 0.8196078431372548767, 0.9333333333333333481 ) ;
#22 = ORIENTED_EDGE ( 'NONE', *, *, #61, .T. ) ;
#23 = ORIENTED_EDGE ( 'NONE', *, *, #251, .F. ) ;
#24 = ORIENTED_EDGE ( 'NONE', *, *, #82, .T. ) ;
#25 = CARTESIAN_POINT ( 'NONE',  ( 0.000000000000000000, 0.000000000000000000, 0.000000000000000000 ) ) ;
#26 = PRESENTATION_LAYER_ASSIGNMENT (  '', '', ( #146 ) ) ;
#27 =( GEOMETRIC_REPRESENTATION_CONTEXT ( 3 ) GLOBAL_UNCERTAINTY_ASSIGNED_CONTEXT ( ( #245 ) ) GLOBAL_UNIT_ASSIGNED_CONTEXT ( ( #60, #151, #14 ) ) REPRESENTATION_CONTEXT ( 'NONE', 'WORKASPACE' ) );
#28 = ORIENTED_EDGE ( 'NONE', *, *, #160, .F. ) ;
#29 = SURFACE_STYLE_FILL_AREA ( #242 ) ;
#30 = ORIENTED_EDGE ( 'NONE', *, *, #4, .F. ) ;
#31 = LENGTH_MEASURE_WITH_UNIT ( LENGTH_MEASURE( 0.02539999999999999897 ), #98 );
#32 = CARTESIAN_POINT ( 'NONE',  ( 0.1562500000000000000, 2.000000000000000000, 1.913510623667738847E-17 ) ) ;
#33 = APPLICATION_PROTOCOL_DEFINITION ( 'draft international standard', 'automotive_design', 1998, #50 ) ;
#34 = CARTESIAN_POINT ( 'NONE',  ( -0.1562499999999997224, 2.000000000000000000, 0.000000000000000000 ) ) ;
#35 = DIRECTION ( 'NONE',  ( 0.000000000000000000, 0.000000000000000000, -1.000000000000000000 ) ) ;
#36 = CLOSED_SHELL ( 'NONE', ( #208, #274, #140, #114 ) ) ;
#37 = FILL_AREA_STYLE ('',( #248 ) ) ;
#38 = DIRECTION ( 'NONE',  ( -1.000000000000000000, 0.000000000000000000, 0.000000000000000000 ) ) ;
#39 = CIRCLE ( 'NONE', #133, 0.1562500000000000000 ) ;
#40 = CARTESIAN_POINT ( 'NONE',  ( 0.1562500000000000000, 2.000000000000000000, 0.000000000000000000 ) ) ;
#41 = PLANE ( 'NONE',  #88 ) ;
#42 = CIRCLE ( 'NONE', #288, 0.1562500000000000000 ) ;
#43 = DIRECTION ( 'NONE',  ( 0.000000000000000000, 1.000000000000000000, 0.000000000000000000 ) ) ;
#44 = AXIS2_PLACEMENT_3D ( 'NONE', #87, #58, #9 ) ;
#45 = DIMENSIONAL_EXPONENTS ( 1.000000000000000000, 0.000000000000000000, 0.000000000000000000, 0.000000000000000000, 0.000000000000000000, 0.000000000000000000, 0.000000000000000000 ) ;
#46 = EDGE_LOOP ( 'NONE', ( #97, #234, #100, #23 ) ) ;
#47 = SURFACE_SIDE_STYLE ('',( #290 ) ) ;
#48 = ORIENTED_EDGE ( 'NONE', *, *, #296, .F. ) ;
#49 = CARTESIAN_POINT ( 'NONE',  ( 1.224646799147353700E-16, 2.000000000000000000, 0.000000000000000000 ) ) ;
#50 = APPLICATION_CONTEXT ( 'automotive_design' ) ;
#51 = PRESENTATION_STYLE_ASSIGNMENT (( #272 ) ) ;
#52 = CARTESIAN_POINT ( 'NONE',  ( 0.000000000000000000, 0.4374999999999998890, 0.000000000000000000 ) ) ;
#53 = ORIENTED_EDGE ( 'NONE', *, *, #229, .F. ) ;
#54 = CARTESIAN_POINT ( 'NONE',  ( 1.913510623667739463E-17, 0.000000000000000000, 0.1562500000000000000 ) ) ;
#55 = AXIS2_PLACEMENT_3D ( 'NONE', #59, #298, #83 ) ;
#56 = COLOUR_RGB ( '',1.000000000000000000, 0.000000000000000000, 0.000000000000000000 ) ;
#57 = DIRECTION ( 'NONE',  ( -1.000000000000000000, 0.000000000000000000, 0.000000000000000000 ) ) ;
#58 = DIRECTION ( 'NONE',  ( 0.000000000000000000, 0.000000000000000000, 1.000000000000000000 ) ) ;
#59 = CARTESIAN_POINT ( 'NONE',  ( 1.224646799147353700E-16, 2.000000000000000000, 0.000000000000000000 ) ) ;
#60 =( CONVERSION_BASED_UNIT ( 'INCH', #252 ) LENGTH_UNIT ( ) NAMED_UNIT ( #233 ) );
#61 = EDGE_CURVE ( 'NONE', #309, #291, #42, .T. ) ;
#62 = AXIS2_PLACEMENT_3D ( 'NONE', #40, #112, #136 ) ;
#63 =( GEOMETRIC_REPRESENTATION_CONTEXT ( 3 ) GLOBAL_UNCERTAINTY_ASSIGNED_CONTEXT ( ( #86 ) ) GLOBAL_UNIT_ASSIGNED_CONTEXT ( ( #240, #267, #237 ) ) REPRESENTATION_CONTEXT ( 'NONE', 'WORKASPACE' ) );
#64 =( NAMED_UNIT ( * ) SI_UNIT ( $, .STERADIAN. ) SOLID_ANGLE_UNIT ( ) );
#65 = PLANE ( 'NONE',  #62 ) ;
#66 = FILL_AREA_STYLE ('',( #230 ) ) ;
#67 = SURFACE_SIDE_STYLE ('',( #183 ) ) ;
#68 = CARTESIAN_POINT ( 'NONE',  ( 0.000000000000000000, 0.4374999999999998890, 0.000000000000000000 ) ) ;
#69 =( GEOMETRIC_REPRESENTATION_CONTEXT ( 3 ) GLOBAL_UNCERTAINTY_ASSIGNED_CONTEXT ( ( #247 ) ) GLOBAL_UNIT_ASSIGNED_CONTEXT ( ( #249, #172, #196 ) ) REPRESENTATION_CONTEXT ( 'NONE', 'WORKASPACE' ) );
#70 = DIRECTION ( 'NONE',  ( 0.000000000000000000, 0.000000000000000000, -1.000000000000000000 ) ) ;
#71 = CARTESIAN_POINT ( 'NONE',  ( 1.913510623667739463E-17, 0.000000000000000000, 0.1562500000000000000 ) ) ;
#72 = ORIENTED_EDGE ( 'NONE', *, *, #304, .F. ) ;
#73 = LENGTH_MEASURE_WITH_UNIT ( LENGTH_MEASURE( 0.02539999999999999897 ), #5 );
#74 =( LENGTH_UNIT ( ) NAMED_UNIT ( * ) SI_UNIT ( $, .METRE. ) );
#75 = DIRECTION ( 'NONE',  ( 0.000000000000000000, 0.000000000000000000, -1.000000000000000000 ) ) ;
#76 = LENGTH_MEASURE_WITH_UNIT ( LENGTH_MEASURE( 0.02539999999999999897 ), #174 );
#77 = CARTESIAN_POINT ( 'NONE',  ( 0.000000000000000000, 0.000000000000000000, 0.000000000000000000 ) ) ;
#78 = CARTESIAN_POINT ( 'NONE',  ( 0.000000000000000000, 0.000000000000000000, 0.000000000000000000 ) ) ;
#79 = SURFACE_STYLE_USAGE ( .BOTH. , #124 ) ;
#80 = AXIS2_PLACEMENT_3D ( 'NONE', #236, #269, #192 ) ;
#81 = VERTEX_POINT ( 'NONE', #139 ) ;
#82 = EDGE_CURVE ( 'NONE', #81, #126, #118, .T. ) ;
#83 = DIRECTION ( 'NONE',  ( -1.000000000000000000, 0.000000000000000000, 0.000000000000000000 ) ) ;
#84 = AXIS2_PLACEMENT_3D ( 'NONE', #68, #43, #138 ) ;
#85 = CARTESIAN_POINT ( 'NONE',  ( 1.913510623667739463E-17, 0.4374999999999998890, 0.1562500000000000000 ) ) ;
#86 = UNCERTAINTY_MEASURE_WITH_UNIT (LENGTH_MEASURE( 1.000000000000000082E-05 ), #240, 'distance_accuracy_value', 'NONE');
#87 = CARTESIAN_POINT ( 'NONE',  ( 0.000000000000000000, 0.000000000000000000, 0.000000000000000000 ) ) ;
#88 = AXIS2_PLACEMENT_3D ( 'NONE', #155, #200, #184 ) ;
#89 = MANIFOLD_SOLID_BREP ( 'Revolve - Cutting Edge', #301 ) ;
#90 = SURFACE_STYLE_USAGE ( .BOTH. , #180 ) ;
#91 = AXIS2_PLACEMENT_3D ( 'NONE', #159, #228, #38 ) ;
#92 =( GEOMETRIC_REPRESENTATION_CONTEXT ( 3 ) GLOBAL_UNCERTAINTY_ASSIGNED_CONTEXT ( ( #154 ) ) GLOBAL_UNIT_ASSIGNED_CONTEXT ( ( #219, #299, #64 ) ) REPRESENTATION_CONTEXT ( 'NONE', 'WORKASPACE' ) );
#93 = PLANE ( 'NONE',  #289 ) ;
#94 = ORIENTED_EDGE ( 'NONE', *, *, #134, .F. ) ;
#95 = MECHANICAL_DESIGN_GEOMETRIC_PRESENTATION_REPRESENTATION (  '', ( #107 ), #176 ) ;
#96 = MECHANICAL_DESIGN_GEOMETRIC_PRESENTATION_REPRESENTATION (  '', ( #198 ), #63 ) ;
#97 = ORIENTED_EDGE ( 'NONE', *, *, #232, .F. ) ;
#98 =( LENGTH_UNIT ( ) NAMED_UNIT ( * ) SI_UNIT ( $, .METRE. ) );
#99 = ORIENTED_EDGE ( 'NONE', *, *, #160, .T. ) ;
#100 = ORIENTED_EDGE ( 'NONE', *, *, #229, .T. ) ;
#101 = DIRECTION ( 'NONE',  ( -0.000000000000000000, -1.000000000000000000, -0.000000000000000000 ) ) ;
#102 = FILL_AREA_STYLE ('',( #268 ) ) ;
#103 = SURFACE_STYLE_USAGE ( .BOTH. , #8 ) ;
#104 = DIRECTION ( 'NONE',  ( 0.000000000000000000, 0.000000000000000000, -1.000000000000000000 ) ) ;
#105 =( LENGTH_UNIT ( ) NAMED_UNIT ( * ) SI_UNIT ( $, .METRE. ) );
#106 = SHAPE_DEFINITION_REPRESENTATION ( #226, #285 ) ;
#107 = STYLED_ITEM ( 'NONE', ( #297 ), #171 ) ;
#108 = AXIS2_PLACEMENT_3D ( 'NONE', #175, #303, #178 ) ;
#109 = PRODUCT_CONTEXT ( 'NONE', #50, 'mechanical' ) ;
#110 = UNCERTAINTY_MEASURE_WITH_UNIT (LENGTH_MEASURE( 1.000000000000000082E-05 ), #132, 'distance_accuracy_value', 'NONE');
#111 = SURFACE_SIDE_STYLE ('',( #223 ) ) ;
#112 = DIRECTION ( 'NONE',  ( -7.837739514543064125E-17, -1.000000000000000000, 0.000000000000000000 ) ) ;
#113 = CYLINDRICAL_SURFACE ( 'NONE', #225, 0.1562500000000000000 ) ;
#114 = ADVANCED_FACE ( 'NONE', ( #283 ), #65, .F. ) ;
#115 = DIRECTION ( 'NONE',  ( -0.000000000000000000, -1.000000000000000000, -0.000000000000000000 ) ) ;
#116 = STYLED_ITEM ( 'NONE', ( #119 ), #262 ) ;
#117 = ORIENTED_EDGE ( 'NONE', *, *, #232, .T. ) ;
#118 = LINE ( 'NONE', #166, #206 ) ;
#119 = PRESENTATION_STYLE_ASSIGNMENT (( #79 ) ) ;
#120 = STYLED_ITEM ( 'NONE', ( #246 ), #306 ) ;
#121 = EDGE_LOOP ( 'NONE', ( #1, #117, #209, #53 ) ) ;
#122 = ADVANCED_FACE ( 'NONE', ( #20 ), #281, .T. ) ;
#123 = ORIENTED_EDGE ( 'NONE', *, *, #82, .F. ) ;
#124 = SURFACE_SIDE_STYLE ('',( #29 ) ) ;
#125 =( NAMED_UNIT ( * ) SI_UNIT ( $, .STERADIAN. ) SOLID_ANGLE_UNIT ( ) );
#126 = VERTEX_POINT ( 'NONE', #34 ) ;
#127 = FILL_AREA_STYLE ('',( #294 ) ) ;
#128 = CIRCLE ( 'NONE', #307, 0.1562500000000000000 ) ;
#129 = CARTESIAN_POINT ( 'NONE',  ( 0.000000000000000000, 0.000000000000000000, 0.000000000000000000 ) ) ;
#130 = CARTESIAN_POINT ( 'NONE',  ( 1.224646799147353700E-16, 2.000000000000000000, 0.000000000000000000 ) ) ;
#131 = DIRECTION ( 'NONE',  ( 7.837739514543064125E-17, 1.000000000000000000, -0.000000000000000000 ) ) ;
#132 =( CONVERSION_BASED_UNIT ( 'INCH', #273 ) LENGTH_UNIT ( ) NAMED_UNIT ( #164 ) );
#133 = AXIS2_PLACEMENT_3D ( 'NONE', #25, #190, #75 ) ;
#134 = EDGE_CURVE ( 'NONE', #2, #189, #7, .T. ) ;
#135 = FACE_OUTER_BOUND ( 'NONE', #265, .T. ) ;
#136 = DIRECTION ( 'NONE',  ( 1.000000000000000000, -7.837739514543064125E-17, 0.000000000000000000 ) ) ;
#137 = VECTOR ( 'NONE', #292, 39.37007874015748143 ) ;
#138 = DIRECTION ( 'NONE',  ( 0.000000000000000000, -0.000000000000000000, 1.000000000000000000 ) ) ;
#139 = CARTESIAN_POINT ( 'NONE',  ( -0.1562500000000000000, 0.4374999999999998890, 0.000000000000000000 ) ) ;
#140 = ADVANCED_FACE ( 'NONE', ( #300 ), #148, .T. ) ;
#141 = ORIENTED_EDGE ( 'NONE', *, *, #254, .F. ) ;
#142 = FILL_AREA_STYLE_COLOUR ( '', #211 ) ;
#143 = FACE_OUTER_BOUND ( 'NONE', #212, .T. ) ;
#144 = DIRECTION ( 'NONE',  ( -0.000000000000000000, -1.000000000000000000, -0.000000000000000000 ) ) ;
#145 = CARTESIAN_POINT ( 'NONE',  ( 0.000000000000000000, 0.000000000000000000, -0.1562500000000000000 ) ) ;
#146 = STYLED_ITEM ( 'NONE', ( #266 ), #122 ) ;
#147 = DIRECTION ( 'NONE',  ( 7.837739514543064125E-17, 1.000000000000000000, -0.000000000000000000 ) ) ;
#148 = CYLINDRICAL_SURFACE ( 'NONE', #55, 0.1562499999999999445 ) ;
#149 = UNCERTAINTY_MEASURE_WITH_UNIT (LENGTH_MEASURE( 1.000000000000000082E-05 ), #293, 'distance_accuracy_value', 'NONE');
#150 = EDGE_CURVE ( 'NONE', #235, #81, #128, .T. ) ;
#151 =( NAMED_UNIT ( * ) PLANE_ANGLE_UNIT ( ) SI_UNIT ( $, .RADIAN. ) );
#152 = PRESENTATION_LAYER_ASSIGNMENT (  '', '', ( #107 ) ) ;
#153 = AXIS2_PLACEMENT_3D ( 'NONE', #130, #131, #305 ) ;
#154 = UNCERTAINTY_MEASURE_WITH_UNIT (LENGTH_MEASURE( 1.000000000000000082E-05 ), #219, 'distance_accuracy_value', 'NONE');
#155 = CARTESIAN_POINT ( 'NONE',  ( 4.799231304517948929E-34, 0.4374999999999998890, 0.000000000000000000 ) ) ;
#156 = PRESENTATION_LAYER_ASSIGNMENT (  '', '', ( #193 ) ) ;
#157 = MECHANICAL_DESIGN_GEOMETRIC_PRESENTATION_REPRESENTATION (  '', ( #120 ), #27 ) ;
#158 = DIMENSIONAL_EXPONENTS ( 1.000000000000000000, 0.000000000000000000, 0.000000000000000000, 0.000000000000000000, 0.000000000000000000, 0.000000000000000000, 0.000000000000000000 ) ;
#159 = CARTESIAN_POINT ( 'NONE',  ( 1.224646799147353700E-16, 2.000000000000000000, 0.000000000000000000 ) ) ;
#160 = EDGE_CURVE ( 'NONE', #126, #167, #162, .T. ) ;
#161 = FACE_OUTER_BOUND ( 'NONE', #241, .T. ) ;
#162 = CIRCLE ( 'NONE', #187, 0.1562499999999998612 ) ;
#163 = ORIENTED_EDGE ( 'NONE', *, *, #150, .T. ) ;
#164 = DIMENSIONAL_EXPONENTS ( 1.000000000000000000, 0.000000000000000000, 0.000000000000000000, 0.000000000000000000, 0.000000000000000000, 0.000000000000000000, 0.000000000000000000 ) ;
#165 = CARTESIAN_POINT ( 'NONE',  ( 0.1562500000000000000, 0.4374999999999998890, 1.913510623667738847E-17 ) ) ;
#166 = CARTESIAN_POINT ( 'NONE',  ( -0.1562499999999998057, 2.000000000000000000, 0.000000000000000000 ) ) ;
#167 = VERTEX_POINT ( 'NONE', #32 ) ;
#168 = FACE_OUTER_BOUND ( 'NONE', #46, .T. ) ;
#169 = PRESENTATION_LAYER_ASSIGNMENT (  '', '', ( #120 ) ) ;
#170 = DIRECTION ( 'NONE',  ( -0.000000000000000000, -1.000000000000000000, -0.000000000000000000 ) ) ;
#171 = ADVANCED_FACE ( 'NONE', ( #143 ), #218, .T. ) ;
#172 =( NAMED_UNIT ( * ) PLANE_ANGLE_UNIT ( ) SI_UNIT ( $, .RADIAN. ) );
#173 = DIRECTION ( 'NONE',  ( 7.837739514543064125E-17, 1.000000000000000000, -0.000000000000000000 ) ) ;
#174 =( LENGTH_UNIT ( ) NAMED_UNIT ( * ) SI_UNIT ( $, .METRE. ) );
#175 = CARTESIAN_POINT ( 'NONE',  ( 0.000000000000000000, 0.4374999999999998890, 0.000000000000000000 ) ) ;
#176 =( GEOMETRIC_REPRESENTATION_CONTEXT ( 3 ) GLOBAL_UNCERTAINTY_ASSIGNED_CONTEXT ( ( #280 ) ) GLOBAL_UNIT_ASSIGNED_CONTEXT ( ( #220, #13, #125 ) ) REPRESENTATION_CONTEXT ( 'NONE', 'WORKASPACE' ) );
#177 = SURFACE_STYLE_FILL_AREA ( #127 ) ;
#178 = DIRECTION ( 'NONE',  ( 0.000000000000000000, 0.000000000000000000, -1.000000000000000000 ) ) ;
#179 =( LENGTH_UNIT ( ) NAMED_UNIT ( * ) SI_UNIT ( $, .METRE. ) );
#180 = SURFACE_SIDE_STYLE ('',( #185 ) ) ;
#181 = DIMENSIONAL_EXPONENTS ( 1.000000000000000000, 0.000000000000000000, 0.000000000000000000, 0.000000000000000000, 0.000000000000000000, 0.000000000000000000, 0.000000000000000000 ) ;
#182 = PRODUCT_DEFINITION ( 'UNKNOWN', '', #231, #11 ) ;
#183 = SURFACE_STYLE_FILL_AREA ( #66 ) ;
#184 = DIRECTION ( 'NONE',  ( -1.000000000000000000, 7.837739514543064125E-17, 0.000000000000000000 ) ) ;
#185 = SURFACE_STYLE_FILL_AREA ( #204 ) ;
#186 = EDGE_LOOP ( 'NONE', ( #30, #163, #24, #72 ) ) ;
#187 = AXIS2_PLACEMENT_3D ( 'NONE', #49, #147, #195 ) ;
#188 = VECTOR ( 'NONE', #239, 39.37007874015748143 ) ;
#189 = VERTEX_POINT ( 'NONE', #85 ) ;
#190 = DIRECTION ( 'NONE',  ( -0.000000000000000000, -1.000000000000000000, -0.000000000000000000 ) ) ;
#191 = CARTESIAN_POINT ( 'NONE',  ( 0.000000000000000000, 0.4374999999999998890, -0.1562500000000000000 ) ) ;
#192 = DIRECTION ( 'NONE',  ( -1.000000000000000000, 0.000000000000000000, 0.000000000000000000 ) ) ;
#193 = STYLED_ITEM ( 'NONE', ( #51 ), #89 ) ;
#194 = DIRECTION ( 'NONE',  ( 0.000000000000000000, -1.000000000000000000, -0.000000000000000000 ) ) ;
#195 = DIRECTION ( 'NONE',  ( -1.000000000000000000, 0.000000000000000000, 0.000000000000000000 ) ) ;
#196 =( NAMED_UNIT ( * ) SI_UNIT ( $, .STERADIAN. ) SOLID_ANGLE_UNIT ( ) );
#197 = AXIS2_PLACEMENT_3D ( 'NONE', #129, #101, #3 ) ;
#198 = STYLED_ITEM ( 'NONE', ( #286 ), #279 ) ;
#199 = LENGTH_MEASURE_WITH_UNIT ( LENGTH_MEASURE( 0.02539999999999999897 ), #105 );
#200 = DIRECTION ( 'NONE',  ( 7.837739514543064125E-17, 1.000000000000000000, -0.000000000000000000 ) ) ;
#201 = ORIENTED_EDGE ( 'NONE', *, *, #4, .T. ) ;
#202 = CYLINDRICAL_SURFACE ( 'NONE', #91, 0.1562499999999999445 ) ;
#203 = APPLICATION_CONTEXT ( 'automotive_design' ) ;
#204 = FILL_AREA_STYLE ('',( #282 ) ) ;
#205 = LINE ( 'NONE', #71, #188 ) ;
#206 = VECTOR ( 'NONE', #173, 39.37007874015748143 ) ;
#207 = PRODUCT ( '01240', '01240', '', ( #109 ) ) ;
#208 = ADVANCED_FACE ( 'NONE', ( #18 ), #202, .T. ) ;
#209 = ORIENTED_EDGE ( 'NONE', *, *, #61, .F. ) ;
#210 = ORIENTED_EDGE ( 'NONE', *, *, #150, .F. ) ;
#211 = COLOUR_RGB ( '',1.000000000000000000, 0.000000000000000000, 0.000000000000000000 ) ;
#212 = EDGE_LOOP ( 'NONE', ( #94, #48 ) ) ;
#213 = EDGE_LOOP ( 'NONE', ( #238, #201, #28, #123 ) ) ;
#214 = EDGE_LOOP ( 'NONE', ( #99, #270 ) ) ;
#215 =( GEOMETRIC_REPRESENTATION_CONTEXT ( 3 ) GLOBAL_UNCERTAINTY_ASSIGNED_CONTEXT ( ( #110 ) ) GLOBAL_UNIT_ASSIGNED_CONTEXT ( ( #132, #216, #258 ) ) REPRESENTATION_CONTEXT ( 'NONE', 'WORKASPACE' ) );
#216 =( NAMED_UNIT ( * ) PLANE_ANGLE_UNIT ( ) SI_UNIT ( $, .RADIAN. ) );
#217 = PRODUCT_RELATED_PRODUCT_CATEGORY ( 'part', '', ( #207 ) ) ;
#218 = PLANE ( 'NONE',  #84 ) ;
#219 =( CONVERSION_BASED_UNIT ( 'INCH', #199 ) LENGTH_UNIT ( ) NAMED_UNIT ( #260 ) );
#220 =( CONVERSION_BASED_UNIT ( 'INCH', #275 ) LENGTH_UNIT ( ) NAMED_UNIT ( #158 ) );
#221 = VECTOR ( 'NONE', #115, 39.37007874015748143 ) ;
#222 = MECHANICAL_DESIGN_GEOMETRIC_PRESENTATION_REPRESENTATION (  '', ( #116 ), #278 ) ;
#223 = SURFACE_STYLE_FILL_AREA ( #37 ) ;
#224 = COLOUR_RGB ( '',1.000000000000000000, 0.000000000000000000, 0.000000000000000000 ) ;
#225 = AXIS2_PLACEMENT_3D ( 'NONE', #259, #284, #227 ) ;
#226 = PRODUCT_DEFINITION_SHAPE ( 'NONE', 'NONE',  #182 ) ;
#227 = DIRECTION ( 'NONE',  ( 0.000000000000000000, 0.000000000000000000, -1.000000000000000000 ) ) ;
#228 = DIRECTION ( 'NONE',  ( 7.837739514543064125E-17, 1.000000000000000000, -0.000000000000000000 ) ) ;
#229 = EDGE_CURVE ( 'NONE', #2, #309, #19, .T. ) ;
#230 = FILL_AREA_STYLE_COLOUR ( '', #255 ) ;
#231 = PRODUCT_DEFINITION_FORMATION_WITH_SPECIFIED_SOURCE ( 'ANY', '', #207, .NOT_KNOWN. ) ;
#232 = EDGE_CURVE ( 'NONE', #189, #291, #205, .T. ) ;
#233 = DIMENSIONAL_EXPONENTS ( 1.000000000000000000, 0.000000000000000000, 0.000000000000000000, 0.000000000000000000, 0.000000000000000000, 0.000000000000000000, 0.000000000000000000 ) ;
#234 = ORIENTED_EDGE ( 'NONE', *, *, #296, .T. ) ;
#235 = VERTEX_POINT ( 'NONE', #165 ) ;
#236 = CARTESIAN_POINT ( 'NONE',  ( 0.000000000000000000, 0.4374999999999998890, 0.000000000000000000 ) ) ;
#237 =( NAMED_UNIT ( * ) SI_UNIT ( $, .STERADIAN. ) SOLID_ANGLE_UNIT ( ) );
#238 = ORIENTED_EDGE ( 'NONE', *, *, #254, .T. ) ;
#239 = DIRECTION ( 'NONE',  ( -0.000000000000000000, -1.000000000000000000, -0.000000000000000000 ) ) ;
#240 =( CONVERSION_BASED_UNIT ( 'INCH', #73 ) LENGTH_UNIT ( ) NAMED_UNIT ( #181 ) );
#241 = EDGE_LOOP ( 'NONE', ( #141, #210 ) ) ;
#242 = FILL_AREA_STYLE ('',( #142 ) ) ;
#243 = ORIENTED_EDGE ( 'NONE', *, *, #251, .T. ) ;
#244 = CARTESIAN_POINT ( 'NONE',  ( 0.000000000000000000, 0.4374999999999998890, 0.000000000000000000 ) ) ;
#245 = UNCERTAINTY_MEASURE_WITH_UNIT (LENGTH_MEASURE( 1.000000000000000082E-05 ), #60, 'distance_accuracy_value', 'NONE');
#246 = PRESENTATION_STYLE_ASSIGNMENT (( #277 ) ) ;
#247 = UNCERTAINTY_MEASURE_WITH_UNIT (LENGTH_MEASURE( 1.000000000000000082E-05 ), #249, 'distance_accuracy_value', 'NONE');
#248 = FILL_AREA_STYLE_COLOUR ( '', #21 ) ;
#249 =( CONVERSION_BASED_UNIT ( 'INCH', #76 ) LENGTH_UNIT ( ) NAMED_UNIT ( #257 ) );
#250 = COLOUR_RGB ( '',0.7921568627450980005, 0.8196078431372548767, 0.9333333333333333481 ) ;
#251 = EDGE_CURVE ( 'NONE', #291, #309, #39, .T. ) ;
#252 = LENGTH_MEASURE_WITH_UNIT ( LENGTH_MEASURE( 0.02539999999999999897 ), #179 );
#253 =( NAMED_UNIT ( * ) PLANE_ANGLE_UNIT ( ) SI_UNIT ( $, .RADIAN. ) );
#254 = EDGE_CURVE ( 'NONE', #81, #235, #16, .T. ) ;
#255 = COLOUR_RGB ( '',1.000000000000000000, 0.000000000000000000, 0.000000000000000000 ) ;
#256 = CIRCLE ( 'NONE', #153, 0.1562499999999998612 ) ;
#257 = DIMENSIONAL_EXPONENTS ( 1.000000000000000000, 0.000000000000000000, 0.000000000000000000, 0.000000000000000000, 0.000000000000000000, 0.000000000000000000, 0.000000000000000000 ) ;
#258 =( NAMED_UNIT ( * ) SI_UNIT ( $, .STERADIAN. ) SOLID_ANGLE_UNIT ( ) );
#259 = CARTESIAN_POINT ( 'NONE',  ( 0.000000000000000000, 0.000000000000000000, 0.000000000000000000 ) ) ;
#260 = DIMENSIONAL_EXPONENTS ( 1.000000000000000000, 0.000000000000000000, 0.000000000000000000, 0.000000000000000000, 0.000000000000000000, 0.000000000000000000, 0.000000000000000000 ) ;
#261 = CARTESIAN_POINT ( 'NONE',  ( 0.000000000000000000, 0.000000000000000000, -0.1562500000000000000 ) ) ;
#262 = ADVANCED_FACE ( 'NONE', ( #168 ), #113, .T. ) ;
#263 = AXIS2_PLACEMENT_3D ( 'NONE', #52, #144, #104 ) ;
#264 = CIRCLE ( 'NONE', #108, 0.1562500000000000000 ) ;
#265 = EDGE_LOOP ( 'NONE', ( #22, #243 ) ) ;
#266 = PRESENTATION_STYLE_ASSIGNMENT (( #308 ) ) ;
#267 =( NAMED_UNIT ( * ) PLANE_ANGLE_UNIT ( ) SI_UNIT ( $, .RADIAN. ) );
#268 = FILL_AREA_STYLE_COLOUR ( '', #250 ) ;
#269 = DIRECTION ( 'NONE',  ( 7.837739514543064125E-17, 1.000000000000000000, -0.000000000000000000 ) ) ;
#270 = ORIENTED_EDGE ( 'NONE', *, *, #304, .T. ) ;
#271 = MECHANICAL_DESIGN_GEOMETRIC_PRESENTATION_REPRESENTATION (  '', ( #193 ), #215 ) ;
#272 = SURFACE_STYLE_USAGE ( .BOTH. , #47 ) ;
#273 = LENGTH_MEASURE_WITH_UNIT ( LENGTH_MEASURE( 0.02539999999999999897 ), #74 );
#274 = ADVANCED_FACE ( 'NONE', ( #161 ), #41, .F. ) ;
#275 = LENGTH_MEASURE_WITH_UNIT ( LENGTH_MEASURE( 0.02539999999999999897 ), #10 );
#276 = DIRECTION ( 'NONE',  ( 7.837739514543064125E-17, 1.000000000000000000, -0.000000000000000000 ) ) ;
#277 = SURFACE_STYLE_USAGE ( .BOTH. , #111 ) ;
#278 =( GEOMETRIC_REPRESENTATION_CONTEXT ( 3 ) GLOBAL_UNCERTAINTY_ASSIGNED_CONTEXT ( ( #149 ) ) GLOBAL_UNIT_ASSIGNED_CONTEXT ( ( #293, #253, #17 ) ) REPRESENTATION_CONTEXT ( 'NONE', 'WORKASPACE' ) );
#279 = ADVANCED_FACE ( 'NONE', ( #135 ), #93, .T. ) ;
#280 = UNCERTAINTY_MEASURE_WITH_UNIT (LENGTH_MEASURE( 1.000000000000000082E-05 ), #220, 'distance_accuracy_value', 'NONE');
#281 = CYLINDRICAL_SURFACE ( 'NONE', #197, 0.1562500000000000000 ) ;
#282 = FILL_AREA_STYLE_COLOUR ( '', #56 ) ;
#283 = FACE_OUTER_BOUND ( 'NONE', #214, .T. ) ;
#284 = DIRECTION ( 'NONE',  ( -0.000000000000000000, -1.000000000000000000, -0.000000000000000000 ) ) ;
#285 = ADVANCED_BREP_SHAPE_REPRESENTATION ( '01240', ( #89, #306, #44 ), #92 ) ;
#286 = PRESENTATION_STYLE_ASSIGNMENT (( #90 ) ) ;
#287 = CARTESIAN_POINT ( 'NONE',  ( 0.1562500000000000833, 2.000000000000000000, 1.913510623667738539E-17 ) ) ;
#288 = AXIS2_PLACEMENT_3D ( 'NONE', #78, #170, #70 ) ;
#289 = AXIS2_PLACEMENT_3D ( 'NONE', #77, #194, #35 ) ;
#290 = SURFACE_STYLE_FILL_AREA ( #102 ) ;
#291 = VERTEX_POINT ( 'NONE', #54 ) ;
#292 = DIRECTION ( 'NONE',  ( 7.837739514543064125E-17, 1.000000000000000000, -0.000000000000000000 ) ) ;
#293 =( CONVERSION_BASED_UNIT ( 'INCH', #31 ) LENGTH_UNIT ( ) NAMED_UNIT ( #45 ) );
#294 = FILL_AREA_STYLE_COLOUR ( '', #224 ) ;
#295 = PRESENTATION_LAYER_ASSIGNMENT (  '', '', ( #198 ) ) ;
#296 = EDGE_CURVE ( 'NONE', #189, #2, #264, .T. ) ;
#297 = PRESENTATION_STYLE_ASSIGNMENT (( #103 ) ) ;
#298 = DIRECTION ( 'NONE',  ( 7.837739514543064125E-17, 1.000000000000000000, -0.000000000000000000 ) ) ;
#299 =( NAMED_UNIT ( * ) PLANE_ANGLE_UNIT ( ) SI_UNIT ( $, .RADIAN. ) );
#300 = FACE_OUTER_BOUND ( 'NONE', #186, .T. ) ;
#301 = CLOSED_SHELL ( 'NONE', ( #122, #171, #262, #279 ) ) ;
#302 = PRESENTATION_LAYER_ASSIGNMENT (  '', '', ( #116 ) ) ;
#303 = DIRECTION ( 'NONE',  ( -0.000000000000000000, -1.000000000000000000, -0.000000000000000000 ) ) ;
#304 = EDGE_CURVE ( 'NONE', #167, #126, #256, .T. ) ;
#305 = DIRECTION ( 'NONE',  ( -1.000000000000000000, 0.000000000000000000, 0.000000000000000000 ) ) ;
#306 = MANIFOLD_SOLID_BREP ( 'Revolve - Tool Body (Straight Shanked)', #36 ) ;
#307 = AXIS2_PLACEMENT_3D ( 'NONE', #244, #276, #57 ) ;
#308 = SURFACE_STYLE_USAGE ( .BOTH. , #67 ) ;
#309 = VERTEX_POINT ( 'NONE', #145 ) ;
ENDSEC;
END-ISO-10303-21;
