ISO-10303-21;
HEADER;
FILE_DESCRIPTION (( 'STEP AP214' ),
    '1' );
FILE_NAME ('Micro_SEM-125-03X.STEP',
    '2021-09-02T01:30:29',
    ( '' ),
    ( '' ),
    'SwSTEP 2.0',
    'SolidWorks 2020',
    '' );
FILE_SCHEMA (( 'AUTOMOTIVE_DESIGN' ));
ENDSEC;

DATA;
#1 = DIRECTION ( 'NONE',  ( -1.224646799147353454E-16, -0.0000000000000000000, -1.000000000000000000 ) ) ;
#2 = EDGE_CURVE ( 'NONE', #187, #208, #191, .T. ) ;
#3 = CARTESIAN_POINT ( 'NONE',  ( 0.0000000000000000000, 0.0000000000000000000, 1.500000000000000222 ) ) ;
#4 = APPLICATION_PROTOCOL_DEFINITION ( 'draft international standard', 'automotive_design', 1998, #291 ) ;
#5 = EDGE_CURVE ( 'NONE', #187, #209, #124, .T. ) ;
#6 = ADVANCED_FACE ( 'NONE', ( #76 ), #93, .T. ) ;
#7 = DIRECTION ( 'NONE',  ( -1.224646799147353454E-16, -0.0000000000000000000, -1.000000000000000000 ) ) ;
#8 = FACE_OUTER_BOUND ( 'NONE', #14, .T. ) ;
#9 = ORIENTED_EDGE ( 'NONE', *, *, #77, .F. ) ;
#10 = AXIS2_PLACEMENT_3D ( 'NONE', #67, #151, #215 ) ;
#11 = DIRECTION ( 'NONE',  ( -1.000000000000000000, 0.0000000000000000000, 0.0000000000000000000 ) ) ;
#12 = AXIS2_PLACEMENT_3D ( 'NONE', #33, #31, #280 ) ;
#13 = PRODUCT_DEFINITION ( 'UNKNOWN', '', #203, #87 ) ;
#14 = EDGE_LOOP ( 'NONE', ( #211, #234, #183, #57 ) ) ;
#15 = DIRECTION ( 'NONE',  ( -0.0000000000000000000, -0.0000000000000000000, -1.000000000000000000 ) ) ;
#16 = ADVANCED_BREP_SHAPE_REPRESENTATION ( 'Micro_SEM-125-03X', ( #176, #12 ), #131 ) ;
#17 = CARTESIAN_POINT ( 'NONE',  ( 3.061616997868383634E-17, 0.0000000000000000000, 0.2500000000000000000 ) ) ;
#18 = EDGE_CURVE ( 'NONE', #209, #217, #273, .T. ) ;
#19 = CARTESIAN_POINT ( 'NONE',  ( 0.06243750000000004852, 0.0000000000000000000, 0.2500000000000000000 ) ) ;
#20 = PRESENTATION_LAYER_ASSIGNMENT (  '', '', ( #98 ) ) ;
#21 = CIRCLE ( 'NONE', #240, 0.06243750000000001382 ) ;
#22 = EDGE_CURVE ( 'NONE', #173, #189, #251, .T. ) ;
#23 = AXIS2_PLACEMENT_3D ( 'NONE', #47, #115, #72 ) ;
#24 =( NAMED_UNIT ( * ) PLANE_ANGLE_UNIT ( ) SI_UNIT ( $, .RADIAN. ) );
#25 = ADVANCED_FACE ( 'NONE', ( #80 ), #245, .T. ) ;
#26 =( CONVERSION_BASED_UNIT ( 'INCH', #284 ) LENGTH_UNIT ( ) NAMED_UNIT ( #29 ) );
#27 = DIRECTION ( 'NONE',  ( 0.0000000000000000000, 0.0000000000000000000, -1.000000000000000000 ) ) ;
#28 = CIRCLE ( 'NONE', #294, 0.06250000000000000000 ) ;
#29 = DIMENSIONAL_EXPONENTS ( 1.000000000000000000, 0.0000000000000000000, 0.0000000000000000000, 0.0000000000000000000, 0.0000000000000000000, 0.0000000000000000000, 0.0000000000000000000 ) ;
#30 = EDGE_LOOP ( 'NONE', ( #99, #133, #289, #185 ) ) ;
#31 = DIRECTION ( 'NONE',  ( 0.0000000000000000000, 0.0000000000000000000, 1.000000000000000000 ) ) ;
#32 = ORIENTED_EDGE ( 'NONE', *, *, #120, .F. ) ;
#33 = CARTESIAN_POINT ( 'NONE',  ( 0.0000000000000000000, 0.0000000000000000000, 0.0000000000000000000 ) ) ;
#34 = CARTESIAN_POINT ( 'NONE',  ( 0.0000000000000000000, 0.0000000000000000000, 1.485000000000000764 ) ) ;
#35 = ADVANCED_FACE ( 'NONE', ( #197 ), #258, .T. ) ;
#36 = VECTOR ( 'NONE', #1, 39.37007874015748143 ) ;
#37 = DIRECTION ( 'NONE',  ( 0.7071067811865456854, 8.659560562354911904E-17, -0.7071067811865493491 ) ) ;
#38 = DIRECTION ( 'NONE',  ( -1.000000000000000000, 0.0000000000000000000, 1.224646799147353700E-16 ) ) ;
#39 = DIRECTION ( 'NONE',  ( -1.224646799147353454E-16, -0.0000000000000000000, -1.000000000000000000 ) ) ;
#40 = EDGE_LOOP ( 'NONE', ( #9, #256, #233, #32 ) ) ;
#41 = AXIS2_PLACEMENT_3D ( 'NONE', #271, #15, #101 ) ;
#42 = DIRECTION ( 'NONE',  ( 0.0000000000000000000, 0.0000000000000000000, -1.000000000000000000 ) ) ;
#43 = VECTOR ( 'NONE', #272, 39.37007874015748143 ) ;
#44 = DIRECTION ( 'NONE',  ( -1.000000000000000000, 0.0000000000000000000, 0.0000000000000000000 ) ) ;
#45 = CARTESIAN_POINT ( 'NONE',  ( -0.04750000000000064587, 0.0000000000000000000, 1.500000000000000222 ) ) ;
#46 = AXIS2_PLACEMENT_3D ( 'NONE', #220, #242, #243 ) ;
#47 = CARTESIAN_POINT ( 'NONE',  ( 0.0000000000000000000, 0.0000000000000000000, 1.485000000000000764 ) ) ;
#48 = CARTESIAN_POINT ( 'NONE',  ( 0.0000000000000000000, 0.0000000000000000000, 0.0000000000000000000 ) ) ;
#49 = CIRCLE ( 'NONE', #114, 0.06243749999999999994 ) ;
#50 = AXIS2_PLACEMENT_3D ( 'NONE', #48, #138, #91 ) ;
#51 = ADVANCED_FACE ( 'NONE', ( #106 ), #148, .F. ) ;
#52 =( LENGTH_UNIT ( ) NAMED_UNIT ( * ) SI_UNIT ( $, .METRE. ) );
#53 = CIRCLE ( 'NONE', #162, 0.06243749999999999994 ) ;
#54 = AXIS2_PLACEMENT_3D ( 'NONE', #132, #112, #71 ) ;
#55 = PRESENTATION_STYLE_ASSIGNMENT (( #164 ) ) ;
#56 = APPLICATION_CONTEXT ( 'automotive_design' ) ;
#57 = ORIENTED_EDGE ( 'NONE', *, *, #199, .F. ) ;
#58 = STYLED_ITEM ( 'NONE', ( #55 ), #16 ) ;
#59 = FACE_OUTER_BOUND ( 'NONE', #188, .T. ) ;
#60 = CARTESIAN_POINT ( 'NONE',  ( 3.065957821073043634E-17, 0.0000000000000000000, 0.2503544551137260044 ) ) ;
#61 = CLOSED_SHELL ( 'NONE', ( #254, #186, #159, #88, #152, #25, #6, #35, #182, #51 ) ) ;
#62 = ORIENTED_EDGE ( 'NONE', *, *, #5, .F. ) ;
#63 = CARTESIAN_POINT ( 'NONE',  ( -0.06243749999999997913, 7.650215473423623230E-18, 0.2500000000000000000 ) ) ;
#64 = ORIENTED_EDGE ( 'NONE', *, *, #77, .T. ) ;
#65 = AXIS2_PLACEMENT_3D ( 'NONE', #216, #144, #11 ) ;
#66 = SURFACE_STYLE_USAGE ( .BOTH. , #171 ) ;
#67 = CARTESIAN_POINT ( 'NONE',  ( 0.0000000000000000000, 0.0000000000000000000, 1.500000000000000222 ) ) ;
#68 = DIRECTION ( 'NONE',  ( -1.000000000000000000, 0.0000000000000000000, 0.0000000000000000000 ) ) ;
#69 =( LENGTH_UNIT ( ) NAMED_UNIT ( * ) SI_UNIT ( $, .METRE. ) );
#70 = MECHANICAL_DESIGN_GEOMETRIC_PRESENTATION_REPRESENTATION (  '', ( #58 ), #260 ) ;
#71 = DIRECTION ( 'NONE',  ( 1.000000000000000000, 0.0000000000000000000, 0.0000000000000000000 ) ) ;
#72 = DIRECTION ( 'NONE',  ( 1.000000000000000000, 0.0000000000000000000, 0.0000000000000000000 ) ) ;
#73 = CARTESIAN_POINT ( 'NONE',  ( -0.06243749999999999994, 0.0000000000000000000, 1.529277690435257783E-17 ) ) ;
#74 = APPLICATION_PROTOCOL_DEFINITION ( 'draft international standard', 'automotive_design', 1998, #56 ) ;
#75 = ORIENTED_EDGE ( 'NONE', *, *, #169, .F. ) ;
#76 = FACE_OUTER_BOUND ( 'NONE', #147, .T. ) ;
#77 = EDGE_CURVE ( 'NONE', #189, #237, #172, .T. ) ;
#78 = ORIENTED_EDGE ( 'NONE', *, *, #120, .T. ) ;
#79 = ORIENTED_EDGE ( 'NONE', *, *, #199, .T. ) ;
#80 = FACE_OUTER_BOUND ( 'NONE', #153, .T. ) ;
#81 = EDGE_CURVE ( 'NONE', #268, #237, #53, .T. ) ;
#82 = ORIENTED_EDGE ( 'NONE', *, *, #97, .F. ) ;
#83 = DIRECTION ( 'NONE',  ( 1.000000000000000000, 0.0000000000000000000, 0.0000000000000000000 ) ) ;
#84 = DIRECTION ( 'NONE',  ( -1.224646799147353454E-16, -0.0000000000000000000, -1.000000000000000000 ) ) ;
#85 = ORIENTED_EDGE ( 'NONE', *, *, #100, .T. ) ;
#86 = CARTESIAN_POINT ( 'NONE',  ( 0.0000000000000000000, 0.0000000000000000000, 0.0000000000000000000 ) ) ;
#87 = PRODUCT_DEFINITION_CONTEXT ( 'detailed design', #56, 'design' ) ;
#88 = ADVANCED_FACE ( 'NONE', ( #59 ), #146, .T. ) ;
#89 = VECTOR ( 'NONE', #281, 39.37007874015748143 ) ;
#90 = LINE ( 'NONE', #170, #149 ) ;
#91 = DIRECTION ( 'NONE',  ( -1.000000000000000000, 0.0000000000000000000, 1.224646799147353207E-16 ) ) ;
#92 = CARTESIAN_POINT ( 'NONE',  ( -0.06243750000000001382, 0.0000000000000000000, 7.646388452176288915E-18 ) ) ;
#93 = CONICAL_SURFACE ( 'NONE', #103, 0.04750000000000064587, 0.7853981633974457255 ) ;
#94 = AXIS2_PLACEMENT_3D ( 'NONE', #276, #298, #221 ) ;
#95 = DIRECTION ( 'NONE',  ( -1.224646799147353454E-16, -0.0000000000000000000, -1.000000000000000000 ) ) ;
#96 = CARTESIAN_POINT ( 'NONE',  ( -0.06250000000000000000, 0.0000000000000000000, 1.500000000000000222 ) ) ;
#97 = EDGE_CURVE ( 'NONE', #285, #208, #90, .T. ) ;
#98 = STYLED_ITEM ( 'NONE', ( #227 ), #176 ) ;
#99 = ORIENTED_EDGE ( 'NONE', *, *, #22, .F. ) ;
#100 = EDGE_CURVE ( 'NONE', #189, #217, #190, .T. ) ;
#101 = DIRECTION ( 'NONE',  ( -1.000000000000000000, 0.0000000000000000000, 0.0000000000000000000 ) ) ;
#102 = DIRECTION ( 'NONE',  ( 1.000000000000000000, 0.0000000000000000000, 0.0000000000000000000 ) ) ;
#103 = AXIS2_PLACEMENT_3D ( 'NONE', #121, #126, #44 ) ;
#104 = ORIENTED_EDGE ( 'NONE', *, *, #18, .F. ) ;
#105 =( GEOMETRIC_REPRESENTATION_CONTEXT ( 3 ) GLOBAL_UNCERTAINTY_ASSIGNED_CONTEXT ( ( #107 ) ) GLOBAL_UNIT_ASSIGNED_CONTEXT ( ( #158, #24, #225 ) ) REPRESENTATION_CONTEXT ( 'NONE', 'WORKASPACE' ) );
#106 = FACE_OUTER_BOUND ( 'NONE', #244, .T. ) ;
#107 = UNCERTAINTY_MEASURE_WITH_UNIT (LENGTH_MEASURE( 1.000000000000000082E-05 ), #158, 'distance_accuracy_value', 'NONE');
#108 = CARTESIAN_POINT ( 'NONE',  ( 9.364125142994977476E-34, 0.0000000000000000000, 7.646388452176288915E-18 ) ) ;
#109 = DIRECTION ( 'NONE',  ( 1.000000000000000000, 0.0000000000000000000, -0.0000000000000000000 ) ) ;
#110 = AXIS2_PLACEMENT_3D ( 'NONE', #60, #84, #83 ) ;
#111 = CARTESIAN_POINT ( 'NONE',  ( 3.065957821073043634E-17, 0.0000000000000000000, 0.2503544551137260044 ) ) ;
#112 = DIRECTION ( 'NONE',  ( 0.0000000000000000000, 0.0000000000000000000, 1.000000000000000000 ) ) ;
#113 = FACE_OUTER_BOUND ( 'NONE', #30, .T. ) ;
#114 = AXIS2_PLACEMENT_3D ( 'NONE', #108, #39, #38 ) ;
#115 = DIRECTION ( 'NONE',  ( 0.0000000000000000000, 0.0000000000000000000, -1.000000000000000000 ) ) ;
#116 = SHAPE_DEFINITION_REPRESENTATION ( #136, #16 ) ;
#117 = DIRECTION ( 'NONE',  ( 1.000000000000000000, 0.0000000000000000000, 0.0000000000000000000 ) ) ;
#118 = EDGE_LOOP ( 'NONE', ( #75, #140, #85, #165 ) ) ;
#119 = SURFACE_SIDE_STYLE ('',( #228 ) ) ;
#120 = EDGE_CURVE ( 'NONE', #237, #268, #49, .T. ) ;
#121 = CARTESIAN_POINT ( 'NONE',  ( 0.0000000000000000000, 0.0000000000000000000, 1.500000000000000222 ) ) ;
#122 = ORIENTED_EDGE ( 'NONE', *, *, #142, .F. ) ;
#123 = ORIENTED_EDGE ( 'NONE', *, *, #81, .T. ) ;
#124 = LINE ( 'NONE', #96, #89 ) ;
#125 = AXIS2_PLACEMENT_3D ( 'NONE', #17, #287, #102 ) ;
#126 = DIRECTION ( 'NONE',  ( 0.0000000000000000000, 0.0000000000000000000, -1.000000000000000000 ) ) ;
#127 = FACE_OUTER_BOUND ( 'NONE', #255, .T. ) ;
#128 = ORIENTED_EDGE ( 'NONE', *, *, #296, .T. ) ;
#129 = CARTESIAN_POINT ( 'NONE',  ( 0.0000000000000000000, 0.0000000000000000000, 1.500000000000000222 ) ) ;
#130 = ORIENTED_EDGE ( 'NONE', *, *, #210, .F. ) ;
#131 =( GEOMETRIC_REPRESENTATION_CONTEXT ( 3 ) GLOBAL_UNCERTAINTY_ASSIGNED_CONTEXT ( ( #196 ) ) GLOBAL_UNIT_ASSIGNED_CONTEXT ( ( #139, #259, #261 ) ) REPRESENTATION_CONTEXT ( 'NONE', 'WORKASPACE' ) );
#132 = CARTESIAN_POINT ( 'NONE',  ( 0.0000000000000000000, 0.0000000000000000000, 1.500000000000000222 ) ) ;
#133 = ORIENTED_EDGE ( 'NONE', *, *, #169, .T. ) ;
#134 = DIRECTION ( 'NONE',  ( -1.000000000000000000, 0.0000000000000000000, 0.0000000000000000000 ) ) ;
#135 = DIRECTION ( 'NONE',  ( 1.000000000000000000, 0.0000000000000000000, 0.0000000000000000000 ) ) ;
#136 = PRODUCT_DEFINITION_SHAPE ( 'NONE', 'NONE',  #13 ) ;
#137 = FACE_OUTER_BOUND ( 'NONE', #40, .T. ) ;
#138 = DIRECTION ( 'NONE',  ( -1.224646799147353454E-16, -0.0000000000000000000, -1.000000000000000000 ) ) ;
#139 =( CONVERSION_BASED_UNIT ( 'INCH', #253 ) LENGTH_UNIT ( ) NAMED_UNIT ( #184 ) );
#140 = ORIENTED_EDGE ( 'NONE', *, *, #277, .F. ) ;
#141 = ORIENTED_EDGE ( 'NONE', *, *, #5, .T. ) ;
#142 = EDGE_CURVE ( 'NONE', #208, #217, #269, .T. ) ;
#143 = VECTOR ( 'NONE', #267, 39.37007874015747433 ) ;
#144 = DIRECTION ( 'NONE',  ( -0.0000000000000000000, -0.0000000000000000000, -1.000000000000000000 ) ) ;
#145 = PRODUCT ( 'Micro_SEM-125-03X', 'Micro_SEM-125-03X', '', ( #160 ) ) ;
#146 = CYLINDRICAL_SURFACE ( 'NONE', #41, 0.06250000000000000000 ) ;
#147 = EDGE_LOOP ( 'NONE', ( #82, #236, #79, #262 ) ) ;
#148 = PLANE ( 'NONE',  #222 ) ;
#149 = VECTOR ( 'NONE', #37, 39.37007874015748143 ) ;
#150 = FILL_AREA_STYLE ('',( #195 ) ) ;
#151 = DIRECTION ( 'NONE',  ( 0.0000000000000000000, 0.0000000000000000000, 1.000000000000000000 ) ) ;
#152 = ADVANCED_FACE ( 'NONE', ( #127 ), #168, .T. ) ;
#153 = EDGE_LOOP ( 'NONE', ( #282, #128 ) ) ;
#154 = FACE_OUTER_BOUND ( 'NONE', #238, .T. ) ;
#155 = LINE ( 'NONE', #92, #36 ) ;
#156 = AXIS2_PLACEMENT_3D ( 'NONE', #3, #174, #180 ) ;
#157 = LINE ( 'NONE', #45, #43 ) ;
#158 =( CONVERSION_BASED_UNIT ( 'INCH', #297 ) LENGTH_UNIT ( ) NAMED_UNIT ( #279 ) );
#159 = ADVANCED_FACE ( 'NONE', ( #8 ), #293, .T. ) ;
#160 = PRODUCT_CONTEXT ( 'NONE', #291, 'mechanical' ) ;
#161 = ORIENTED_EDGE ( 'NONE', *, *, #229, .T. ) ;
#162 = AXIS2_PLACEMENT_3D ( 'NONE', #292, #194, #219 ) ;
#163 = PRESENTATION_LAYER_ASSIGNMENT (  '', '', ( #58 ) ) ;
#164 = SURFACE_STYLE_USAGE ( .BOTH. , #119 ) ;
#165 = ORIENTED_EDGE ( 'NONE', *, *, #241, .T. ) ;
#166 = DIRECTION ( 'NONE',  ( 0.1736481776669313581, 0.0000000000000000000, 0.9848077530122077983 ) ) ;
#167 = CIRCLE ( 'NONE', #54, 0.04750000000000064587 ) ;
#168 = CYLINDRICAL_SURFACE ( 'NONE', #65, 0.06250000000000000000 ) ;
#169 = EDGE_CURVE ( 'NONE', #173, #209, #265, .T. ) ;
#170 = CARTESIAN_POINT ( 'NONE',  ( 0.04750000000000064587, 5.817072295950006528E-18, 1.500000000000000222 ) ) ;
#171 = SURFACE_SIDE_STYLE ('',( #290 ) ) ;
#172 = LINE ( 'NONE', #192, #299 ) ;
#173 = VERTEX_POINT ( 'NONE', #63 ) ;
#174 = DIRECTION ( 'NONE',  ( 0.0000000000000000000, 0.0000000000000000000, 1.000000000000000000 ) ) ;
#175 = CARTESIAN_POINT ( 'NONE',  ( -0.06250000000000000000, 0.0000000000000000000, 1.485000000000000764 ) ) ;
#176 = MANIFOLD_SOLID_BREP ( 'Cut-Revolve1', #61 ) ;
#177 = CARTESIAN_POINT ( 'NONE',  ( 0.06243749999999999994, 7.646388452176287375E-18, -9.478001694819074349E-34 ) ) ;
#178 = EDGE_CURVE ( 'NONE', #266, #285, #167, .T. ) ;
#179 = DIRECTION ( 'NONE',  ( -1.000000000000000000, 0.0000000000000000000, 1.224646799147353207E-16 ) ) ;
#180 = DIRECTION ( 'NONE',  ( 1.000000000000000000, 0.0000000000000000000, 0.0000000000000000000 ) ) ;
#181 = AXIS2_PLACEMENT_3D ( 'NONE', #34, #27, #117 ) ;
#182 = ADVANCED_FACE ( 'NONE', ( #137 ), #224, .T. ) ;
#183 = ORIENTED_EDGE ( 'NONE', *, *, #2, .F. ) ;
#184 = DIMENSIONAL_EXPONENTS ( 1.000000000000000000, 0.0000000000000000000, 0.0000000000000000000, 0.0000000000000000000, 0.0000000000000000000, 0.0000000000000000000, 0.0000000000000000000 ) ;
#185 = ORIENTED_EDGE ( 'NONE', *, *, #100, .F. ) ;
#186 = ADVANCED_FACE ( 'NONE', ( #113 ), #264, .T. ) ;
#187 = VERTEX_POINT ( 'NONE', #175 ) ;
#188 = EDGE_LOOP ( 'NONE', ( #230, #283, #104, #62 ) ) ;
#189 = VERTEX_POINT ( 'NONE', #19 ) ;
#190 = LINE ( 'NONE', #286, #202 ) ;
#191 = CIRCLE ( 'NONE', #181, 0.06250000000000000000 ) ;
#192 = CARTESIAN_POINT ( 'NONE',  ( 0.06243750000000001382, 7.646388452176288915E-18, -7.646388452176288915E-18 ) ) ;
#193 = AXIS2_PLACEMENT_3D ( 'NONE', #200, #250, #179 ) ;
#194 = DIRECTION ( 'NONE',  ( -1.224646799147353454E-16, -0.0000000000000000000, -1.000000000000000000 ) ) ;
#195 = FILL_AREA_STYLE_COLOUR ( '', #226 ) ;
#196 = UNCERTAINTY_MEASURE_WITH_UNIT (LENGTH_MEASURE( 1.000000000000000082E-05 ), #139, 'distance_accuracy_value', 'NONE');
#197 = FACE_OUTER_BOUND ( 'NONE', #118, .T. ) ;
#198 = CIRCLE ( 'NONE', #23, 0.06250000000000000000 ) ;
#199 = EDGE_CURVE ( 'NONE', #266, #187, #157, .T. ) ;
#200 = CARTESIAN_POINT ( 'NONE',  ( 0.0000000000000000000, 0.0000000000000000000, 0.0000000000000000000 ) ) ;
#201 = CARTESIAN_POINT ( 'NONE',  ( 0.06250000000000000000, 7.654042494670956004E-18, 1.485000000000000764 ) ) ;
#202 = VECTOR ( 'NONE', #166, 39.37007874015748143 ) ;
#203 = PRODUCT_DEFINITION_FORMATION_WITH_SPECIFIED_SOURCE ( 'ANY', '', #145, .NOT_KNOWN. ) ;
#204 = CARTESIAN_POINT ( 'NONE',  ( -0.06249999999999996531, 0.0000000000000000000, 0.2503544551137260044 ) ) ;
#205 = CARTESIAN_POINT ( 'NONE',  ( 0.04750000000000064587, 6.735557395310482421E-18, 1.500000000000000222 ) ) ;
#206 = FILL_AREA_STYLE_COLOUR ( '', #252 ) ;
#207 = ORIENTED_EDGE ( 'NONE', *, *, #22, .T. ) ;
#208 = VERTEX_POINT ( 'NONE', #201 ) ;
#209 = VERTEX_POINT ( 'NONE', #204 ) ;
#210 = EDGE_CURVE ( 'NONE', #173, #268, #155, .T. ) ;
#211 = ORIENTED_EDGE ( 'NONE', *, *, #296, .F. ) ;
#212 = FILL_AREA_STYLE ('',( #206 ) ) ;
#213 = ORIENTED_EDGE ( 'NONE', *, *, #81, .F. ) ;
#214 = ORIENTED_EDGE ( 'NONE', *, *, #241, .F. ) ;
#215 = DIRECTION ( 'NONE',  ( 1.000000000000000000, 0.0000000000000000000, -0.0000000000000000000 ) ) ;
#216 = CARTESIAN_POINT ( 'NONE',  ( 0.0000000000000000000, 0.0000000000000000000, 1.500000000000000222 ) ) ;
#217 = VERTEX_POINT ( 'NONE', #249 ) ;
#218 = CARTESIAN_POINT ( 'NONE',  ( -0.06243749999999997913, 7.646388452176288915E-18, 0.2500000000000000000 ) ) ;
#219 = DIRECTION ( 'NONE',  ( -1.000000000000000000, 0.0000000000000000000, 1.224646799147353700E-16 ) ) ;
#220 = CARTESIAN_POINT ( 'NONE',  ( 3.061616997868383634E-17, 0.0000000000000000000, 0.2500000000000000000 ) ) ;
#221 = DIRECTION ( 'NONE',  ( 1.000000000000000000, 0.0000000000000000000, 0.0000000000000000000 ) ) ;
#222 = AXIS2_PLACEMENT_3D ( 'NONE', #86, #263, #109 ) ;
#223 =( LENGTH_UNIT ( ) NAMED_UNIT ( * ) SI_UNIT ( $, .METRE. ) );
#224 = CYLINDRICAL_SURFACE ( 'NONE', #50, 0.06243750000000001382 ) ;
#225 =( NAMED_UNIT ( * ) SI_UNIT ( $, .STERADIAN. ) SOLID_ANGLE_UNIT ( ) );
#226 = COLOUR_RGB ( '',0.7921568627450980005, 0.8196078431372548767, 0.9333333333333333481 ) ;
#227 = PRESENTATION_STYLE_ASSIGNMENT (( #66 ) ) ;
#228 = SURFACE_STYLE_FILL_AREA ( #212 ) ;
#229 = EDGE_CURVE ( 'NONE', #208, #187, #198, .T. ) ;
#230 = ORIENTED_EDGE ( 'NONE', *, *, #2, .T. ) ;
#231 = CIRCLE ( 'NONE', #156, 0.04750000000000064587 ) ;
#232 =( NAMED_UNIT ( * ) SI_UNIT ( $, .STERADIAN. ) SOLID_ANGLE_UNIT ( ) );
#233 = ORIENTED_EDGE ( 'NONE', *, *, #210, .T. ) ;
#234 = ORIENTED_EDGE ( 'NONE', *, *, #97, .T. ) ;
#235 =( NAMED_UNIT ( * ) PLANE_ANGLE_UNIT ( ) SI_UNIT ( $, .RADIAN. ) );
#236 = ORIENTED_EDGE ( 'NONE', *, *, #178, .F. ) ;
#237 = VERTEX_POINT ( 'NONE', #177 ) ;
#238 = EDGE_LOOP ( 'NONE', ( #207, #64, #213, #130 ) ) ;
#239 = VECTOR ( 'NONE', #246, 39.37007874015748143 ) ;
#240 = AXIS2_PLACEMENT_3D ( 'NONE', #275, #248, #68 ) ;
#241 = EDGE_CURVE ( 'NONE', #217, #209, #28, .T. ) ;
#242 = DIRECTION ( 'NONE',  ( -1.224646799147353454E-16, -0.0000000000000000000, -1.000000000000000000 ) ) ;
#243 = DIRECTION ( 'NONE',  ( -1.000000000000000000, 0.0000000000000000000, 0.0000000000000000000 ) ) ;
#244 = EDGE_LOOP ( 'NONE', ( #123, #78 ) ) ;
#245 = PLANE ( 'NONE',  #10 ) ;
#246 = DIRECTION ( 'NONE',  ( -0.0000000000000000000, -0.0000000000000000000, -1.000000000000000000 ) ) ;
#247 = UNCERTAINTY_MEASURE_WITH_UNIT (LENGTH_MEASURE( 1.000000000000000082E-05 ), #26, 'distance_accuracy_value', 'NONE');
#248 = DIRECTION ( 'NONE',  ( -1.224646799147353454E-16, -0.0000000000000000000, -1.000000000000000000 ) ) ;
#249 = CARTESIAN_POINT ( 'NONE',  ( 0.06250000000000002776, 7.654042494670959086E-18, 0.2503544551137260044 ) ) ;
#250 = DIRECTION ( 'NONE',  ( -1.224646799147353454E-16, -0.0000000000000000000, -1.000000000000000000 ) ) ;
#251 = CIRCLE ( 'NONE', #46, 0.06243750000000001382 ) ;
#252 = COLOUR_RGB ( '',0.7921568627450980005, 0.8196078431372548767, 0.9333333333333333481 ) ;
#253 = LENGTH_MEASURE_WITH_UNIT ( LENGTH_MEASURE( 0.02539999999999999897 ), #223 );
#254 = ADVANCED_FACE ( 'NONE', ( #154 ), #295, .T. ) ;
#255 = EDGE_LOOP ( 'NONE', ( #122, #161, #141, #214 ) ) ;
#256 = ORIENTED_EDGE ( 'NONE', *, *, #277, .T. ) ;
#257 = PRODUCT_RELATED_PRODUCT_CATEGORY ( 'part', '', ( #145 ) ) ;
#258 = CONICAL_SURFACE ( 'NONE', #125, 0.06243750000000001382, 0.1745329251994338637 ) ;
#259 =( NAMED_UNIT ( * ) PLANE_ANGLE_UNIT ( ) SI_UNIT ( $, .RADIAN. ) );
#260 =( GEOMETRIC_REPRESENTATION_CONTEXT ( 3 ) GLOBAL_UNCERTAINTY_ASSIGNED_CONTEXT ( ( #247 ) ) GLOBAL_UNIT_ASSIGNED_CONTEXT ( ( #26, #235, #232 ) ) REPRESENTATION_CONTEXT ( 'NONE', 'WORKASPACE' ) );
#261 =( NAMED_UNIT ( * ) SI_UNIT ( $, .STERADIAN. ) SOLID_ANGLE_UNIT ( ) );
#262 = ORIENTED_EDGE ( 'NONE', *, *, #229, .F. ) ;
#263 = DIRECTION ( 'NONE',  ( 0.0000000000000000000, 0.0000000000000000000, 1.000000000000000000 ) ) ;
#264 = CONICAL_SURFACE ( 'NONE', #94, 0.06243750000000001382, 0.1745329251994338637 ) ;
#265 = LINE ( 'NONE', #218, #143 ) ;
#266 = VERTEX_POINT ( 'NONE', #274 ) ;
#267 = DIRECTION ( 'NONE',  ( -0.1736481776669311639, 2.126576849575783008E-17, 0.9848077530122080203 ) ) ;
#268 = VERTEX_POINT ( 'NONE', #73 ) ;
#269 = LINE ( 'NONE', #288, #239 ) ;
#270 = MECHANICAL_DESIGN_GEOMETRIC_PRESENTATION_REPRESENTATION (  '', ( #98 ), #105 ) ;
#271 = CARTESIAN_POINT ( 'NONE',  ( 0.0000000000000000000, 0.0000000000000000000, 1.500000000000000222 ) ) ;
#272 = DIRECTION ( 'NONE',  ( -0.7071067811865456854, 0.0000000000000000000, -0.7071067811865493491 ) ) ;
#273 = CIRCLE ( 'NONE', #110, 0.06250000000000000000 ) ;
#274 = CARTESIAN_POINT ( 'NONE',  ( -0.04750000000000064587, 0.0000000000000000000, 1.500000000000000222 ) ) ;
#275 = CARTESIAN_POINT ( 'NONE',  ( 3.061616997868383634E-17, 0.0000000000000000000, 0.2500000000000000000 ) ) ;
#276 = CARTESIAN_POINT ( 'NONE',  ( 3.061616997868383634E-17, 0.0000000000000000000, 0.2500000000000000000 ) ) ;
#277 = EDGE_CURVE ( 'NONE', #189, #173, #21, .T. ) ;
#278 = AXIS2_PLACEMENT_3D ( 'NONE', #129, #42, #134 ) ;
#279 = DIMENSIONAL_EXPONENTS ( 1.000000000000000000, 0.0000000000000000000, 0.0000000000000000000, 0.0000000000000000000, 0.0000000000000000000, 0.0000000000000000000, 0.0000000000000000000 ) ;
#280 = DIRECTION ( 'NONE',  ( 1.000000000000000000, 0.0000000000000000000, 0.0000000000000000000 ) ) ;
#281 = DIRECTION ( 'NONE',  ( -0.0000000000000000000, -0.0000000000000000000, -1.000000000000000000 ) ) ;
#282 = ORIENTED_EDGE ( 'NONE', *, *, #178, .T. ) ;
#283 = ORIENTED_EDGE ( 'NONE', *, *, #142, .T. ) ;
#284 = LENGTH_MEASURE_WITH_UNIT ( LENGTH_MEASURE( 0.02539999999999999897 ), #52 );
#285 = VERTEX_POINT ( 'NONE', #205 ) ;
#286 = CARTESIAN_POINT ( 'NONE',  ( 0.06243750000000004852, 0.0000000000000000000, 0.2500000000000000000 ) ) ;
#287 = DIRECTION ( 'NONE',  ( 1.224646799147353454E-16, 0.0000000000000000000, 1.000000000000000000 ) ) ;
#288 = CARTESIAN_POINT ( 'NONE',  ( 0.06250000000000000000, 7.654042494670956004E-18, 1.500000000000000222 ) ) ;
#289 = ORIENTED_EDGE ( 'NONE', *, *, #18, .T. ) ;
#290 = SURFACE_STYLE_FILL_AREA ( #150 ) ;
#291 = APPLICATION_CONTEXT ( 'automotive_design' ) ;
#292 = CARTESIAN_POINT ( 'NONE',  ( 9.364125142994977476E-34, 0.0000000000000000000, 7.646388452176288915E-18 ) ) ;
#293 = CONICAL_SURFACE ( 'NONE', #278, 0.04750000000000064587, 0.7853981633974457255 ) ;
#294 = AXIS2_PLACEMENT_3D ( 'NONE', #111, #95, #135 ) ;
#295 = CYLINDRICAL_SURFACE ( 'NONE', #193, 0.06243750000000001382 ) ;
#296 = EDGE_CURVE ( 'NONE', #285, #266, #231, .T. ) ;
#297 = LENGTH_MEASURE_WITH_UNIT ( LENGTH_MEASURE( 0.02539999999999999897 ), #69 );
#298 = DIRECTION ( 'NONE',  ( 1.224646799147353454E-16, 0.0000000000000000000, 1.000000000000000000 ) ) ;
#299 = VECTOR ( 'NONE', #7, 39.37007874015748143 ) ;
ENDSEC;
END-ISO-10303-21;
