ISO-10303-21;
HEADER;
FILE_DESCRIPTION (( 'STEP AP214' ),
    '1' );
FILE_NAME ('24062.STEP',
    '2023-06-22T16:55:27',
    ( '' ),
    ( '' ),
    'SwSTEP 2.0',
    'SolidWorks 2023',
    '' );
FILE_SCHEMA (( 'AUTOMOTIVE_DESIGN' ));
ENDSEC;

DATA;
#1 = DIRECTION ( 'NONE',  ( -0.000000000000000000, -1.000000000000000000, -0.000000000000000000 ) ) ;
#2 = LENGTH_MEASURE_WITH_UNIT ( LENGTH_MEASURE( 0.02539999999999999897 ), #129 );
#3 = AXIS2_PLACEMENT_3D ( 'NONE', #124, #1, #130 ) ;
#4 = CARTESIAN_POINT ( 'NONE',  ( -1.224646799147352714E-16, 4.000000000000000000, 0.000000000000000000 ) ) ;
#5 = EDGE_CURVE ( 'NONE', #119, #75, #287, .T. ) ;
#6 = FACE_OUTER_BOUND ( 'NONE', #94, .T. ) ;
#7 = DIRECTION ( 'NONE',  ( -0.000000000000000000, -1.000000000000000000, -0.000000000000000000 ) ) ;
#8 = PRESENTATION_STYLE_ASSIGNMENT (( #38 ) ) ;
#9 = UNCERTAINTY_MEASURE_WITH_UNIT (LENGTH_MEASURE( 1.000000000000000082E-05 ), #180, 'distance_accuracy_value', 'NONE');
#10 = CLOSED_SHELL ( 'NONE', ( #169, #238, #308, #208 ) ) ;
#11 =( CONVERSION_BASED_UNIT ( 'INCH', #110 ) LENGTH_UNIT ( ) NAMED_UNIT ( #64 ) );
#12 = AXIS2_PLACEMENT_3D ( 'NONE', #199, #7, #197 ) ;
#13 = DIRECTION ( 'NONE',  ( 0.000000000000000000, 0.000000000000000000, -1.000000000000000000 ) ) ;
#14 = PLANE ( 'NONE',  #117 ) ;
#15 = FILL_AREA_STYLE ('',( #228 ) ) ;
#16 = MECHANICAL_DESIGN_GEOMETRIC_PRESENTATION_REPRESENTATION (  '', ( #104 ), #59 ) ;
#17 = EDGE_LOOP ( 'NONE', ( #44, #46 ) ) ;
#18 = ORIENTED_EDGE ( 'NONE', *, *, #144, .T. ) ;
#19 =( GEOMETRIC_REPRESENTATION_CONTEXT ( 3 ) GLOBAL_UNCERTAINTY_ASSIGNED_CONTEXT ( ( #264 ) ) GLOBAL_UNIT_ASSIGNED_CONTEXT ( ( #11, #68, #204 ) ) REPRESENTATION_CONTEXT ( 'NONE', 'WORKASPACE' ) );
#20 = SURFACE_STYLE_USAGE ( .BOTH. , #277 ) ;
#21 = EDGE_LOOP ( 'NONE', ( #145, #236, #307, #276 ) ) ;
#22 = LENGTH_MEASURE_WITH_UNIT ( LENGTH_MEASURE( 0.02539999999999999897 ), #51 );
#23 = EDGE_LOOP ( 'NONE', ( #118, #73, #190, #172 ) ) ;
#24 = DIRECTION ( 'NONE',  ( 5.442874662877122010E-17, -1.000000000000000000, 0.000000000000000000 ) ) ;
#25 = ADVANCED_FACE ( 'NONE', ( #29 ), #194, .T. ) ;
#26 = CARTESIAN_POINT ( 'NONE',  ( -0.1250000000000001943, 4.000000000000000000, 0.000000000000000000 ) ) ;
#27 = UNCERTAINTY_MEASURE_WITH_UNIT (LENGTH_MEASURE( 1.000000000000000082E-05 ), #89, 'distance_accuracy_value', 'NONE');
#28 = AXIS2_PLACEMENT_3D ( 'NONE', #245, #271, #295 ) ;
#29 = FACE_OUTER_BOUND ( 'NONE', #21, .T. ) ;
#30 = DIRECTION ( 'NONE',  ( -5.442874662877122626E-17, 1.000000000000000000, -0.000000000000000000 ) ) ;
#31 = SURFACE_STYLE_FILL_AREA ( #82 ) ;
#32 = DIRECTION ( 'NONE',  ( -5.442874662877122626E-17, 1.000000000000000000, -0.000000000000000000 ) ) ;
#33 = LINE ( 'NONE', #133, #293 ) ;
#34 = FILL_AREA_STYLE ('',( #111 ) ) ;
#35 = CARTESIAN_POINT ( 'NONE',  ( 0.000000000000000000, 0.000000000000000000, 0.000000000000000000 ) ) ;
#36 = MECHANICAL_DESIGN_GEOMETRIC_PRESENTATION_REPRESENTATION (  '', ( #159 ), #19 ) ;
#37 = PRODUCT_DEFINITION_FORMATION_WITH_SPECIFIED_SOURCE ( 'ANY', '', #178, .NOT_KNOWN. ) ;
#38 = SURFACE_STYLE_USAGE ( .BOTH. , #134 ) ;
#39 = APPLICATION_CONTEXT ( 'automotive_design' ) ;
#40 = FACE_OUTER_BOUND ( 'NONE', #17, .T. ) ;
#41 = DIMENSIONAL_EXPONENTS ( 1.000000000000000000, 0.000000000000000000, 0.000000000000000000, 0.000000000000000000, 0.000000000000000000, 0.000000000000000000, 0.000000000000000000 ) ;
#42 = COLOUR_RGB ( '',1.000000000000000000, 0.000000000000000000, 0.000000000000000000 ) ;
#43 = VECTOR ( 'NONE', #162, 39.37007874015748143 ) ;
#44 = ORIENTED_EDGE ( 'NONE', *, *, #215, .T. ) ;
#45 = EDGE_CURVE ( 'NONE', #252, #233, #33, .T. ) ;
#46 = ORIENTED_EDGE ( 'NONE', *, *, #181, .T. ) ;
#47 = COLOUR_RGB ( '',1.000000000000000000, 0.000000000000000000, 0.000000000000000000 ) ;
#48 = ORIENTED_EDGE ( 'NONE', *, *, #5, .F. ) ;
#49 = CARTESIAN_POINT ( 'NONE',  ( 0.1250000000000000000, 4.000000000000000000, 1.530808498934192742E-17 ) ) ;
#50 = ORIENTED_EDGE ( 'NONE', *, *, #188, .T. ) ;
#51 =( LENGTH_UNIT ( ) NAMED_UNIT ( * ) SI_UNIT ( $, .METRE. ) );
#52 = CARTESIAN_POINT ( 'NONE',  ( 0.1250000000000000000, 1.750000000000000000, 1.530808498934192742E-17 ) ) ;
#53 = AXIS2_PLACEMENT_3D ( 'NONE', #265, #198, #83 ) ;
#54 =( GEOMETRIC_REPRESENTATION_CONTEXT ( 3 ) GLOBAL_UNCERTAINTY_ASSIGNED_CONTEXT ( ( #285 ) ) GLOBAL_UNIT_ASSIGNED_CONTEXT ( ( #216, #209, #237 ) ) REPRESENTATION_CONTEXT ( 'NONE', 'WORKASPACE' ) );
#55 = SURFACE_STYLE_USAGE ( .BOTH. , #200 ) ;
#56 = FILL_AREA_STYLE ('',( #109 ) ) ;
#57 = PRODUCT_RELATED_PRODUCT_CATEGORY ( 'part', '', ( #178 ) ) ;
#58 = CARTESIAN_POINT ( 'NONE',  ( 1.530808498934191817E-17, 0.000000000000000000, 0.1250000000000000278 ) ) ;
#59 =( GEOMETRIC_REPRESENTATION_CONTEXT ( 3 ) GLOBAL_UNCERTAINTY_ASSIGNED_CONTEXT ( ( #27 ) ) GLOBAL_UNIT_ASSIGNED_CONTEXT ( ( #89, #62, #182 ) ) REPRESENTATION_CONTEXT ( 'NONE', 'WORKASPACE' ) );
#60 = STYLED_ITEM ( 'NONE', ( #217 ), #308 ) ;
#61 = EDGE_CURVE ( 'NONE', #252, #173, #91, .T. ) ;
#62 =( NAMED_UNIT ( * ) PLANE_ANGLE_UNIT ( ) SI_UNIT ( $, .RADIAN. ) );
#63 = CYLINDRICAL_SURFACE ( 'NONE', #81, 0.1250000000000000278 ) ;
#64 = DIMENSIONAL_EXPONENTS ( 1.000000000000000000, 0.000000000000000000, 0.000000000000000000, 0.000000000000000000, 0.000000000000000000, 0.000000000000000000, 0.000000000000000000 ) ;
#65 = CARTESIAN_POINT ( 'NONE',  ( 1.530808498934191817E-17, 1.750000000000000000, 0.1250000000000000000 ) ) ;
#66 = AXIS2_PLACEMENT_3D ( 'NONE', #223, #244, #13 ) ;
#67 = PRESENTATION_LAYER_ASSIGNMENT (  '', '', ( #147 ) ) ;
#68 =( NAMED_UNIT ( * ) PLANE_ANGLE_UNIT ( ) SI_UNIT ( $, .RADIAN. ) );
#69 = EDGE_CURVE ( 'NONE', #148, #119, #294, .T. ) ;
#70 = COLOUR_RGB ( '',0.7921568627450980005, 0.8196078431372548767, 0.9333333333333333481 ) ;
#71 = ORIENTED_EDGE ( 'NONE', *, *, #290, .F. ) ;
#72 = EDGE_LOOP ( 'NONE', ( #297, #116 ) ) ;
#73 = ORIENTED_EDGE ( 'NONE', *, *, #280, .T. ) ;
#74 = DIRECTION ( 'NONE',  ( 0.000000000000000000, 1.000000000000000000, 0.000000000000000000 ) ) ;
#75 = VERTEX_POINT ( 'NONE', #79 ) ;
#76 = MECHANICAL_DESIGN_GEOMETRIC_PRESENTATION_REPRESENTATION (  '', ( #183 ), #171 ) ;
#77 =( NAMED_UNIT ( * ) PLANE_ANGLE_UNIT ( ) SI_UNIT ( $, .RADIAN. ) );
#78 = DIRECTION ( 'NONE',  ( -1.000000000000000000, 0.000000000000000000, 0.000000000000000000 ) ) ;
#79 = CARTESIAN_POINT ( 'NONE',  ( -0.1250000000000002498, 4.000000000000000000, 0.000000000000000000 ) ) ;
#80 = PRODUCT_DEFINITION_CONTEXT ( 'detailed design', #39, 'design' ) ;
#81 = AXIS2_PLACEMENT_3D ( 'NONE', #289, #103, #101 ) ;
#82 = FILL_AREA_STYLE ('',( #175 ) ) ;
#83 = DIRECTION ( 'NONE',  ( -1.000000000000000000, 0.000000000000000000, 0.000000000000000000 ) ) ;
#84 = LENGTH_MEASURE_WITH_UNIT ( LENGTH_MEASURE( 0.02539999999999999897 ), #218 );
#85 = DIRECTION ( 'NONE',  ( -5.442874662877122626E-17, 1.000000000000000000, -0.000000000000000000 ) ) ;
#86 = DIRECTION ( 'NONE',  ( -5.442874662877122626E-17, 1.000000000000000000, -0.000000000000000000 ) ) ;
#87 = MECHANICAL_DESIGN_GEOMETRIC_PRESENTATION_REPRESENTATION (  '', ( #229 ), #202 ) ;
#88 = LENGTH_MEASURE_WITH_UNIT ( LENGTH_MEASURE( 0.02539999999999999897 ), #113 );
#89 =( CONVERSION_BASED_UNIT ( 'INCH', #88 ) LENGTH_UNIT ( ) NAMED_UNIT ( #186 ) );
#90 = SURFACE_STYLE_FILL_AREA ( #34 ) ;
#91 = CIRCLE ( 'NONE', #3, 0.1250000000000000000 ) ;
#92 = CARTESIAN_POINT ( 'NONE',  ( 0.000000000000000000, 0.000000000000000000, -0.1250000000000000278 ) ) ;
#93 = DIMENSIONAL_EXPONENTS ( 1.000000000000000000, 0.000000000000000000, 0.000000000000000000, 0.000000000000000000, 0.000000000000000000, 0.000000000000000000, 0.000000000000000000 ) ;
#94 = EDGE_LOOP ( 'NONE', ( #18, #50, #71, #48 ) ) ;
#95 =( NAMED_UNIT ( * ) SI_UNIT ( $, .STERADIAN. ) SOLID_ANGLE_UNIT ( ) );
#96 = SURFACE_STYLE_FILL_AREA ( #278 ) ;
#97 = PLANE ( 'NONE',  #299 ) ;
#98 = CARTESIAN_POINT ( 'NONE',  ( -0.1250000000000000000, 1.750000000000000000, 0.000000000000000000 ) ) ;
#99 = UNCERTAINTY_MEASURE_WITH_UNIT (LENGTH_MEASURE( 1.000000000000000082E-05 ), #305, 'distance_accuracy_value', 'NONE');
#100 = FILL_AREA_STYLE ('',( #151 ) ) ;
#101 = DIRECTION ( 'NONE',  ( 0.000000000000000000, 0.000000000000000000, -1.000000000000000000 ) ) ;
#102 = FACE_OUTER_BOUND ( 'NONE', #23, .T. ) ;
#103 = DIRECTION ( 'NONE',  ( -0.000000000000000000, -1.000000000000000000, -0.000000000000000000 ) ) ;
#104 = STYLED_ITEM ( 'NONE', ( #8 ), #208 ) ;
#105 =( GEOMETRIC_REPRESENTATION_CONTEXT ( 3 ) GLOBAL_UNCERTAINTY_ASSIGNED_CONTEXT ( ( #279 ) ) GLOBAL_UNIT_ASSIGNED_CONTEXT ( ( #267, #286, #160 ) ) REPRESENTATION_CONTEXT ( 'NONE', 'WORKASPACE' ) );
#106 = CARTESIAN_POINT ( 'NONE',  ( 0.000000000000000000, 1.750000000000000000, 0.000000000000000000 ) ) ;
#107 = APPLICATION_PROTOCOL_DEFINITION ( 'draft international standard', 'automotive_design', 1998, #135 ) ;
#108 = CARTESIAN_POINT ( 'NONE',  ( 1.530808498934192125E-17, 0.000000000000000000, 0.1250000000000000555 ) ) ;
#109 = FILL_AREA_STYLE_COLOUR ( '', #47 ) ;
#110 = LENGTH_MEASURE_WITH_UNIT ( LENGTH_MEASURE( 0.02539999999999999897 ), #241 );
#111 = FILL_AREA_STYLE_COLOUR ( '', #152 ) ;
#112 = CIRCLE ( 'NONE', #137, 0.1250000000000000000 ) ;
#113 =( LENGTH_UNIT ( ) NAMED_UNIT ( * ) SI_UNIT ( $, .METRE. ) );
#114 = SHAPE_DEFINITION_REPRESENTATION ( #121, #281 ) ;
#115 = ADVANCED_FACE ( 'NONE', ( #6 ), #263, .T. ) ;
#116 = ORIENTED_EDGE ( 'NONE', *, *, #301, .T. ) ;
#117 = AXIS2_PLACEMENT_3D ( 'NONE', #161, #269, #222 ) ;
#118 = ORIENTED_EDGE ( 'NONE', *, *, #61, .T. ) ;
#119 = VERTEX_POINT ( 'NONE', #98 ) ;
#120 = PRESENTATION_STYLE_ASSIGNMENT (( #20 ) ) ;
#121 = PRODUCT_DEFINITION_SHAPE ( 'NONE', 'NONE',  #128 ) ;
#122 = ORIENTED_EDGE ( 'NONE', *, *, #181, .F. ) ;
#123 = DIRECTION ( 'NONE',  ( 1.000000000000000000, 5.442874662877122010E-17, 0.000000000000000000 ) ) ;
#124 = CARTESIAN_POINT ( 'NONE',  ( 0.000000000000000000, 1.750000000000000000, 0.000000000000000000 ) ) ;
#125 = FILL_AREA_STYLE_COLOUR ( '', #153 ) ;
#126 = CARTESIAN_POINT ( 'NONE',  ( 0.000000000000000000, 1.750000000000000000, 0.000000000000000000 ) ) ;
#127 = FACE_OUTER_BOUND ( 'NONE', #210, .T. ) ;
#128 = PRODUCT_DEFINITION ( 'UNKNOWN', '', #37, #80 ) ;
#129 =( LENGTH_UNIT ( ) NAMED_UNIT ( * ) SI_UNIT ( $, .METRE. ) );
#130 = DIRECTION ( 'NONE',  ( 0.000000000000000000, 0.000000000000000000, -1.000000000000000000 ) ) ;
#131 = LINE ( 'NONE', #58, #43 ) ;
#132 = AXIS2_PLACEMENT_3D ( 'NONE', #126, #85, #179 ) ;
#133 = CARTESIAN_POINT ( 'NONE',  ( 0.000000000000000000, 0.000000000000000000, -0.1250000000000000278 ) ) ;
#134 = SURFACE_SIDE_STYLE ('',( #90 ) ) ;
#135 = APPLICATION_CONTEXT ( 'automotive_design' ) ;
#136 = CARTESIAN_POINT ( 'NONE',  ( 0.1249999999999999445, 4.000000000000000000, 1.530808498934192125E-17 ) ) ;
#137 = AXIS2_PLACEMENT_3D ( 'NONE', #106, #243, #256 ) ;
#138 = LINE ( 'NONE', #136, #275 ) ;
#139 = UNCERTAINTY_MEASURE_WITH_UNIT (LENGTH_MEASURE( 1.000000000000000082E-05 ), #157, 'distance_accuracy_value', 'NONE');
#140 = DIRECTION ( 'NONE',  ( -0.000000000000000000, -1.000000000000000000, -0.000000000000000000 ) ) ;
#141 = MANIFOLD_SOLID_BREP ( 'Revolve - Cutting Edge', #10 ) ;
#142 = DIMENSIONAL_EXPONENTS ( 1.000000000000000000, 0.000000000000000000, 0.000000000000000000, 0.000000000000000000, 0.000000000000000000, 0.000000000000000000, 0.000000000000000000 ) ;
#143 = PRESENTATION_LAYER_ASSIGNMENT (  '', '', ( #229 ) ) ;
#144 = EDGE_CURVE ( 'NONE', #119, #148, #112, .T. ) ;
#145 = ORIENTED_EDGE ( 'NONE', *, *, #188, .F. ) ;
#146 = ORIENTED_EDGE ( 'NONE', *, *, #280, .F. ) ;
#147 = STYLED_ITEM ( 'NONE', ( #120 ), #238 ) ;
#148 = VERTEX_POINT ( 'NONE', #52 ) ;
#149 = CARTESIAN_POINT ( 'NONE',  ( 0.1250000000000000000, 4.000000000000000000, 0.000000000000000000 ) ) ;
#150 = VERTEX_POINT ( 'NONE', #108 ) ;
#151 = FILL_AREA_STYLE_COLOUR ( '', #42 ) ;
#152 = COLOUR_RGB ( '',1.000000000000000000, 0.000000000000000000, 0.000000000000000000 ) ;
#153 = COLOUR_RGB ( '',1.000000000000000000, 0.000000000000000000, 0.000000000000000000 ) ;
#154 = CARTESIAN_POINT ( 'NONE',  ( 0.000000000000000000, 1.750000000000000000, -0.1250000000000000000 ) ) ;
#155 = DIRECTION ( 'NONE',  ( -5.442874662877122010E-17, 1.000000000000000000, -0.000000000000000000 ) ) ;
#156 = PRESENTATION_STYLE_ASSIGNMENT (( #55 ) ) ;
#157 =( CONVERSION_BASED_UNIT ( 'INCH', #214 ) LENGTH_UNIT ( ) NAMED_UNIT ( #250 ) );
#158 =( NAMED_UNIT ( * ) PLANE_ANGLE_UNIT ( ) SI_UNIT ( $, .RADIAN. ) );
#159 = STYLED_ITEM ( 'NONE', ( #240 ), #169 ) ;
#160 =( NAMED_UNIT ( * ) SI_UNIT ( $, .STERADIAN. ) SOLID_ANGLE_UNIT ( ) );
#161 = CARTESIAN_POINT ( 'NONE',  ( 1.851555287236859431E-34, 1.750000000000000000, 0.000000000000000000 ) ) ;
#162 = DIRECTION ( 'NONE',  ( -0.000000000000000000, -1.000000000000000000, -0.000000000000000000 ) ) ;
#163 = PLANE ( 'NONE',  #165 ) ;
#164 = PRODUCT_CONTEXT ( 'NONE', #135, 'mechanical' ) ;
#165 = AXIS2_PLACEMENT_3D ( 'NONE', #35, #251, #246 ) ;
#166 = CARTESIAN_POINT ( 'NONE',  ( 0.000000000000000000, 0.000000000000000000, 0.000000000000000000 ) ) ;
#167 = PRESENTATION_LAYER_ASSIGNMENT (  '', '', ( #104 ) ) ;
#168 = ORIENTED_EDGE ( 'NONE', *, *, #61, .F. ) ;
#169 = ADVANCED_FACE ( 'NONE', ( #102 ), #196, .T. ) ;
#170 = AXIS2_PLACEMENT_3D ( 'NONE', #220, #32, #78 ) ;
#171 =( GEOMETRIC_REPRESENTATION_CONTEXT ( 3 ) GLOBAL_UNCERTAINTY_ASSIGNED_CONTEXT ( ( #139 ) ) GLOBAL_UNIT_ASSIGNED_CONTEXT ( ( #157, #174, #262 ) ) REPRESENTATION_CONTEXT ( 'NONE', 'WORKASPACE' ) );
#172 = ORIENTED_EDGE ( 'NONE', *, *, #45, .F. ) ;
#173 = VERTEX_POINT ( 'NONE', #65 ) ;
#174 =( NAMED_UNIT ( * ) PLANE_ANGLE_UNIT ( ) SI_UNIT ( $, .RADIAN. ) );
#175 = FILL_AREA_STYLE_COLOUR ( '', #258 ) ;
#176 =( GEOMETRIC_REPRESENTATION_CONTEXT ( 3 ) GLOBAL_UNCERTAINTY_ASSIGNED_CONTEXT ( ( #9 ) ) GLOBAL_UNIT_ASSIGNED_CONTEXT ( ( #180, #158, #309 ) ) REPRESENTATION_CONTEXT ( 'NONE', 'WORKASPACE' ) );
#177 =( LENGTH_UNIT ( ) NAMED_UNIT ( * ) SI_UNIT ( $, .METRE. ) );
#178 = PRODUCT ( '24062', '24062', '', ( #164 ) ) ;
#179 = DIRECTION ( 'NONE',  ( -1.000000000000000000, 0.000000000000000000, 0.000000000000000000 ) ) ;
#180 =( CONVERSION_BASED_UNIT ( 'INCH', #84 ) LENGTH_UNIT ( ) NAMED_UNIT ( #41 ) );
#181 = EDGE_CURVE ( 'NONE', #150, #233, #247, .T. ) ;
#182 =( NAMED_UNIT ( * ) SI_UNIT ( $, .STERADIAN. ) SOLID_ANGLE_UNIT ( ) );
#183 = STYLED_ITEM ( 'NONE', ( #156 ), #141 ) ;
#184 = AXIS2_PLACEMENT_3D ( 'NONE', #201, #30, #288 ) ;
#185 = PLANE ( 'NONE',  #266 ) ;
#186 = DIMENSIONAL_EXPONENTS ( 1.000000000000000000, 0.000000000000000000, 0.000000000000000000, 0.000000000000000000, 0.000000000000000000, 0.000000000000000000, 0.000000000000000000 ) ;
#187 = SURFACE_STYLE_FILL_AREA ( #15 ) ;
#188 = EDGE_CURVE ( 'NONE', #148, #255, #138, .T. ) ;
#189 = AXIS2_PLACEMENT_3D ( 'NONE', #4, #86, #242 ) ;
#190 = ORIENTED_EDGE ( 'NONE', *, *, #215, .F. ) ;
#191 = ORIENTED_EDGE ( 'NONE', *, *, #69, .F. ) ;
#192 = CIRCLE ( 'NONE', #189, 0.1250000000000001110 ) ;
#193 = LENGTH_MEASURE_WITH_UNIT ( LENGTH_MEASURE( 0.02539999999999999897 ), #248 );
#194 = CYLINDRICAL_SURFACE ( 'NONE', #170, 0.1250000000000000555 ) ;
#195 = SURFACE_STYLE_FILL_AREA ( #100 ) ;
#196 = CYLINDRICAL_SURFACE ( 'NONE', #66, 0.1250000000000000278 ) ;
#197 = DIRECTION ( 'NONE',  ( 0.000000000000000000, 0.000000000000000000, -1.000000000000000000 ) ) ;
#198 = DIRECTION ( 'NONE',  ( -5.442874662877122626E-17, 1.000000000000000000, -0.000000000000000000 ) ) ;
#199 = CARTESIAN_POINT ( 'NONE',  ( 0.000000000000000000, 1.750000000000000000, 0.000000000000000000 ) ) ;
#200 = SURFACE_SIDE_STYLE ('',( #31 ) ) ;
#201 = CARTESIAN_POINT ( 'NONE',  ( -1.224646799147352714E-16, 4.000000000000000000, 0.000000000000000000 ) ) ;
#202 =( GEOMETRIC_REPRESENTATION_CONTEXT ( 3 ) GLOBAL_UNCERTAINTY_ASSIGNED_CONTEXT ( ( #99 ) ) GLOBAL_UNIT_ASSIGNED_CONTEXT ( ( #305, #77, #95 ) ) REPRESENTATION_CONTEXT ( 'NONE', 'WORKASPACE' ) );
#203 = ADVANCED_FACE ( 'NONE', ( #205 ), #14, .F. ) ;
#204 =( NAMED_UNIT ( * ) SI_UNIT ( $, .STERADIAN. ) SOLID_ANGLE_UNIT ( ) );
#205 = FACE_OUTER_BOUND ( 'NONE', #254, .T. ) ;
#206 = CIRCLE ( 'NONE', #230, 0.1250000000000000278 ) ;
#207 = ORIENTED_EDGE ( 'NONE', *, *, #45, .T. ) ;
#208 = ADVANCED_FACE ( 'NONE', ( #40 ), #163, .T. ) ;
#209 =( NAMED_UNIT ( * ) PLANE_ANGLE_UNIT ( ) SI_UNIT ( $, .RADIAN. ) );
#210 = EDGE_LOOP ( 'NONE', ( #146, #300, #207, #122 ) ) ;
#211 = PRESENTATION_STYLE_ASSIGNMENT (( #232 ) ) ;
#212 = AXIS2_PLACEMENT_3D ( 'NONE', #249, #272, #227 ) ;
#213 = MECHANICAL_DESIGN_GEOMETRIC_PRESENTATION_REPRESENTATION (  '', ( #147 ), #54 ) ;
#214 = LENGTH_MEASURE_WITH_UNIT ( LENGTH_MEASURE( 0.02539999999999999897 ), #177 );
#215 = EDGE_CURVE ( 'NONE', #233, #150, #206, .T. ) ;
#216 =( CONVERSION_BASED_UNIT ( 'INCH', #22 ) LENGTH_UNIT ( ) NAMED_UNIT ( #142 ) );
#217 = PRESENTATION_STYLE_ASSIGNMENT (( #261 ) ) ;
#218 =( LENGTH_UNIT ( ) NAMED_UNIT ( * ) SI_UNIT ( $, .METRE. ) );
#219 = MECHANICAL_DESIGN_GEOMETRIC_PRESENTATION_REPRESENTATION (  '', ( #60 ), #176 ) ;
#220 = CARTESIAN_POINT ( 'NONE',  ( -1.224646799147352714E-16, 4.000000000000000000, 0.000000000000000000 ) ) ;
#221 = SURFACE_STYLE_FILL_AREA ( #56 ) ;
#222 = DIRECTION ( 'NONE',  ( -1.000000000000000000, -5.442874662877122010E-17, 0.000000000000000000 ) ) ;
#223 = CARTESIAN_POINT ( 'NONE',  ( 0.000000000000000000, 0.000000000000000000, 0.000000000000000000 ) ) ;
#224 = VECTOR ( 'NONE', #155, 39.37007874015748143 ) ;
#225 = DIRECTION ( 'NONE',  ( -5.442874662877122010E-17, 1.000000000000000000, -0.000000000000000000 ) ) ;
#226 = APPLICATION_PROTOCOL_DEFINITION ( 'draft international standard', 'automotive_design', 1998, #39 ) ;
#227 = DIRECTION ( 'NONE',  ( 0.000000000000000000, 0.000000000000000000, -1.000000000000000000 ) ) ;
#228 = FILL_AREA_STYLE_COLOUR ( '', #70 ) ;
#229 = STYLED_ITEM ( 'NONE', ( #211 ), #235 ) ;
#230 = AXIS2_PLACEMENT_3D ( 'NONE', #166, #140, #292 ) ;
#231 = ORIENTED_EDGE ( 'NONE', *, *, #273, .F. ) ;
#232 = SURFACE_STYLE_USAGE ( .BOTH. , #253 ) ;
#233 = VERTEX_POINT ( 'NONE', #92 ) ;
#234 = DIRECTION ( 'NONE',  ( 0.000000000000000000, -0.000000000000000000, 1.000000000000000000 ) ) ;
#235 = MANIFOLD_SOLID_BREP ( 'Revolve - Tool Body (Straight Shanked)', #304 ) ;
#236 = ORIENTED_EDGE ( 'NONE', *, *, #69, .T. ) ;
#237 =( NAMED_UNIT ( * ) SI_UNIT ( $, .STERADIAN. ) SOLID_ANGLE_UNIT ( ) );
#238 = ADVANCED_FACE ( 'NONE', ( #239 ), #185, .T. ) ;
#239 = FACE_OUTER_BOUND ( 'NONE', #302, .T. ) ;
#240 = PRESENTATION_STYLE_ASSIGNMENT (( #284 ) ) ;
#241 =( LENGTH_UNIT ( ) NAMED_UNIT ( * ) SI_UNIT ( $, .METRE. ) );
#242 = DIRECTION ( 'NONE',  ( -1.000000000000000000, 0.000000000000000000, 0.000000000000000000 ) ) ;
#243 = DIRECTION ( 'NONE',  ( -5.442874662877122626E-17, 1.000000000000000000, -0.000000000000000000 ) ) ;
#244 = DIRECTION ( 'NONE',  ( -0.000000000000000000, -1.000000000000000000, -0.000000000000000000 ) ) ;
#245 = CARTESIAN_POINT ( 'NONE',  ( 0.000000000000000000, 0.000000000000000000, 0.000000000000000000 ) ) ;
#246 = DIRECTION ( 'NONE',  ( 0.000000000000000000, 0.000000000000000000, -1.000000000000000000 ) ) ;
#247 = CIRCLE ( 'NONE', #212, 0.1250000000000000278 ) ;
#248 =( LENGTH_UNIT ( ) NAMED_UNIT ( * ) SI_UNIT ( $, .METRE. ) );
#249 = CARTESIAN_POINT ( 'NONE',  ( 0.000000000000000000, 0.000000000000000000, 0.000000000000000000 ) ) ;
#250 = DIMENSIONAL_EXPONENTS ( 1.000000000000000000, 0.000000000000000000, 0.000000000000000000, 0.000000000000000000, 0.000000000000000000, 0.000000000000000000, 0.000000000000000000 ) ;
#251 = DIRECTION ( 'NONE',  ( 0.000000000000000000, -1.000000000000000000, -0.000000000000000000 ) ) ;
#252 = VERTEX_POINT ( 'NONE', #154 ) ;
#253 = SURFACE_SIDE_STYLE ('',( #187 ) ) ;
#254 = EDGE_LOOP ( 'NONE', ( #274, #191 ) ) ;
#255 = VERTEX_POINT ( 'NONE', #49 ) ;
#256 = DIRECTION ( 'NONE',  ( -1.000000000000000000, 0.000000000000000000, 0.000000000000000000 ) ) ;
#257 = CARTESIAN_POINT ( 'NONE',  ( 0.000000000000000000, 1.750000000000000000, 0.000000000000000000 ) ) ;
#258 = COLOUR_RGB ( '',0.7921568627450980005, 0.8196078431372548767, 0.9333333333333333481 ) ;
#259 = CIRCLE ( 'NONE', #184, 0.1250000000000001110 ) ;
#260 = DIRECTION ( 'NONE',  ( -0.000000000000000000, -1.000000000000000000, -0.000000000000000000 ) ) ;
#261 = SURFACE_STYLE_USAGE ( .BOTH. , #291 ) ;
#262 =( NAMED_UNIT ( * ) SI_UNIT ( $, .STERADIAN. ) SOLID_ANGLE_UNIT ( ) );
#263 = CYLINDRICAL_SURFACE ( 'NONE', #53, 0.1250000000000000555 ) ;
#264 = UNCERTAINTY_MEASURE_WITH_UNIT (LENGTH_MEASURE( 1.000000000000000082E-05 ), #11, 'distance_accuracy_value', 'NONE');
#265 = CARTESIAN_POINT ( 'NONE',  ( -1.224646799147352714E-16, 4.000000000000000000, 0.000000000000000000 ) ) ;
#266 = AXIS2_PLACEMENT_3D ( 'NONE', #257, #74, #234 ) ;
#267 =( CONVERSION_BASED_UNIT ( 'INCH', #2 ) LENGTH_UNIT ( ) NAMED_UNIT ( #93 ) );
#268 = ADVANCED_FACE ( 'NONE', ( #303 ), #97, .F. ) ;
#269 = DIRECTION ( 'NONE',  ( -5.442874662877122010E-17, 1.000000000000000000, 0.000000000000000000 ) ) ;
#270 = PRESENTATION_LAYER_ASSIGNMENT (  '', '', ( #183 ) ) ;
#271 = DIRECTION ( 'NONE',  ( 0.000000000000000000, 0.000000000000000000, 1.000000000000000000 ) ) ;
#272 = DIRECTION ( 'NONE',  ( -0.000000000000000000, -1.000000000000000000, -0.000000000000000000 ) ) ;
#273 = EDGE_CURVE ( 'NONE', #173, #252, #306, .T. ) ;
#274 = ORIENTED_EDGE ( 'NONE', *, *, #144, .F. ) ;
#275 = VECTOR ( 'NONE', #225, 39.37007874015748143 ) ;
#276 = ORIENTED_EDGE ( 'NONE', *, *, #301, .F. ) ;
#277 = SURFACE_SIDE_STYLE ('',( #96 ) ) ;
#278 = FILL_AREA_STYLE ('',( #125 ) ) ;
#279 = UNCERTAINTY_MEASURE_WITH_UNIT (LENGTH_MEASURE( 1.000000000000000082E-05 ), #267, 'distance_accuracy_value', 'NONE');
#280 = EDGE_CURVE ( 'NONE', #173, #150, #131, .T. ) ;
#281 = ADVANCED_BREP_SHAPE_REPRESENTATION ( '24062', ( #141, #235, #28 ), #105 ) ;
#282 = SURFACE_SIDE_STYLE ('',( #195 ) ) ;
#283 = PRESENTATION_LAYER_ASSIGNMENT (  '', '', ( #60 ) ) ;
#284 = SURFACE_STYLE_USAGE ( .BOTH. , #282 ) ;
#285 = UNCERTAINTY_MEASURE_WITH_UNIT (LENGTH_MEASURE( 1.000000000000000082E-05 ), #216, 'distance_accuracy_value', 'NONE');
#286 =( NAMED_UNIT ( * ) PLANE_ANGLE_UNIT ( ) SI_UNIT ( $, .RADIAN. ) );
#287 = LINE ( 'NONE', #26, #224 ) ;
#288 = DIRECTION ( 'NONE',  ( -1.000000000000000000, 0.000000000000000000, 0.000000000000000000 ) ) ;
#289 = CARTESIAN_POINT ( 'NONE',  ( 0.000000000000000000, 0.000000000000000000, 0.000000000000000000 ) ) ;
#290 = EDGE_CURVE ( 'NONE', #75, #255, #259, .T. ) ;
#291 = SURFACE_SIDE_STYLE ('',( #221 ) ) ;
#292 = DIRECTION ( 'NONE',  ( 0.000000000000000000, 0.000000000000000000, -1.000000000000000000 ) ) ;
#293 = VECTOR ( 'NONE', #260, 39.37007874015748143 ) ;
#294 = CIRCLE ( 'NONE', #132, 0.1250000000000000000 ) ;
#295 = DIRECTION ( 'NONE',  ( 1.000000000000000000, 0.000000000000000000, 0.000000000000000000 ) ) ;
#296 = DIMENSIONAL_EXPONENTS ( 1.000000000000000000, 0.000000000000000000, 0.000000000000000000, 0.000000000000000000, 0.000000000000000000, 0.000000000000000000, 0.000000000000000000 ) ;
#297 = ORIENTED_EDGE ( 'NONE', *, *, #290, .T. ) ;
#298 = PRESENTATION_LAYER_ASSIGNMENT (  '', '', ( #159 ) ) ;
#299 = AXIS2_PLACEMENT_3D ( 'NONE', #149, #24, #123 ) ;
#300 = ORIENTED_EDGE ( 'NONE', *, *, #273, .T. ) ;
#301 = EDGE_CURVE ( 'NONE', #255, #75, #192, .T. ) ;
#302 = EDGE_LOOP ( 'NONE', ( #168, #231 ) ) ;
#303 = FACE_OUTER_BOUND ( 'NONE', #72, .T. ) ;
#304 = CLOSED_SHELL ( 'NONE', ( #115, #203, #25, #268 ) ) ;
#305 =( CONVERSION_BASED_UNIT ( 'INCH', #193 ) LENGTH_UNIT ( ) NAMED_UNIT ( #296 ) );
#306 = CIRCLE ( 'NONE', #12, 0.1250000000000000000 ) ;
#307 = ORIENTED_EDGE ( 'NONE', *, *, #5, .T. ) ;
#308 = ADVANCED_FACE ( 'NONE', ( #127 ), #63, .T. ) ;
#309 =( NAMED_UNIT ( * ) SI_UNIT ( $, .STERADIAN. ) SOLID_ANGLE_UNIT ( ) );
ENDSEC;
END-ISO-10303-21;
