ISO-10303-21;
HEADER;
FILE_DESCRIPTION (( 'STEP AP214' ),
    '1' );
FILE_NAME ('Micro_SEM-125-03.STEP',
    '2021-09-02T01:28:44',
    ( '' ),
    ( '' ),
    'SwSTEP 2.0',
    'SolidWorks 2020',
    '' );
FILE_SCHEMA (( 'AUTOMOTIVE_DESIGN' ));
ENDSEC;

DATA;
#1 = DIRECTION ( 'NONE',  ( -1.000000000000000000, 0.0000000000000000000, 0.0000000000000000000 ) ) ;
#2 = DIRECTION ( 'NONE',  ( -0.0000000000000000000, -0.0000000000000000000, -1.000000000000000000 ) ) ;
#3 = AXIS2_PLACEMENT_3D ( 'NONE', #225, #23, #115 ) ;
#4 = AXIS2_PLACEMENT_3D ( 'NONE', #210, #55, #1 ) ;
#5 = DIRECTION ( 'NONE',  ( -1.224646799147353454E-16, -0.0000000000000000000, -1.000000000000000000 ) ) ;
#6 = LINE ( 'NONE', #262, #251 ) ;
#7 = DIRECTION ( 'NONE',  ( -1.224646799147353454E-16, -0.0000000000000000000, -1.000000000000000000 ) ) ;
#8 = EDGE_CURVE ( 'NONE', #224, #99, #126, .T. ) ;
#9 = VECTOR ( 'NONE', #245, 39.37007874015748143 ) ;
#10 =( LENGTH_UNIT ( ) NAMED_UNIT ( * ) SI_UNIT ( $, .METRE. ) );
#11 = FACE_OUTER_BOUND ( 'NONE', #299, .T. ) ;
#12 = VERTEX_POINT ( 'NONE', #137 ) ;
#13 = DIRECTION ( 'NONE',  ( -1.224646799147353454E-16, -0.0000000000000000000, -1.000000000000000000 ) ) ;
#14 = EDGE_CURVE ( 'NONE', #159, #74, #276, .T. ) ;
#15 = LINE ( 'NONE', #88, #9 ) ;
#16 = STYLED_ITEM ( 'NONE', ( #239 ), #180 ) ;
#17 = EDGE_LOOP ( 'NONE', ( #49, #270 ) ) ;
#18 = DIRECTION ( 'NONE',  ( -1.000000000000000000, 0.0000000000000000000, 1.224646799147353207E-16 ) ) ;
#19 = ORIENTED_EDGE ( 'NONE', *, *, #100, .T. ) ;
#20 = UNCERTAINTY_MEASURE_WITH_UNIT (LENGTH_MEASURE( 1.000000000000000082E-05 ), #128, 'distance_accuracy_value', 'NONE');
#21 = CARTESIAN_POINT ( 'NONE',  ( 3.061616997868383634E-17, 0.0000000000000000000, 0.2500000000000000000 ) ) ;
#22 =( NAMED_UNIT ( * ) PLANE_ANGLE_UNIT ( ) SI_UNIT ( $, .RADIAN. ) );
#23 = DIRECTION ( 'NONE',  ( 1.224646799147353454E-16, 0.0000000000000000000, 1.000000000000000000 ) ) ;
#24 = AXIS2_PLACEMENT_3D ( 'NONE', #21, #268, #175 ) ;
#25 = LENGTH_MEASURE_WITH_UNIT ( LENGTH_MEASURE( 0.02539999999999999897 ), #229 );
#26 = ORIENTED_EDGE ( 'NONE', *, *, #94, .F. ) ;
#27 = PRESENTATION_STYLE_ASSIGNMENT (( #48 ) ) ;
#28 = FACE_OUTER_BOUND ( 'NONE', #152, .T. ) ;
#29 = ADVANCED_FACE ( 'NONE', ( #28 ), #47, .T. ) ;
#30 = CYLINDRICAL_SURFACE ( 'NONE', #4, 0.06250000000000000000 ) ;
#31 = CIRCLE ( 'NONE', #104, 0.06250000000000000000 ) ;
#32 = ORIENTED_EDGE ( 'NONE', *, *, #90, .F. ) ;
#33 = SURFACE_STYLE_FILL_AREA ( #212 ) ;
#34 = CARTESIAN_POINT ( 'NONE',  ( -0.04750000000000064587, 0.0000000000000000000, 1.500000000000000222 ) ) ;
#35 = DIRECTION ( 'NONE',  ( -1.000000000000000000, 0.0000000000000000000, 0.0000000000000000000 ) ) ;
#36 = PRESENTATION_LAYER_ASSIGNMENT (  '', '', ( #16 ) ) ;
#37 = DIRECTION ( 'NONE',  ( 1.000000000000000000, 0.0000000000000000000, -0.0000000000000000000 ) ) ;
#38 = ADVANCED_FACE ( 'NONE', ( #254 ), #30, .T. ) ;
#39 = DIRECTION ( 'NONE',  ( 0.0000000000000000000, 0.0000000000000000000, 1.000000000000000000 ) ) ;
#40 = ORIENTED_EDGE ( 'NONE', *, *, #289, .T. ) ;
#41 =( CONVERSION_BASED_UNIT ( 'INCH', #201 ) LENGTH_UNIT ( ) NAMED_UNIT ( #92 ) );
#42 = CARTESIAN_POINT ( 'NONE',  ( 3.061616997868383634E-17, 0.0000000000000000000, 0.2500000000000000000 ) ) ;
#43 = VECTOR ( 'NONE', #2, 39.37007874015748143 ) ;
#44 = ORIENTED_EDGE ( 'NONE', *, *, #204, .F. ) ;
#45 = DIRECTION ( 'NONE',  ( 1.000000000000000000, 0.0000000000000000000, -0.0000000000000000000 ) ) ;
#46 = EDGE_CURVE ( 'NONE', #74, #12, #31, .T. ) ;
#47 = CYLINDRICAL_SURFACE ( 'NONE', #129, 0.06243750000000001382 ) ;
#48 = SURFACE_STYLE_USAGE ( .BOTH. , #54 ) ;
#49 = ORIENTED_EDGE ( 'NONE', *, *, #8, .T. ) ;
#50 = VECTOR ( 'NONE', #127, 39.37007874015748143 ) ;
#51 = ADVANCED_FACE ( 'NONE', ( #135 ), #257, .T. ) ;
#52 = ORIENTED_EDGE ( 'NONE', *, *, #267, .T. ) ;
#53 = ORIENTED_EDGE ( 'NONE', *, *, #46, .F. ) ;
#54 = SURFACE_SIDE_STYLE ('',( #70 ) ) ;
#55 = DIRECTION ( 'NONE',  ( -0.0000000000000000000, -0.0000000000000000000, -1.000000000000000000 ) ) ;
#56 = MECHANICAL_DESIGN_GEOMETRIC_PRESENTATION_REPRESENTATION (  '', ( #16 ), #282 ) ;
#57 = DIRECTION ( 'NONE',  ( 1.000000000000000000, 0.0000000000000000000, 0.0000000000000000000 ) ) ;
#58 = DIRECTION ( 'NONE',  ( 0.0000000000000000000, 0.0000000000000000000, -1.000000000000000000 ) ) ;
#59 = CARTESIAN_POINT ( 'NONE',  ( -0.06250000000000000000, 0.0000000000000000000, 1.485000000000000764 ) ) ;
#60 = CIRCLE ( 'NONE', #82, 0.06243749999999999994 ) ;
#61 = CARTESIAN_POINT ( 'NONE',  ( 0.04750000000000064587, 6.735557395310482421E-18, 1.500000000000000222 ) ) ;
#62 = ADVANCED_FACE ( 'NONE', ( #297 ), #192, .T. ) ;
#63 = EDGE_CURVE ( 'NONE', #224, #159, #193, .T. ) ;
#64 = VECTOR ( 'NONE', #124, 39.37007874015747433 ) ;
#65 =( GEOMETRIC_REPRESENTATION_CONTEXT ( 3 ) GLOBAL_UNCERTAINTY_ASSIGNED_CONTEXT ( ( #72 ) ) GLOBAL_UNIT_ASSIGNED_CONTEXT ( ( #41, #131, #89 ) ) REPRESENTATION_CONTEXT ( 'NONE', 'WORKASPACE' ) );
#66 =( LENGTH_UNIT ( ) NAMED_UNIT ( * ) SI_UNIT ( $, .METRE. ) );
#67 = FACE_OUTER_BOUND ( 'NONE', #274, .T. ) ;
#68 = CIRCLE ( 'NONE', #150, 0.04750000000000064587 ) ;
#69 = EDGE_LOOP ( 'NONE', ( #26, #207, #253, #187 ) ) ;
#70 = SURFACE_STYLE_FILL_AREA ( #162 ) ;
#71 = ORIENTED_EDGE ( 'NONE', *, *, #112, .T. ) ;
#72 = UNCERTAINTY_MEASURE_WITH_UNIT (LENGTH_MEASURE( 1.000000000000000082E-05 ), #41, 'distance_accuracy_value', 'NONE');
#73 = EDGE_LOOP ( 'NONE', ( #91, #19, #96, #198 ) ) ;
#74 = VERTEX_POINT ( 'NONE', #81 ) ;
#75 =( GEOMETRIC_REPRESENTATION_CONTEXT ( 3 ) GLOBAL_UNCERTAINTY_ASSIGNED_CONTEXT ( ( #249 ) ) GLOBAL_UNIT_ASSIGNED_CONTEXT ( ( #98, #22, #273 ) ) REPRESENTATION_CONTEXT ( 'NONE', 'WORKASPACE' ) );
#76 = CARTESIAN_POINT ( 'NONE',  ( 0.0000000000000000000, 0.0000000000000000000, 0.0000000000000000000 ) ) ;
#77 = ORIENTED_EDGE ( 'NONE', *, *, #256, .T. ) ;
#78 = DIRECTION ( 'NONE',  ( 1.000000000000000000, 0.0000000000000000000, 0.0000000000000000000 ) ) ;
#79 = DIRECTION ( 'NONE',  ( -1.000000000000000000, 0.0000000000000000000, 1.224646799147353700E-16 ) ) ;
#80 = CARTESIAN_POINT ( 'NONE',  ( 9.364125142994977476E-34, 0.0000000000000000000, 7.646388452176288915E-18 ) ) ;
#81 = CARTESIAN_POINT ( 'NONE',  ( -0.06249999999999996531, 0.0000000000000000000, 0.2503544551137260044 ) ) ;
#82 = AXIS2_PLACEMENT_3D ( 'NONE', #258, #167, #284 ) ;
#83 = FACE_OUTER_BOUND ( 'NONE', #73, .T. ) ;
#84 = DIRECTION ( 'NONE',  ( 1.000000000000000000, 0.0000000000000000000, 0.0000000000000000000 ) ) ;
#85 = VERTEX_POINT ( 'NONE', #241 ) ;
#86 = CLOSED_SHELL ( 'NONE', ( #29, #153, #62, #38, #295, #248, #122, #51, #235, #215 ) ) ;
#87 = AXIS2_PLACEMENT_3D ( 'NONE', #266, #219, #294 ) ;
#88 = CARTESIAN_POINT ( 'NONE',  ( -0.06243750000000001382, 0.0000000000000000000, 7.646388452176288915E-18 ) ) ;
#89 =( NAMED_UNIT ( * ) SI_UNIT ( $, .STERADIAN. ) SOLID_ANGLE_UNIT ( ) );
#90 = EDGE_CURVE ( 'NONE', #120, #118, #60, .T. ) ;
#91 = ORIENTED_EDGE ( 'NONE', *, *, #256, .F. ) ;
#92 = DIMENSIONAL_EXPONENTS ( 1.000000000000000000, 0.0000000000000000000, 0.0000000000000000000, 0.0000000000000000000, 0.0000000000000000000, 0.0000000000000000000, 0.0000000000000000000 ) ;
#93 = ORIENTED_EDGE ( 'NONE', *, *, #14, .F. ) ;
#94 = EDGE_CURVE ( 'NONE', #136, #12, #6, .T. ) ;
#95 = ORIENTED_EDGE ( 'NONE', *, *, #242, .F. ) ;
#96 = ORIENTED_EDGE ( 'NONE', *, *, #46, .T. ) ;
#97 = AXIS2_PLACEMENT_3D ( 'NONE', #105, #236, #259 ) ;
#98 =( CONVERSION_BASED_UNIT ( 'INCH', #25 ) LENGTH_UNIT ( ) NAMED_UNIT ( #133 ) );
#99 = VERTEX_POINT ( 'NONE', #61 ) ;
#100 = EDGE_CURVE ( 'NONE', #173, #74, #213, .T. ) ;
#101 = CARTESIAN_POINT ( 'NONE',  ( 3.065957821073043634E-17, 0.0000000000000000000, 0.2503544551137260044 ) ) ;
#102 = CARTESIAN_POINT ( 'NONE',  ( 0.0000000000000000000, 0.0000000000000000000, 1.500000000000000222 ) ) ;
#103 = ADVANCED_BREP_SHAPE_REPRESENTATION ( 'Micro_SEM-125-03', ( #180, #116 ), #65 ) ;
#104 = AXIS2_PLACEMENT_3D ( 'NONE', #101, #281, #78 ) ;
#105 = CARTESIAN_POINT ( 'NONE',  ( 3.061616997868383634E-17, 0.0000000000000000000, 0.2500000000000000000 ) ) ;
#106 =( NAMED_UNIT ( * ) PLANE_ANGLE_UNIT ( ) SI_UNIT ( $, .RADIAN. ) );
#107 = AXIS2_PLACEMENT_3D ( 'NONE', #260, #237, #169 ) ;
#108 = EDGE_CURVE ( 'NONE', #12, #74, #140, .T. ) ;
#109 = CARTESIAN_POINT ( 'NONE',  ( -0.04750000000000064587, 0.0000000000000000000, 1.500000000000000222 ) ) ;
#110 = EDGE_LOOP ( 'NONE', ( #95, #52, #138, #189 ) ) ;
#111 = FACE_OUTER_BOUND ( 'NONE', #17, .T. ) ;
#112 = EDGE_CURVE ( 'NONE', #159, #136, #243, .T. ) ;
#113 = CYLINDRICAL_SURFACE ( 'NONE', #87, 0.06250000000000000000 ) ;
#114 = DIRECTION ( 'NONE',  ( 0.1736481776669313581, 0.0000000000000000000, 0.9848077530122077983 ) ) ;
#115 = DIRECTION ( 'NONE',  ( 1.000000000000000000, 0.0000000000000000000, 0.0000000000000000000 ) ) ;
#116 = AXIS2_PLACEMENT_3D ( 'NONE', #134, #181, #186 ) ;
#117 = APPLICATION_PROTOCOL_DEFINITION ( 'draft international standard', 'automotive_design', 1998, #188 ) ;
#118 = VERTEX_POINT ( 'NONE', #168 ) ;
#119 = PRODUCT_CONTEXT ( 'NONE', #271, 'mechanical' ) ;
#120 = VERTEX_POINT ( 'NONE', #125 ) ;
#121 = EDGE_LOOP ( 'NONE', ( #250, #158, #209, #44 ) ) ;
#122 = ADVANCED_FACE ( 'NONE', ( #264 ), #296, .T. ) ;
#123 = ORIENTED_EDGE ( 'NONE', *, *, #218, .T. ) ;
#124 = DIRECTION ( 'NONE',  ( -0.1736481776669311639, 2.126576849575783008E-17, 0.9848077530122080203 ) ) ;
#125 = CARTESIAN_POINT ( 'NONE',  ( -0.06243749999999999994, 0.0000000000000000000, 1.529277690435257783E-17 ) ) ;
#126 = CIRCLE ( 'NONE', #174, 0.04750000000000064587 ) ;
#127 = DIRECTION ( 'NONE',  ( -0.7071067811865456854, 0.0000000000000000000, -0.7071067811865493491 ) ) ;
#128 =( CONVERSION_BASED_UNIT ( 'INCH', #147 ) LENGTH_UNIT ( ) NAMED_UNIT ( #246 ) );
#129 = AXIS2_PLACEMENT_3D ( 'NONE', #76, #163, #255 ) ;
#130 = CARTESIAN_POINT ( 'NONE',  ( 0.0000000000000000000, 0.0000000000000000000, 0.0000000000000000000 ) ) ;
#131 =( NAMED_UNIT ( * ) PLANE_ANGLE_UNIT ( ) SI_UNIT ( $, .RADIAN. ) );
#132 = VECTOR ( 'NONE', #172, 39.37007874015748143 ) ;
#133 = DIMENSIONAL_EXPONENTS ( 1.000000000000000000, 0.0000000000000000000, 0.0000000000000000000, 0.0000000000000000000, 0.0000000000000000000, 0.0000000000000000000, 0.0000000000000000000 ) ;
#134 = CARTESIAN_POINT ( 'NONE',  ( 0.0000000000000000000, 0.0000000000000000000, 0.0000000000000000000 ) ) ;
#135 = FACE_OUTER_BOUND ( 'NONE', #230, .T. ) ;
#136 = VERTEX_POINT ( 'NONE', #166 ) ;
#137 = CARTESIAN_POINT ( 'NONE',  ( 0.06250000000000002776, 7.654042494670959086E-18, 0.2503544551137260044 ) ) ;
#138 = ORIENTED_EDGE ( 'NONE', *, *, #112, .F. ) ;
#139 = ORIENTED_EDGE ( 'NONE', *, *, #283, .T. ) ;
#140 = CIRCLE ( 'NONE', #286, 0.06250000000000000000 ) ;
#141 = MECHANICAL_DESIGN_GEOMETRIC_PRESENTATION_REPRESENTATION (  '', ( #263 ), #75 ) ;
#142 = DIRECTION ( 'NONE',  ( 0.0000000000000000000, 0.0000000000000000000, -1.000000000000000000 ) ) ;
#143 = EDGE_CURVE ( 'NONE', #118, #120, #232, .T. ) ;
#144 = FILL_AREA_STYLE_COLOUR ( '', #238 ) ;
#145 = SURFACE_STYLE_USAGE ( .BOTH. , #170 ) ;
#146 = AXIS2_PLACEMENT_3D ( 'NONE', #151, #244, #18 ) ;
#147 = LENGTH_MEASURE_WITH_UNIT ( LENGTH_MEASURE( 0.02539999999999999897 ), #10 );
#148 =( NAMED_UNIT ( * ) SI_UNIT ( $, .STERADIAN. ) SOLID_ANGLE_UNIT ( ) );
#149 = PLANE ( 'NONE',  #265 ) ;
#150 = AXIS2_PLACEMENT_3D ( 'NONE', #223, #197, #221 ) ;
#151 = CARTESIAN_POINT ( 'NONE',  ( 0.0000000000000000000, 0.0000000000000000000, 0.0000000000000000000 ) ) ;
#152 = EDGE_LOOP ( 'NONE', ( #77, #123, #32, #247 ) ) ;
#153 = ADVANCED_FACE ( 'NONE', ( #83 ), #292, .T. ) ;
#154 = CARTESIAN_POINT ( 'NONE',  ( 0.0000000000000000000, 0.0000000000000000000, 1.500000000000000222 ) ) ;
#155 = DIRECTION ( 'NONE',  ( 0.0000000000000000000, 0.0000000000000000000, -1.000000000000000000 ) ) ;
#156 = CIRCLE ( 'NONE', #277, 0.06250000000000000000 ) ;
#157 = LINE ( 'NONE', #290, #132 ) ;
#158 = ORIENTED_EDGE ( 'NONE', *, *, #8, .F. ) ;
#159 = VERTEX_POINT ( 'NONE', #59 ) ;
#160 = CIRCLE ( 'NONE', #226, 0.06243750000000001382 ) ;
#161 = ORIENTED_EDGE ( 'NONE', *, *, #218, .F. ) ;
#162 = FILL_AREA_STYLE ('',( #164 ) ) ;
#163 = DIRECTION ( 'NONE',  ( -1.224646799147353454E-16, -0.0000000000000000000, -1.000000000000000000 ) ) ;
#164 = FILL_AREA_STYLE_COLOUR ( '', #252 ) ;
#165 = DIRECTION ( 'NONE',  ( 1.000000000000000000, 0.0000000000000000000, 0.0000000000000000000 ) ) ;
#166 = CARTESIAN_POINT ( 'NONE',  ( 0.06250000000000000000, 7.654042494670956004E-18, 1.485000000000000764 ) ) ;
#167 = DIRECTION ( 'NONE',  ( -1.224646799147353454E-16, -0.0000000000000000000, -1.000000000000000000 ) ) ;
#168 = CARTESIAN_POINT ( 'NONE',  ( 0.06243749999999999994, 7.646388452176287375E-18, -9.478001694819074349E-34 ) ) ;
#169 = DIRECTION ( 'NONE',  ( 1.000000000000000000, 0.0000000000000000000, 0.0000000000000000000 ) ) ;
#170 = SURFACE_SIDE_STYLE ('',( #33 ) ) ;
#171 = APPLICATION_PROTOCOL_DEFINITION ( 'draft international standard', 'automotive_design', 1998, #271 ) ;
#172 = DIRECTION ( 'NONE',  ( 0.7071067811865456854, 8.659560562354911904E-17, -0.7071067811865493491 ) ) ;
#173 = VERTEX_POINT ( 'NONE', #287 ) ;
#174 = AXIS2_PLACEMENT_3D ( 'NONE', #280, #184, #165 ) ;
#175 = DIRECTION ( 'NONE',  ( -1.000000000000000000, 0.0000000000000000000, 0.0000000000000000000 ) ) ;
#176 = FACE_OUTER_BOUND ( 'NONE', #69, .T. ) ;
#177 = CARTESIAN_POINT ( 'NONE',  ( 0.06243750000000001382, 7.646388452176288915E-18, -7.646388452176288915E-18 ) ) ;
#178 = AXIS2_PLACEMENT_3D ( 'NONE', #80, #7, #79 ) ;
#179 = ORIENTED_EDGE ( 'NONE', *, *, #185, .T. ) ;
#180 = MANIFOLD_SOLID_BREP ( 'Cut-Revolve1', #86 ) ;
#181 = DIRECTION ( 'NONE',  ( 0.0000000000000000000, 0.0000000000000000000, 1.000000000000000000 ) ) ;
#182 = ORIENTED_EDGE ( 'NONE', *, *, #90, .T. ) ;
#183 = SHAPE_DEFINITION_REPRESENTATION ( #279, #103 ) ;
#184 = DIRECTION ( 'NONE',  ( 0.0000000000000000000, 0.0000000000000000000, 1.000000000000000000 ) ) ;
#185 = EDGE_CURVE ( 'NONE', #85, #12, #240, .T. ) ;
#186 = DIRECTION ( 'NONE',  ( 1.000000000000000000, 0.0000000000000000000, 0.0000000000000000000 ) ) ;
#187 = ORIENTED_EDGE ( 'NONE', *, *, #108, .F. ) ;
#188 = APPLICATION_CONTEXT ( 'automotive_design' ) ;
#189 = ORIENTED_EDGE ( 'NONE', *, *, #63, .F. ) ;
#190 = ORIENTED_EDGE ( 'NONE', *, *, #143, .T. ) ;
#191 = PRODUCT_RELATED_PRODUCT_CATEGORY ( 'part', '', ( #275 ) ) ;
#192 = CONICAL_SURFACE ( 'NONE', #200, 0.04750000000000064587, 0.7853981633974457255 ) ;
#193 = LINE ( 'NONE', #34, #50 ) ;
#194 = CARTESIAN_POINT ( 'NONE',  ( -0.06243749999999997913, 7.646388452176288915E-18, 0.2500000000000000000 ) ) ;
#195 = DIRECTION ( 'NONE',  ( -0.0000000000000000000, -0.0000000000000000000, -1.000000000000000000 ) ) ;
#196 = VECTOR ( 'NONE', #13, 39.37007874015748143 ) ;
#197 = DIRECTION ( 'NONE',  ( 0.0000000000000000000, 0.0000000000000000000, 1.000000000000000000 ) ) ;
#198 = ORIENTED_EDGE ( 'NONE', *, *, #185, .F. ) ;
#199 = DIRECTION ( 'NONE',  ( 0.0000000000000000000, 0.0000000000000000000, 1.000000000000000000 ) ) ;
#200 = AXIS2_PLACEMENT_3D ( 'NONE', #102, #58, #285 ) ;
#201 = LENGTH_MEASURE_WITH_UNIT ( LENGTH_MEASURE( 0.02539999999999999897 ), #66 );
#202 = PLANE ( 'NONE',  #206 ) ;
#203 = PRODUCT_DEFINITION_CONTEXT ( 'detailed design', #188, 'design' ) ;
#204 = EDGE_CURVE ( 'NONE', #136, #159, #156, .T. ) ;
#205 = DIRECTION ( 'NONE',  ( -1.224646799147353454E-16, -0.0000000000000000000, -1.000000000000000000 ) ) ;
#206 = AXIS2_PLACEMENT_3D ( 'NONE', #154, #199, #45 ) ;
#207 = ORIENTED_EDGE ( 'NONE', *, *, #204, .T. ) ;
#208 = ORIENTED_EDGE ( 'NONE', *, *, #94, .T. ) ;
#209 = ORIENTED_EDGE ( 'NONE', *, *, #63, .T. ) ;
#210 = CARTESIAN_POINT ( 'NONE',  ( 0.0000000000000000000, 0.0000000000000000000, 1.500000000000000222 ) ) ;
#211 = CARTESIAN_POINT ( 'NONE',  ( -0.06250000000000000000, 0.0000000000000000000, 1.500000000000000222 ) ) ;
#212 = FILL_AREA_STYLE ('',( #144 ) ) ;
#213 = LINE ( 'NONE', #194, #64 ) ;
#214 = CARTESIAN_POINT ( 'NONE',  ( 0.0000000000000000000, 0.0000000000000000000, 1.500000000000000222 ) ) ;
#215 = ADVANCED_FACE ( 'NONE', ( #67 ), #149, .F. ) ;
#216 = CARTESIAN_POINT ( 'NONE',  ( 3.065957821073043634E-17, 0.0000000000000000000, 0.2503544551137260044 ) ) ;
#217 = CIRCLE ( 'NONE', #24, 0.06243750000000001382 ) ;
#218 = EDGE_CURVE ( 'NONE', #85, #118, #220, .T. ) ;
#219 = DIRECTION ( 'NONE',  ( -0.0000000000000000000, -0.0000000000000000000, -1.000000000000000000 ) ) ;
#220 = LINE ( 'NONE', #177, #196 ) ;
#221 = DIRECTION ( 'NONE',  ( 1.000000000000000000, 0.0000000000000000000, 0.0000000000000000000 ) ) ;
#222 = AXIS2_PLACEMENT_3D ( 'NONE', #214, #142, #35 ) ;
#223 = CARTESIAN_POINT ( 'NONE',  ( 0.0000000000000000000, 0.0000000000000000000, 1.500000000000000222 ) ) ;
#224 = VERTEX_POINT ( 'NONE', #109 ) ;
#225 = CARTESIAN_POINT ( 'NONE',  ( 3.061616997868383634E-17, 0.0000000000000000000, 0.2500000000000000000 ) ) ;
#226 = AXIS2_PLACEMENT_3D ( 'NONE', #42, #205, #291 ) ;
#227 = PRESENTATION_LAYER_ASSIGNMENT (  '', '', ( #263 ) ) ;
#228 = EDGE_LOOP ( 'NONE', ( #71, #208, #53, #93 ) ) ;
#229 =( LENGTH_UNIT ( ) NAMED_UNIT ( * ) SI_UNIT ( $, .METRE. ) );
#230 = EDGE_LOOP ( 'NONE', ( #231, #234, #179, #298 ) ) ;
#231 = ORIENTED_EDGE ( 'NONE', *, *, #100, .F. ) ;
#232 = CIRCLE ( 'NONE', #178, 0.06243749999999999994 ) ;
#233 = PRODUCT_DEFINITION_FORMATION_WITH_SPECIFIED_SOURCE ( 'ANY', '', #275, .NOT_KNOWN. ) ;
#234 = ORIENTED_EDGE ( 'NONE', *, *, #283, .F. ) ;
#235 = ADVANCED_FACE ( 'NONE', ( #11 ), #293, .T. ) ;
#236 = DIRECTION ( 'NONE',  ( 1.224646799147353454E-16, 0.0000000000000000000, 1.000000000000000000 ) ) ;
#237 = DIRECTION ( 'NONE',  ( 0.0000000000000000000, 0.0000000000000000000, -1.000000000000000000 ) ) ;
#238 = COLOUR_RGB ( '',0.7921568627450980005, 0.8196078431372548767, 0.9333333333333333481 ) ;
#239 = PRESENTATION_STYLE_ASSIGNMENT (( #145 ) ) ;
#240 = LINE ( 'NONE', #288, #261 ) ;
#241 = CARTESIAN_POINT ( 'NONE',  ( 0.06243750000000004852, 0.0000000000000000000, 0.2500000000000000000 ) ) ;
#242 = EDGE_CURVE ( 'NONE', #99, #224, #68, .T. ) ;
#243 = CIRCLE ( 'NONE', #107, 0.06250000000000000000 ) ;
#244 = DIRECTION ( 'NONE',  ( -1.224646799147353454E-16, -0.0000000000000000000, -1.000000000000000000 ) ) ;
#245 = DIRECTION ( 'NONE',  ( -1.224646799147353454E-16, -0.0000000000000000000, -1.000000000000000000 ) ) ;
#246 = DIMENSIONAL_EXPONENTS ( 1.000000000000000000, 0.0000000000000000000, 0.0000000000000000000, 0.0000000000000000000, 0.0000000000000000000, 0.0000000000000000000, 0.0000000000000000000 ) ;
#247 = ORIENTED_EDGE ( 'NONE', *, *, #289, .F. ) ;
#248 = ADVANCED_FACE ( 'NONE', ( #111 ), #202, .T. ) ;
#249 = UNCERTAINTY_MEASURE_WITH_UNIT (LENGTH_MEASURE( 1.000000000000000082E-05 ), #98, 'distance_accuracy_value', 'NONE');
#250 = ORIENTED_EDGE ( 'NONE', *, *, #267, .F. ) ;
#251 = VECTOR ( 'NONE', #195, 39.37007874015748143 ) ;
#252 = COLOUR_RGB ( '',0.7921568627450980005, 0.8196078431372548767, 0.9333333333333333481 ) ;
#253 = ORIENTED_EDGE ( 'NONE', *, *, #14, .T. ) ;
#254 = FACE_OUTER_BOUND ( 'NONE', #228, .T. ) ;
#255 = DIRECTION ( 'NONE',  ( -1.000000000000000000, 0.0000000000000000000, 1.224646799147353207E-16 ) ) ;
#256 = EDGE_CURVE ( 'NONE', #173, #85, #160, .T. ) ;
#257 = CONICAL_SURFACE ( 'NONE', #3, 0.06243750000000001382, 0.1745329251994338637 ) ;
#258 = CARTESIAN_POINT ( 'NONE',  ( 9.364125142994977476E-34, 0.0000000000000000000, 7.646388452176288915E-18 ) ) ;
#259 = DIRECTION ( 'NONE',  ( 1.000000000000000000, 0.0000000000000000000, 0.0000000000000000000 ) ) ;
#260 = CARTESIAN_POINT ( 'NONE',  ( 0.0000000000000000000, 0.0000000000000000000, 1.485000000000000764 ) ) ;
#261 = VECTOR ( 'NONE', #114, 39.37007874015748143 ) ;
#262 = CARTESIAN_POINT ( 'NONE',  ( 0.06250000000000000000, 7.654042494670956004E-18, 1.500000000000000222 ) ) ;
#263 = STYLED_ITEM ( 'NONE', ( #27 ), #103 ) ;
#264 = FACE_OUTER_BOUND ( 'NONE', #121, .T. ) ;
#265 = AXIS2_PLACEMENT_3D ( 'NONE', #130, #39, #37 ) ;
#266 = CARTESIAN_POINT ( 'NONE',  ( 0.0000000000000000000, 0.0000000000000000000, 1.500000000000000222 ) ) ;
#267 = EDGE_CURVE ( 'NONE', #99, #136, #157, .T. ) ;
#268 = DIRECTION ( 'NONE',  ( -1.224646799147353454E-16, -0.0000000000000000000, -1.000000000000000000 ) ) ;
#269 = CARTESIAN_POINT ( 'NONE',  ( 0.0000000000000000000, 0.0000000000000000000, 1.485000000000000764 ) ) ;
#270 = ORIENTED_EDGE ( 'NONE', *, *, #242, .T. ) ;
#271 = APPLICATION_CONTEXT ( 'automotive_design' ) ;
#272 = PRODUCT_DEFINITION ( 'UNKNOWN', '', #233, #203 ) ;
#273 =( NAMED_UNIT ( * ) SI_UNIT ( $, .STERADIAN. ) SOLID_ANGLE_UNIT ( ) );
#274 = EDGE_LOOP ( 'NONE', ( #182, #190 ) ) ;
#275 = PRODUCT ( 'Micro_SEM-125-03', 'Micro_SEM-125-03', '', ( #119 ) ) ;
#276 = LINE ( 'NONE', #211, #43 ) ;
#277 = AXIS2_PLACEMENT_3D ( 'NONE', #269, #155, #84 ) ;
#278 = ORIENTED_EDGE ( 'NONE', *, *, #143, .F. ) ;
#279 = PRODUCT_DEFINITION_SHAPE ( 'NONE', 'NONE',  #272 ) ;
#280 = CARTESIAN_POINT ( 'NONE',  ( 0.0000000000000000000, 0.0000000000000000000, 1.500000000000000222 ) ) ;
#281 = DIRECTION ( 'NONE',  ( -1.224646799147353454E-16, -0.0000000000000000000, -1.000000000000000000 ) ) ;
#282 =( GEOMETRIC_REPRESENTATION_CONTEXT ( 3 ) GLOBAL_UNCERTAINTY_ASSIGNED_CONTEXT ( ( #20 ) ) GLOBAL_UNIT_ASSIGNED_CONTEXT ( ( #128, #106, #148 ) ) REPRESENTATION_CONTEXT ( 'NONE', 'WORKASPACE' ) );
#283 = EDGE_CURVE ( 'NONE', #85, #173, #217, .T. ) ;
#284 = DIRECTION ( 'NONE',  ( -1.000000000000000000, 0.0000000000000000000, 1.224646799147353700E-16 ) ) ;
#285 = DIRECTION ( 'NONE',  ( -1.000000000000000000, 0.0000000000000000000, 0.0000000000000000000 ) ) ;
#286 = AXIS2_PLACEMENT_3D ( 'NONE', #216, #5, #57 ) ;
#287 = CARTESIAN_POINT ( 'NONE',  ( -0.06243749999999997913, 7.650215473423623230E-18, 0.2500000000000000000 ) ) ;
#288 = CARTESIAN_POINT ( 'NONE',  ( 0.06243750000000004852, 0.0000000000000000000, 0.2500000000000000000 ) ) ;
#289 = EDGE_CURVE ( 'NONE', #173, #120, #15, .T. ) ;
#290 = CARTESIAN_POINT ( 'NONE',  ( 0.04750000000000064587, 5.817072295950006528E-18, 1.500000000000000222 ) ) ;
#291 = DIRECTION ( 'NONE',  ( -1.000000000000000000, 0.0000000000000000000, 0.0000000000000000000 ) ) ;
#292 = CONICAL_SURFACE ( 'NONE', #97, 0.06243750000000001382, 0.1745329251994338637 ) ;
#293 = CYLINDRICAL_SURFACE ( 'NONE', #146, 0.06243750000000001382 ) ;
#294 = DIRECTION ( 'NONE',  ( -1.000000000000000000, 0.0000000000000000000, 0.0000000000000000000 ) ) ;
#295 = ADVANCED_FACE ( 'NONE', ( #176 ), #113, .T. ) ;
#296 = CONICAL_SURFACE ( 'NONE', #222, 0.04750000000000064587, 0.7853981633974457255 ) ;
#297 = FACE_OUTER_BOUND ( 'NONE', #110, .T. ) ;
#298 = ORIENTED_EDGE ( 'NONE', *, *, #108, .T. ) ;
#299 = EDGE_LOOP ( 'NONE', ( #161, #139, #40, #278 ) ) ;
ENDSEC;
END-ISO-10303-21;
