ISO-10303-21;
HEADER;
FILE_DESCRIPTION (( 'STEP AP214' ),
    '1' );
FILE_NAME ('00045.STEP',
    '2023-06-22T14:02:23',
    ( '' ),
    ( '' ),
    'SwSTEP 2.0',
    'SolidWorks 2023',
    '' );
FILE_SCHEMA (( 'AUTOMOTIVE_DESIGN' ));
ENDSEC;

DATA;
#1 =( LENGTH_UNIT ( ) NAMED_UNIT ( * ) SI_UNIT ( $, .METRE. ) );
#2 = EDGE_LOOP ( 'NONE', ( #114, #132, #85, #263 ) ) ;
#3 = ORIENTED_EDGE ( 'NONE', *, *, #113, .T. ) ;
#4 = MECHANICAL_DESIGN_GEOMETRIC_PRESENTATION_REPRESENTATION (  '', ( #230 ), #50 ) ;
#5 = PRESENTATION_STYLE_ASSIGNMENT (( #176 ) ) ;
#6 =( CONVERSION_BASED_UNIT ( 'INCH', #267 ) LENGTH_UNIT ( ) NAMED_UNIT ( #152 ) );
#7 = AXIS2_PLACEMENT_3D ( 'NONE', #10, #37, #223 ) ;
#8 = FACE_OUTER_BOUND ( 'NONE', #62, .T. ) ;
#9 =( LENGTH_UNIT ( ) NAMED_UNIT ( * ) SI_UNIT ( $, .METRE. ) );
#10 = CARTESIAN_POINT ( 'NONE',  ( 0.000000000000000000, 0.000000000000000000, 0.000000000000000000 ) ) ;
#11 = LINE ( 'NONE', #257, #232 ) ;
#12 = PRODUCT ( '00045', '00045', '', ( #220 ) ) ;
#13 = CARTESIAN_POINT ( 'NONE',  ( 0.000000000000000000, 0.5000000000000001110, 0.000000000000000000 ) ) ;
#14 = STYLED_ITEM ( 'NONE', ( #307 ), #162 ) ;
#15 =( LENGTH_UNIT ( ) NAMED_UNIT ( * ) SI_UNIT ( $, .METRE. ) );
#16 = MECHANICAL_DESIGN_GEOMETRIC_PRESENTATION_REPRESENTATION (  '', ( #260 ), #36 ) ;
#17 = CIRCLE ( 'NONE', #258, 0.06250000000000005551 ) ;
#18 = PLANE ( 'NONE',  #148 ) ;
#19 = DIRECTION ( 'NONE',  ( -0.000000000000000000, -1.000000000000000000, -0.000000000000000000 ) ) ;
#20 = EDGE_LOOP ( 'NONE', ( #91, #26 ) ) ;
#21 = SURFACE_SIDE_STYLE ('',( #194 ) ) ;
#22 = EDGE_CURVE ( 'NONE', #188, #68, #244, .T. ) ;
#23 = AXIS2_PLACEMENT_3D ( 'NONE', #265, #140, #240 ) ;
#24 = CYLINDRICAL_SURFACE ( 'NONE', #34, 0.06250000000000002776 ) ;
#25 = FILL_AREA_STYLE_COLOUR ( '', #218 ) ;
#26 = ORIENTED_EDGE ( 'NONE', *, *, #86, .T. ) ;
#27 =( LENGTH_UNIT ( ) NAMED_UNIT ( * ) SI_UNIT ( $, .METRE. ) );
#28 = FILL_AREA_STYLE_COLOUR ( '', #161 ) ;
#29 = LENGTH_MEASURE_WITH_UNIT ( LENGTH_MEASURE( 0.02539999999999999897 ), #27 );
#30 = PRESENTATION_LAYER_ASSIGNMENT (  '', '', ( #184 ) ) ;
#31 = CARTESIAN_POINT ( 'NONE',  ( 0.000000000000000000, 0.000000000000000000, -0.06250000000000000000 ) ) ;
#32 = ADVANCED_FACE ( 'NONE', ( #116 ), #24, .T. ) ;
#33 = DIRECTION ( 'NONE',  ( -1.000000000000000000, 0.000000000000000000, 0.000000000000000000 ) ) ;
#34 = AXIS2_PLACEMENT_3D ( 'NONE', #93, #120, #150 ) ;
#35 = LENGTH_MEASURE_WITH_UNIT ( LENGTH_MEASURE( 0.02539999999999999897 ), #15 );
#36 =( GEOMETRIC_REPRESENTATION_CONTEXT ( 3 ) GLOBAL_UNCERTAINTY_ASSIGNED_CONTEXT ( ( #282 ) ) GLOBAL_UNIT_ASSIGNED_CONTEXT ( ( #142, #118, #284 ) ) REPRESENTATION_CONTEXT ( 'NONE', 'WORKASPACE' ) );
#37 = DIRECTION ( 'NONE',  ( -0.000000000000000000, -1.000000000000000000, -0.000000000000000000 ) ) ;
#38 = COLOUR_RGB ( '',1.000000000000000000, 0.000000000000000000, 0.000000000000000000 ) ;
#39 = DIRECTION ( 'NONE',  ( -0.000000000000000000, -1.000000000000000000, -0.000000000000000000 ) ) ;
#40 = CARTESIAN_POINT ( 'NONE',  ( -6.123233995736766036E-17, 2.500000000000000000, 0.000000000000000000 ) ) ;
#41 = DIRECTION ( 'NONE',  ( -3.061616997868383018E-17, 1.000000000000000000, -0.000000000000000000 ) ) ;
#42 = ORIENTED_EDGE ( 'NONE', *, *, #131, .F. ) ;
#43 = CARTESIAN_POINT ( 'NONE',  ( 0.000000000000000000, 0.5000000000000000000, 0.000000000000000000 ) ) ;
#44 = CARTESIAN_POINT ( 'NONE',  ( 0.000000000000000000, 0.5000000000000000000, -0.06250000000000000000 ) ) ;
#45 = VERTEX_POINT ( 'NONE', #31 ) ;
#46 = CARTESIAN_POINT ( 'NONE',  ( 0.06250000000000000000, 0.5000000000000001110, 7.654042494670963708E-18 ) ) ;
#47 = AXIS2_PLACEMENT_3D ( 'NONE', #40, #80, #125 ) ;
#48 = VERTEX_POINT ( 'NONE', #270 ) ;
#49 = CARTESIAN_POINT ( 'NONE',  ( 0.000000000000000000, 0.5000000000000001110, 0.000000000000000000 ) ) ;
#50 =( GEOMETRIC_REPRESENTATION_CONTEXT ( 3 ) GLOBAL_UNCERTAINTY_ASSIGNED_CONTEXT ( ( #157 ) ) GLOBAL_UNIT_ASSIGNED_CONTEXT ( ( #206, #159, #151 ) ) REPRESENTATION_CONTEXT ( 'NONE', 'WORKASPACE' ) );
#51 = DIRECTION ( 'NONE',  ( -0.000000000000000000, -1.000000000000000000, -0.000000000000000000 ) ) ;
#52 =( NAMED_UNIT ( * ) PLANE_ANGLE_UNIT ( ) SI_UNIT ( $, .RADIAN. ) );
#53 = APPLICATION_PROTOCOL_DEFINITION ( 'draft international standard', 'automotive_design', 1998, #216 ) ;
#54 = AXIS2_PLACEMENT_3D ( 'NONE', #58, #154, #67 ) ;
#55 =( NAMED_UNIT ( * ) PLANE_ANGLE_UNIT ( ) SI_UNIT ( $, .RADIAN. ) );
#56 = SURFACE_STYLE_FILL_AREA ( #201 ) ;
#57 = ADVANCED_FACE ( 'NONE', ( #8 ), #242, .T. ) ;
#58 = CARTESIAN_POINT ( 'NONE',  ( 0.000000000000000000, 0.5000000000000000000, 0.000000000000000000 ) ) ;
#59 = UNCERTAINTY_MEASURE_WITH_UNIT (LENGTH_MEASURE( 1.000000000000000082E-05 ), #73, 'distance_accuracy_value', 'NONE');
#60 = EDGE_CURVE ( 'NONE', #45, #289, #144, .T. ) ;
#61 =( LENGTH_UNIT ( ) NAMED_UNIT ( * ) SI_UNIT ( $, .METRE. ) );
#62 = EDGE_LOOP ( 'NONE', ( #141, #109, #259, #234 ) ) ;
#63 = DIRECTION ( 'NONE',  ( -0.000000000000000000, -1.000000000000000000, -0.000000000000000000 ) ) ;
#64 = UNCERTAINTY_MEASURE_WITH_UNIT (LENGTH_MEASURE( 1.000000000000000082E-05 ), #300, 'distance_accuracy_value', 'NONE');
#65 = ORIENTED_EDGE ( 'NONE', *, *, #113, .F. ) ;
#66 = EDGE_CURVE ( 'NONE', #48, #136, #247, .T. ) ;
#67 = DIRECTION ( 'NONE',  ( 0.000000000000000000, -0.000000000000000000, 1.000000000000000000 ) ) ;
#68 = VERTEX_POINT ( 'NONE', #219 ) ;
#69 = CARTESIAN_POINT ( 'NONE',  ( -0.06250000000000009714, 2.500000000000000000, 0.000000000000000000 ) ) ;
#70 = AXIS2_PLACEMENT_3D ( 'NONE', #76, #268, #248 ) ;
#71 = FILL_AREA_STYLE_COLOUR ( '', #104 ) ;
#72 = SURFACE_STYLE_FILL_AREA ( #221 ) ;
#73 =( CONVERSION_BASED_UNIT ( 'INCH', #123 ) LENGTH_UNIT ( ) NAMED_UNIT ( #82 ) );
#74 = AXIS2_PLACEMENT_3D ( 'NONE', #138, #19, #237 ) ;
#75 = ADVANCED_FACE ( 'NONE', ( #271 ), #293, .T. ) ;
#76 = CARTESIAN_POINT ( 'NONE',  ( 0.000000000000000000, 0.000000000000000000, 0.000000000000000000 ) ) ;
#77 = ADVANCED_FACE ( 'NONE', ( #256 ), #227, .T. ) ;
#78 = FILL_AREA_STYLE_COLOUR ( '', #209 ) ;
#79 = MECHANICAL_DESIGN_GEOMETRIC_PRESENTATION_REPRESENTATION (  '', ( #184 ), #172 ) ;
#80 = DIRECTION ( 'NONE',  ( -3.061616997868383018E-17, 1.000000000000000000, -0.000000000000000000 ) ) ;
#81 = DIRECTION ( 'NONE',  ( 0.000000000000000000, -1.000000000000000000, -0.000000000000000000 ) ) ;
#82 = DIMENSIONAL_EXPONENTS ( 1.000000000000000000, 0.000000000000000000, 0.000000000000000000, 0.000000000000000000, 0.000000000000000000, 0.000000000000000000, 0.000000000000000000 ) ;
#83 = AXIS2_PLACEMENT_3D ( 'NONE', #200, #294, #33 ) ;
#84 = UNCERTAINTY_MEASURE_WITH_UNIT (LENGTH_MEASURE( 1.000000000000000082E-05 ), #156, 'distance_accuracy_value', 'NONE');
#85 = ORIENTED_EDGE ( 'NONE', *, *, #60, .F. ) ;
#86 = EDGE_CURVE ( 'NONE', #236, #136, #137, .T. ) ;
#87 = EDGE_LOOP ( 'NONE', ( #65, #238 ) ) ;
#88 = ADVANCED_BREP_SHAPE_REPRESENTATION ( '00045', ( #162, #269, #70 ), #175 ) ;
#89 = ORIENTED_EDGE ( 'NONE', *, *, #191, .T. ) ;
#90 = PRODUCT_DEFINITION ( 'UNKNOWN', '', #228, #278 ) ;
#91 = ORIENTED_EDGE ( 'NONE', *, *, #179, .T. ) ;
#92 = DIRECTION ( 'NONE',  ( 1.000000000000000000, 3.061616997868383018E-17, 0.000000000000000000 ) ) ;
#93 = CARTESIAN_POINT ( 'NONE',  ( -6.123233995736766036E-17, 2.500000000000000000, 0.000000000000000000 ) ) ;
#94 = DIMENSIONAL_EXPONENTS ( 1.000000000000000000, 0.000000000000000000, 0.000000000000000000, 0.000000000000000000, 0.000000000000000000, 0.000000000000000000, 0.000000000000000000 ) ;
#95 = FILL_AREA_STYLE ('',( #71 ) ) ;
#96 = AXIS2_PLACEMENT_3D ( 'NONE', #299, #81, #309 ) ;
#97 = VECTOR ( 'NONE', #197, 39.37007874015748143 ) ;
#98 = PRESENTATION_STYLE_ASSIGNMENT (( #170 ) ) ;
#99 = FACE_OUTER_BOUND ( 'NONE', #20, .T. ) ;
#100 = DIMENSIONAL_EXPONENTS ( 1.000000000000000000, 0.000000000000000000, 0.000000000000000000, 0.000000000000000000, 0.000000000000000000, 0.000000000000000000, 0.000000000000000000 ) ;
#101 = FACE_OUTER_BOUND ( 'NONE', #192, .T. ) ;
#102 =( LENGTH_UNIT ( ) NAMED_UNIT ( * ) SI_UNIT ( $, .METRE. ) );
#103 = LINE ( 'NONE', #129, #126 ) ;
#104 = COLOUR_RGB ( '',1.000000000000000000, 0.000000000000000000, 0.000000000000000000 ) ;
#105 = FILL_AREA_STYLE ('',( #153 ) ) ;
#106 = PLANE ( 'NONE',  #54 ) ;
#107 = CARTESIAN_POINT ( 'NONE',  ( 2.929218325511440640E-35, 0.5000000000000000000, 0.000000000000000000 ) ) ;
#108 = EDGE_CURVE ( 'NONE', #68, #289, #103, .T. ) ;
#109 = ORIENTED_EDGE ( 'NONE', *, *, #189, .T. ) ;
#110 = MECHANICAL_DESIGN_GEOMETRIC_PRESENTATION_REPRESENTATION (  '', ( #302 ), #202 ) ;
#111 =( GEOMETRIC_REPRESENTATION_CONTEXT ( 3 ) GLOBAL_UNCERTAINTY_ASSIGNED_CONTEXT ( ( #187 ) ) GLOBAL_UNIT_ASSIGNED_CONTEXT ( ( #182, #279, #306 ) ) REPRESENTATION_CONTEXT ( 'NONE', 'WORKASPACE' ) );
#112 = DIRECTION ( 'NONE',  ( 0.000000000000000000, 0.000000000000000000, -1.000000000000000000 ) ) ;
#113 = EDGE_CURVE ( 'NONE', #48, #213, #180, .T. ) ;
#114 = ORIENTED_EDGE ( 'NONE', *, *, #22, .T. ) ;
#115 = DIRECTION ( 'NONE',  ( -1.000000000000000000, 0.000000000000000000, 0.000000000000000000 ) ) ;
#116 = FACE_OUTER_BOUND ( 'NONE', #210, .T. ) ;
#117 = ORIENTED_EDGE ( 'NONE', *, *, #86, .F. ) ;
#118 =( NAMED_UNIT ( * ) PLANE_ANGLE_UNIT ( ) SI_UNIT ( $, .RADIAN. ) );
#119 = DIRECTION ( 'NONE',  ( -0.000000000000000000, -1.000000000000000000, -0.000000000000000000 ) ) ;
#120 = DIRECTION ( 'NONE',  ( -3.061616997868383018E-17, 1.000000000000000000, -0.000000000000000000 ) ) ;
#121 =( NAMED_UNIT ( * ) SI_UNIT ( $, .STERADIAN. ) SOLID_ANGLE_UNIT ( ) );
#122 = SURFACE_STYLE_FILL_AREA ( #95 ) ;
#123 = LENGTH_MEASURE_WITH_UNIT ( LENGTH_MEASURE( 0.02539999999999999897 ), #171 );
#124 = ADVANCED_FACE ( 'NONE', ( #101 ), #106, .T. ) ;
#125 = DIRECTION ( 'NONE',  ( -1.000000000000000000, 0.000000000000000000, 0.000000000000000000 ) ) ;
#126 = VECTOR ( 'NONE', #39, 39.37007874015748143 ) ;
#127 = SURFACE_STYLE_USAGE ( .BOTH. , #181 ) ;
#128 = CARTESIAN_POINT ( 'NONE',  ( -0.06250000000000012490, 2.500000000000000000, 0.000000000000000000 ) ) ;
#129 = CARTESIAN_POINT ( 'NONE',  ( 7.654042494670957545E-18, 0.000000000000000000, 0.06250000000000000000 ) ) ;
#130 = DIRECTION ( 'NONE',  ( -3.061616997868383018E-17, 1.000000000000000000, 0.000000000000000000 ) ) ;
#131 = EDGE_CURVE ( 'NONE', #213, #236, #11, .T. ) ;
#132 = ORIENTED_EDGE ( 'NONE', *, *, #108, .T. ) ;
#133 = EDGE_LOOP ( 'NONE', ( #3, #193, #165, #211 ) ) ;
#134 = AXIS2_PLACEMENT_3D ( 'NONE', #222, #145, #92 ) ;
#135 = DIRECTION ( 'NONE',  ( -0.000000000000000000, -1.000000000000000000, -0.000000000000000000 ) ) ;
#136 = VERTEX_POINT ( 'NONE', #128 ) ;
#137 = CIRCLE ( 'NONE', #47, 0.06250000000000005551 ) ;
#138 = CARTESIAN_POINT ( 'NONE',  ( 0.000000000000000000, 0.000000000000000000, 0.000000000000000000 ) ) ;
#139 = AXIS2_PLACEMENT_3D ( 'NONE', #174, #51, #249 ) ;
#140 = DIRECTION ( 'NONE',  ( -0.000000000000000000, -1.000000000000000000, -0.000000000000000000 ) ) ;
#141 = ORIENTED_EDGE ( 'NONE', *, *, #108, .F. ) ;
#142 =( CONVERSION_BASED_UNIT ( 'INCH', #168 ) LENGTH_UNIT ( ) NAMED_UNIT ( #199 ) );
#143 = PRODUCT_RELATED_PRODUCT_CATEGORY ( 'part', '', ( #12 ) ) ;
#144 = CIRCLE ( 'NONE', #139, 0.06250000000000000000 ) ;
#145 = DIRECTION ( 'NONE',  ( 3.061616997868383018E-17, -1.000000000000000000, 0.000000000000000000 ) ) ;
#146 = SURFACE_SIDE_STYLE ('',( #122 ) ) ;
#147 = AXIS2_PLACEMENT_3D ( 'NONE', #13, #203, #183 ) ;
#148 = AXIS2_PLACEMENT_3D ( 'NONE', #107, #130, #253 ) ;
#149 = PRESENTATION_LAYER_ASSIGNMENT (  '', '', ( #14 ) ) ;
#150 = DIRECTION ( 'NONE',  ( -1.000000000000000000, 0.000000000000000000, 0.000000000000000000 ) ) ;
#151 =( NAMED_UNIT ( * ) SI_UNIT ( $, .STERADIAN. ) SOLID_ANGLE_UNIT ( ) );
#152 = DIMENSIONAL_EXPONENTS ( 1.000000000000000000, 0.000000000000000000, 0.000000000000000000, 0.000000000000000000, 0.000000000000000000, 0.000000000000000000, 0.000000000000000000 ) ;
#153 = FILL_AREA_STYLE_COLOUR ( '', #217 ) ;
#154 = DIRECTION ( 'NONE',  ( 0.000000000000000000, 1.000000000000000000, 0.000000000000000000 ) ) ;
#155 = FILL_AREA_STYLE ('',( #281 ) ) ;
#156 =( CONVERSION_BASED_UNIT ( 'INCH', #35 ) LENGTH_UNIT ( ) NAMED_UNIT ( #273 ) );
#157 = UNCERTAINTY_MEASURE_WITH_UNIT (LENGTH_MEASURE( 1.000000000000000082E-05 ), #206, 'distance_accuracy_value', 'NONE');
#158 = FACE_OUTER_BOUND ( 'NONE', #87, .T. ) ;
#159 =( NAMED_UNIT ( * ) PLANE_ANGLE_UNIT ( ) SI_UNIT ( $, .RADIAN. ) );
#160 = DIRECTION ( 'NONE',  ( -3.061616997868383018E-17, 1.000000000000000000, -0.000000000000000000 ) ) ;
#161 = COLOUR_RGB ( '',1.000000000000000000, 0.000000000000000000, 0.000000000000000000 ) ;
#162 = MANIFOLD_SOLID_BREP ( 'Revolve - Cutting Edge', #298 ) ;
#163 = EDGE_LOOP ( 'NONE', ( #283, #208 ) ) ;
#164 = DIRECTION ( 'NONE',  ( -3.061616997868383018E-17, 1.000000000000000000, -0.000000000000000000 ) ) ;
#165 = ORIENTED_EDGE ( 'NONE', *, *, #179, .F. ) ;
#166 = AXIS2_PLACEMENT_3D ( 'NONE', #49, #164, #266 ) ;
#167 = CARTESIAN_POINT ( 'NONE',  ( 0.000000000000000000, 0.000000000000000000, -0.06250000000000000000 ) ) ;
#168 = LENGTH_MEASURE_WITH_UNIT ( LENGTH_MEASURE( 0.02539999999999999897 ), #1 );
#169 = ADVANCED_FACE ( 'NONE', ( #158 ), #18, .F. ) ;
#170 = SURFACE_STYLE_USAGE ( .BOTH. , #146 ) ;
#171 =( LENGTH_UNIT ( ) NAMED_UNIT ( * ) SI_UNIT ( $, .METRE. ) );
#172 =( GEOMETRIC_REPRESENTATION_CONTEXT ( 3 ) GLOBAL_UNCERTAINTY_ASSIGNED_CONTEXT ( ( #59 ) ) GLOBAL_UNIT_ASSIGNED_CONTEXT ( ( #73, #52, #243 ) ) REPRESENTATION_CONTEXT ( 'NONE', 'WORKASPACE' ) );
#173 = FACE_OUTER_BOUND ( 'NONE', #133, .T. ) ;
#174 = CARTESIAN_POINT ( 'NONE',  ( 0.000000000000000000, 0.000000000000000000, 0.000000000000000000 ) ) ;
#175 =( GEOMETRIC_REPRESENTATION_CONTEXT ( 3 ) GLOBAL_UNCERTAINTY_ASSIGNED_CONTEXT ( ( #64 ) ) GLOBAL_UNIT_ASSIGNED_CONTEXT ( ( #300, #55, #121 ) ) REPRESENTATION_CONTEXT ( 'NONE', 'WORKASPACE' ) );
#176 = SURFACE_STYLE_USAGE ( .BOTH. , #296 ) ;
#177 = SHAPE_DEFINITION_REPRESENTATION ( #275, #88 ) ;
#178 =( NAMED_UNIT ( * ) PLANE_ANGLE_UNIT ( ) SI_UNIT ( $, .RADIAN. ) );
#179 = EDGE_CURVE ( 'NONE', #136, #236, #17, .T. ) ;
#180 = CIRCLE ( 'NONE', #147, 0.06250000000000000000 ) ;
#181 = SURFACE_SIDE_STYLE ('',( #250 ) ) ;
#182 =( CONVERSION_BASED_UNIT ( 'INCH', #225 ) LENGTH_UNIT ( ) NAMED_UNIT ( #94 ) );
#183 = DIRECTION ( 'NONE',  ( -1.000000000000000000, 0.000000000000000000, 0.000000000000000000 ) ) ;
#184 = STYLED_ITEM ( 'NONE', ( #5 ), #75 ) ;
#185 = SURFACE_SIDE_STYLE ('',( #224 ) ) ;
#186 = EDGE_CURVE ( 'NONE', #188, #45, #262, .T. ) ;
#187 = UNCERTAINTY_MEASURE_WITH_UNIT (LENGTH_MEASURE( 1.000000000000000082E-05 ), #182, 'distance_accuracy_value', 'NONE');
#188 = VERTEX_POINT ( 'NONE', #44 ) ;
#189 = EDGE_CURVE ( 'NONE', #68, #188, #286, .T. ) ;
#190 = ORIENTED_EDGE ( 'NONE', *, *, #66, .T. ) ;
#191 = EDGE_CURVE ( 'NONE', #213, #48, #308, .T. ) ;
#192 = EDGE_LOOP ( 'NONE', ( #290, #287 ) ) ;
#193 = ORIENTED_EDGE ( 'NONE', *, *, #131, .T. ) ;
#194 = SURFACE_STYLE_FILL_AREA ( #239 ) ;
#195 =( NAMED_UNIT ( * ) PLANE_ANGLE_UNIT ( ) SI_UNIT ( $, .RADIAN. ) );
#196 = DIRECTION ( 'NONE',  ( 0.000000000000000000, 0.000000000000000000, -1.000000000000000000 ) ) ;
#197 = DIRECTION ( 'NONE',  ( -3.061616997868383018E-17, 1.000000000000000000, -0.000000000000000000 ) ) ;
#198 =( NAMED_UNIT ( * ) SI_UNIT ( $, .STERADIAN. ) SOLID_ANGLE_UNIT ( ) );
#199 = DIMENSIONAL_EXPONENTS ( 1.000000000000000000, 0.000000000000000000, 0.000000000000000000, 0.000000000000000000, 0.000000000000000000, 0.000000000000000000, 0.000000000000000000 ) ;
#200 = CARTESIAN_POINT ( 'NONE',  ( -6.123233995736766036E-17, 2.500000000000000000, 0.000000000000000000 ) ) ;
#201 = FILL_AREA_STYLE ('',( #78 ) ) ;
#202 =( GEOMETRIC_REPRESENTATION_CONTEXT ( 3 ) GLOBAL_UNCERTAINTY_ASSIGNED_CONTEXT ( ( #84 ) ) GLOBAL_UNIT_ASSIGNED_CONTEXT ( ( #156, #178, #274 ) ) REPRESENTATION_CONTEXT ( 'NONE', 'WORKASPACE' ) );
#203 = DIRECTION ( 'NONE',  ( -3.061616997868383018E-17, 1.000000000000000000, -0.000000000000000000 ) ) ;
#204 = PRESENTATION_LAYER_ASSIGNMENT (  '', '', ( #277 ) ) ;
#205 = SURFACE_STYLE_USAGE ( .BOTH. , #185 ) ;
#206 =( CONVERSION_BASED_UNIT ( 'INCH', #255 ) LENGTH_UNIT ( ) NAMED_UNIT ( #100 ) );
#207 = CARTESIAN_POINT ( 'NONE',  ( -6.123233995736766036E-17, 2.500000000000000000, 0.000000000000000000 ) ) ;
#208 = ORIENTED_EDGE ( 'NONE', *, *, #245, .T. ) ;
#209 = COLOUR_RGB ( '',1.000000000000000000, 0.000000000000000000, 0.000000000000000000 ) ;
#210 = EDGE_LOOP ( 'NONE', ( #42, #89, #190, #117 ) ) ;
#211 = ORIENTED_EDGE ( 'NONE', *, *, #66, .F. ) ;
#212 = SURFACE_STYLE_USAGE ( .BOTH. , #21 ) ;
#213 = VERTEX_POINT ( 'NONE', #46 ) ;
#214 = CARTESIAN_POINT ( 'NONE',  ( 0.000000000000000000, 0.000000000000000000, 0.000000000000000000 ) ) ;
#215 = PRESENTATION_STYLE_ASSIGNMENT (( #212 ) ) ;
#216 = APPLICATION_CONTEXT ( 'automotive_design' ) ;
#217 = COLOUR_RGB ( '',0.7921568627450980005, 0.8196078431372548767, 0.9333333333333333481 ) ;
#218 = COLOUR_RGB ( '',0.7921568627450980005, 0.8196078431372548767, 0.9333333333333333481 ) ;
#219 = CARTESIAN_POINT ( 'NONE',  ( 7.654042494670957545E-18, 0.5000000000000000000, 0.06250000000000000000 ) ) ;
#220 = PRODUCT_CONTEXT ( 'NONE', #233, 'mechanical' ) ;
#221 = FILL_AREA_STYLE ('',( #28 ) ) ;
#222 = CARTESIAN_POINT ( 'NONE',  ( 0.06250000000000000000, 2.500000000000000000, 0.000000000000000000 ) ) ;
#223 = DIRECTION ( 'NONE',  ( 0.000000000000000000, 0.000000000000000000, -1.000000000000000000 ) ) ;
#224 = SURFACE_STYLE_FILL_AREA ( #105 ) ;
#225 = LENGTH_MEASURE_WITH_UNIT ( LENGTH_MEASURE( 0.02539999999999999897 ), #102 );
#226 = CLOSED_SHELL ( 'NONE', ( #292, #169, #32, #288 ) ) ;
#227 = CYLINDRICAL_SURFACE ( 'NONE', #7, 0.06250000000000000000 ) ;
#228 = PRODUCT_DEFINITION_FORMATION_WITH_SPECIFIED_SOURCE ( 'ANY', '', #12, .NOT_KNOWN. ) ;
#229 = PRESENTATION_LAYER_ASSIGNMENT (  '', '', ( #302 ) ) ;
#230 = STYLED_ITEM ( 'NONE', ( #280 ), #124 ) ;
#231 = MECHANICAL_DESIGN_GEOMETRIC_PRESENTATION_REPRESENTATION (  '', ( #14 ), #111 ) ;
#232 = VECTOR ( 'NONE', #160, 39.37007874015748143 ) ;
#233 = APPLICATION_CONTEXT ( 'automotive_design' ) ;
#234 = ORIENTED_EDGE ( 'NONE', *, *, #245, .F. ) ;
#235 = CARTESIAN_POINT ( 'NONE',  ( 0.06250000000000000000, 2.500000000000000000, 7.654042494670963708E-18 ) ) ;
#236 = VERTEX_POINT ( 'NONE', #235 ) ;
#237 = DIRECTION ( 'NONE',  ( 0.000000000000000000, 0.000000000000000000, -1.000000000000000000 ) ) ;
#238 = ORIENTED_EDGE ( 'NONE', *, *, #191, .F. ) ;
#239 = FILL_AREA_STYLE ('',( #25 ) ) ;
#240 = DIRECTION ( 'NONE',  ( 0.000000000000000000, 0.000000000000000000, -1.000000000000000000 ) ) ;
#241 = PLANE ( 'NONE',  #134 ) ;
#242 = CYLINDRICAL_SURFACE ( 'NONE', #252, 0.06250000000000000000 ) ;
#243 =( NAMED_UNIT ( * ) SI_UNIT ( $, .STERADIAN. ) SOLID_ANGLE_UNIT ( ) );
#244 = CIRCLE ( 'NONE', #23, 0.06250000000000000000 ) ;
#245 = EDGE_CURVE ( 'NONE', #289, #45, #276, .T. ) ;
#246 = DIMENSIONAL_EXPONENTS ( 1.000000000000000000, 0.000000000000000000, 0.000000000000000000, 0.000000000000000000, 0.000000000000000000, 0.000000000000000000, 0.000000000000000000 ) ;
#247 = LINE ( 'NONE', #69, #97 ) ;
#248 = DIRECTION ( 'NONE',  ( 1.000000000000000000, 0.000000000000000000, 0.000000000000000000 ) ) ;
#249 = DIRECTION ( 'NONE',  ( 0.000000000000000000, 0.000000000000000000, -1.000000000000000000 ) ) ;
#250 = SURFACE_STYLE_FILL_AREA ( #155 ) ;
#251 = UNCERTAINTY_MEASURE_WITH_UNIT (LENGTH_MEASURE( 1.000000000000000082E-05 ), #6, 'distance_accuracy_value', 'NONE');
#252 = AXIS2_PLACEMENT_3D ( 'NONE', #214, #119, #196 ) ;
#253 = DIRECTION ( 'NONE',  ( -1.000000000000000000, -3.061616997868383018E-17, 0.000000000000000000 ) ) ;
#254 = PRESENTATION_LAYER_ASSIGNMENT (  '', '', ( #260 ) ) ;
#255 = LENGTH_MEASURE_WITH_UNIT ( LENGTH_MEASURE( 0.02539999999999999897 ), #61 );
#256 = FACE_OUTER_BOUND ( 'NONE', #2, .T. ) ;
#257 = CARTESIAN_POINT ( 'NONE',  ( 0.06249999999999997224, 2.500000000000000000, 7.654042494670960626E-18 ) ) ;
#258 = AXIS2_PLACEMENT_3D ( 'NONE', #207, #41, #115 ) ;
#259 = ORIENTED_EDGE ( 'NONE', *, *, #186, .T. ) ;
#260 = STYLED_ITEM ( 'NONE', ( #215 ), #269 ) ;
#261 = MECHANICAL_DESIGN_GEOMETRIC_PRESENTATION_REPRESENTATION (  '', ( #277 ), #285 ) ;
#262 = LINE ( 'NONE', #167, #303 ) ;
#263 = ORIENTED_EDGE ( 'NONE', *, *, #186, .F. ) ;
#264 = AXIS2_PLACEMENT_3D ( 'NONE', #43, #135, #112 ) ;
#265 = CARTESIAN_POINT ( 'NONE',  ( 0.000000000000000000, 0.5000000000000000000, 0.000000000000000000 ) ) ;
#266 = DIRECTION ( 'NONE',  ( -1.000000000000000000, 0.000000000000000000, 0.000000000000000000 ) ) ;
#267 = LENGTH_MEASURE_WITH_UNIT ( LENGTH_MEASURE( 0.02539999999999999897 ), #9 );
#268 = DIRECTION ( 'NONE',  ( 0.000000000000000000, 0.000000000000000000, 1.000000000000000000 ) ) ;
#269 = MANIFOLD_SOLID_BREP ( 'Revolve - Tool Body (Straight Shanked)', #226 ) ;
#270 = CARTESIAN_POINT ( 'NONE',  ( -0.06250000000000000000, 0.5000000000000001110, 0.000000000000000000 ) ) ;
#271 = FACE_OUTER_BOUND ( 'NONE', #163, .T. ) ;
#272 = CYLINDRICAL_SURFACE ( 'NONE', #83, 0.06250000000000002776 ) ;
#273 = DIMENSIONAL_EXPONENTS ( 1.000000000000000000, 0.000000000000000000, 0.000000000000000000, 0.000000000000000000, 0.000000000000000000, 0.000000000000000000, 0.000000000000000000 ) ;
#274 =( NAMED_UNIT ( * ) SI_UNIT ( $, .STERADIAN. ) SOLID_ANGLE_UNIT ( ) );
#275 = PRODUCT_DEFINITION_SHAPE ( 'NONE', 'NONE',  #90 ) ;
#276 = CIRCLE ( 'NONE', #74, 0.06250000000000000000 ) ;
#277 = STYLED_ITEM ( 'NONE', ( #98 ), #57 ) ;
#278 = PRODUCT_DEFINITION_CONTEXT ( 'detailed design', #216, 'design' ) ;
#279 =( NAMED_UNIT ( * ) PLANE_ANGLE_UNIT ( ) SI_UNIT ( $, .RADIAN. ) );
#280 = PRESENTATION_STYLE_ASSIGNMENT (( #301 ) ) ;
#281 = FILL_AREA_STYLE_COLOUR ( '', #38 ) ;
#282 = UNCERTAINTY_MEASURE_WITH_UNIT (LENGTH_MEASURE( 1.000000000000000082E-05 ), #142, 'distance_accuracy_value', 'NONE');
#283 = ORIENTED_EDGE ( 'NONE', *, *, #60, .T. ) ;
#284 =( NAMED_UNIT ( * ) SI_UNIT ( $, .STERADIAN. ) SOLID_ANGLE_UNIT ( ) );
#285 =( GEOMETRIC_REPRESENTATION_CONTEXT ( 3 ) GLOBAL_UNCERTAINTY_ASSIGNED_CONTEXT ( ( #251 ) ) GLOBAL_UNIT_ASSIGNED_CONTEXT ( ( #6, #195, #198 ) ) REPRESENTATION_CONTEXT ( 'NONE', 'WORKASPACE' ) );
#286 = CIRCLE ( 'NONE', #264, 0.06250000000000000000 ) ;
#287 = ORIENTED_EDGE ( 'NONE', *, *, #189, .F. ) ;
#288 = ADVANCED_FACE ( 'NONE', ( #99 ), #241, .F. ) ;
#289 = VERTEX_POINT ( 'NONE', #297 ) ;
#290 = ORIENTED_EDGE ( 'NONE', *, *, #22, .F. ) ;
#291 = APPLICATION_PROTOCOL_DEFINITION ( 'draft international standard', 'automotive_design', 1998, #233 ) ;
#292 = ADVANCED_FACE ( 'NONE', ( #173 ), #272, .T. ) ;
#293 = PLANE ( 'NONE',  #96 ) ;
#294 = DIRECTION ( 'NONE',  ( -3.061616997868383018E-17, 1.000000000000000000, -0.000000000000000000 ) ) ;
#295 = PRESENTATION_LAYER_ASSIGNMENT (  '', '', ( #230 ) ) ;
#296 = SURFACE_SIDE_STYLE ('',( #72 ) ) ;
#297 = CARTESIAN_POINT ( 'NONE',  ( 7.654042494670957545E-18, 0.000000000000000000, 0.06250000000000000000 ) ) ;
#298 = CLOSED_SHELL ( 'NONE', ( #77, #124, #57, #75 ) ) ;
#299 = CARTESIAN_POINT ( 'NONE',  ( 0.000000000000000000, 0.000000000000000000, 0.000000000000000000 ) ) ;
#300 =( CONVERSION_BASED_UNIT ( 'INCH', #29 ) LENGTH_UNIT ( ) NAMED_UNIT ( #246 ) );
#301 = SURFACE_STYLE_USAGE ( .BOTH. , #305 ) ;
#302 = STYLED_ITEM ( 'NONE', ( #304 ), #77 ) ;
#303 = VECTOR ( 'NONE', #63, 39.37007874015748143 ) ;
#304 = PRESENTATION_STYLE_ASSIGNMENT (( #127 ) ) ;
#305 = SURFACE_SIDE_STYLE ('',( #56 ) ) ;
#306 =( NAMED_UNIT ( * ) SI_UNIT ( $, .STERADIAN. ) SOLID_ANGLE_UNIT ( ) );
#307 = PRESENTATION_STYLE_ASSIGNMENT (( #205 ) ) ;
#308 = CIRCLE ( 'NONE', #166, 0.06250000000000000000 ) ;
#309 = DIRECTION ( 'NONE',  ( 0.000000000000000000, 0.000000000000000000, -1.000000000000000000 ) ) ;
ENDSEC;
END-ISO-10303-21;
