ISO-10303-21;
HEADER;
FILE_DESCRIPTION (( 'STEP AP214' ),
    '1' );
FILE_NAME ('03512.STEP',
    '2023-06-22T15:24:54',
    ( '' ),
    ( '' ),
    'SwSTEP 2.0',
    'SolidWorks 2023',
    '' );
FILE_SCHEMA (( 'AUTOMOTIVE_DESIGN' ));
ENDSEC;

DATA;
#1 = DIRECTION ( 'NONE',  ( -4.898587196589412459E-17, 1.000000000000000000, 0.000000000000000000 ) ) ;
#2 = FACE_OUTER_BOUND ( 'NONE', #98, .T. ) ;
#3 = ORIENTED_EDGE ( 'NONE', *, *, #258, .F. ) ;
#4 = DIRECTION ( 'NONE',  ( -4.898587196589413075E-17, 1.000000000000000000, -0.000000000000000000 ) ) ;
#5 = DIRECTION ( 'NONE',  ( 1.000000000000000000, 0.000000000000000000, 0.000000000000000000 ) ) ;
#6 = ADVANCED_FACE ( 'NONE', ( #95 ), #69, .T. ) ;
#7 = CIRCLE ( 'NONE', #13, 0.2500000000000000000 ) ;
#8 = VERTEX_POINT ( 'NONE', #117 ) ;
#9 = CARTESIAN_POINT ( 'NONE',  ( 1.516480271171051896E-32, 2.500000000000000000, 0.000000000000000000 ) ) ;
#10 = DIRECTION ( 'NONE',  ( 0.000000000000000000, 0.000000000000000000, -1.000000000000000000 ) ) ;
#11 = PRODUCT_DEFINITION_SHAPE ( 'NONE', 'NONE',  #175 ) ;
#12 = SURFACE_STYLE_FILL_AREA ( #106 ) ;
#13 = AXIS2_PLACEMENT_3D ( 'NONE', #9, #26, #182 ) ;
#14 =( NAMED_UNIT ( * ) SI_UNIT ( $, .STERADIAN. ) SOLID_ANGLE_UNIT ( ) );
#15 = DIMENSIONAL_EXPONENTS ( 1.000000000000000000, 0.000000000000000000, 0.000000000000000000, 0.000000000000000000, 0.000000000000000000, 0.000000000000000000, 0.000000000000000000 ) ;
#16 = CLOSED_SHELL ( 'NONE', ( #130, #194, #6, #292 ) ) ;
#17 = DIRECTION ( 'NONE',  ( 0.000000000000000000, 0.000000000000000000, -1.000000000000000000 ) ) ;
#18 = AXIS2_PLACEMENT_3D ( 'NONE', #189, #192, #214 ) ;
#19 =( LENGTH_UNIT ( ) NAMED_UNIT ( * ) SI_UNIT ( $, .METRE. ) );
#20 = SURFACE_SIDE_STYLE ('',( #167 ) ) ;
#21 = DIRECTION ( 'NONE',  ( -4.898587196589413075E-17, 1.000000000000000000, -0.000000000000000000 ) ) ;
#22 = ADVANCED_BREP_SHAPE_REPRESENTATION ( '03512', ( #170, #280, #91 ), #162 ) ;
#23 =( CONVERSION_BASED_UNIT ( 'INCH', #53 ) LENGTH_UNIT ( ) NAMED_UNIT ( #184 ) );
#24 =( NAMED_UNIT ( * ) PLANE_ANGLE_UNIT ( ) SI_UNIT ( $, .RADIAN. ) );
#25 = PRESENTATION_LAYER_ASSIGNMENT (  '', '', ( #253 ) ) ;
#26 = DIRECTION ( 'NONE',  ( -4.898587196589413075E-17, 1.000000000000000000, -0.000000000000000000 ) ) ;
#27 = SHAPE_DEFINITION_REPRESENTATION ( #11, #22 ) ;
#28 = VERTEX_POINT ( 'NONE', #210 ) ;
#29 = CARTESIAN_POINT ( 'NONE',  ( -1.224646799147353207E-16, 5.000000000000000000, 0.000000000000000000 ) ) ;
#30 =( GEOMETRIC_REPRESENTATION_CONTEXT ( 3 ) GLOBAL_UNCERTAINTY_ASSIGNED_CONTEXT ( ( #282 ) ) GLOBAL_UNIT_ASSIGNED_CONTEXT ( ( #208, #158, #289 ) ) REPRESENTATION_CONTEXT ( 'NONE', 'WORKASPACE' ) );
#31 = ORIENTED_EDGE ( 'NONE', *, *, #84, .T. ) ;
#32 = CARTESIAN_POINT ( 'NONE',  ( 0.000000000000000000, 2.500000000000000000, 0.000000000000000000 ) ) ;
#33 = COLOUR_RGB ( '',1.000000000000000000, 0.000000000000000000, 0.000000000000000000 ) ;
#34 = ORIENTED_EDGE ( 'NONE', *, *, #84, .F. ) ;
#35 = CYLINDRICAL_SURFACE ( 'NONE', #261, 0.2500000000000000555 ) ;
#36 = EDGE_CURVE ( 'NONE', #302, #279, #265, .T. ) ;
#37 = PRESENTATION_STYLE_ASSIGNMENT (( #284 ) ) ;
#38 = UNCERTAINTY_MEASURE_WITH_UNIT (LENGTH_MEASURE( 1.000000000000000082E-05 ), #166, 'distance_accuracy_value', 'NONE');
#39 = FACE_OUTER_BOUND ( 'NONE', #188, .T. ) ;
#40 = CIRCLE ( 'NONE', #112, 0.2500000000000000000 ) ;
#41 = ORIENTED_EDGE ( 'NONE', *, *, #168, .F. ) ;
#42 = CARTESIAN_POINT ( 'NONE',  ( 3.061616997868383018E-17, 0.000000000000000000, 0.2500000000000000000 ) ) ;
#43 = CARTESIAN_POINT ( 'NONE',  ( 0.2500000000000000555, 5.000000000000000000, 3.061616997868384251E-17 ) ) ;
#44 = EDGE_CURVE ( 'NONE', #8, #183, #212, .T. ) ;
#45 =( NAMED_UNIT ( * ) SI_UNIT ( $, .STERADIAN. ) SOLID_ANGLE_UNIT ( ) );
#46 = DIRECTION ( 'NONE',  ( -0.000000000000000000, -1.000000000000000000, -0.000000000000000000 ) ) ;
#47 = FACE_OUTER_BOUND ( 'NONE', #178, .T. ) ;
#48 = COLOUR_RGB ( '',1.000000000000000000, 0.000000000000000000, 0.000000000000000000 ) ;
#49 = DIRECTION ( 'NONE',  ( 1.000000000000000000, 4.898587196589412459E-17, 0.000000000000000000 ) ) ;
#50 = APPLICATION_PROTOCOL_DEFINITION ( 'draft international standard', 'automotive_design', 1998, #216 ) ;
#51 = EDGE_CURVE ( 'NONE', #8, #28, #242, .T. ) ;
#52 = PRODUCT ( '03512', '03512', '', ( #73 ) ) ;
#53 = LENGTH_MEASURE_WITH_UNIT ( LENGTH_MEASURE( 0.02539999999999999897 ), #113 );
#54 = DIRECTION ( 'NONE',  ( -1.000000000000000000, 0.000000000000000000, 0.000000000000000000 ) ) ;
#55 = ORIENTED_EDGE ( 'NONE', *, *, #36, .T. ) ;
#56 = DIRECTION ( 'NONE',  ( -1.000000000000000000, 0.000000000000000000, 0.000000000000000000 ) ) ;
#57 = DIRECTION ( 'NONE',  ( -4.898587196589413075E-17, 1.000000000000000000, -0.000000000000000000 ) ) ;
#58 = EDGE_LOOP ( 'NONE', ( #299, #169, #236, #252 ) ) ;
#59 = MECHANICAL_DESIGN_GEOMETRIC_PRESENTATION_REPRESENTATION (  '', ( #209 ), #254 ) ;
#60 = DIRECTION ( 'NONE',  ( 0.000000000000000000, 0.000000000000000000, -1.000000000000000000 ) ) ;
#61 = DIRECTION ( 'NONE',  ( -1.000000000000000000, 0.000000000000000000, 0.000000000000000000 ) ) ;
#62 = CARTESIAN_POINT ( 'NONE',  ( 0.000000000000000000, 2.500000000000000000, 0.000000000000000000 ) ) ;
#63 = ORIENTED_EDGE ( 'NONE', *, *, #83, .T. ) ;
#64 = LENGTH_MEASURE_WITH_UNIT ( LENGTH_MEASURE( 0.02539999999999999897 ), #264 );
#65 = CIRCLE ( 'NONE', #201, 0.2500000000000001110 ) ;
#66 = PLANE ( 'NONE',  #250 ) ;
#67 = DIRECTION ( 'NONE',  ( -1.000000000000000000, 0.000000000000000000, 0.000000000000000000 ) ) ;
#68 = UNCERTAINTY_MEASURE_WITH_UNIT (LENGTH_MEASURE( 1.000000000000000082E-05 ), #138, 'distance_accuracy_value', 'NONE');
#69 = CYLINDRICAL_SURFACE ( 'NONE', #134, 0.2500000000000000000 ) ;
#70 = LENGTH_MEASURE_WITH_UNIT ( LENGTH_MEASURE( 0.02539999999999999897 ), #237 );
#71 = CARTESIAN_POINT ( 'NONE',  ( 3.061616997868383018E-17, 2.500000000000000000, 0.2500000000000000000 ) ) ;
#72 = PRESENTATION_LAYER_ASSIGNMENT (  '', '', ( #281 ) ) ;
#73 = PRODUCT_CONTEXT ( 'NONE', #241, 'mechanical' ) ;
#74 = FACE_OUTER_BOUND ( 'NONE', #238, .T. ) ;
#75 = UNCERTAINTY_MEASURE_WITH_UNIT (LENGTH_MEASURE( 1.000000000000000082E-05 ), #164, 'distance_accuracy_value', 'NONE');
#76 = PRESENTATION_STYLE_ASSIGNMENT (( #121 ) ) ;
#77 = FILL_AREA_STYLE_COLOUR ( '', #173 ) ;
#78 = MECHANICAL_DESIGN_GEOMETRIC_PRESENTATION_REPRESENTATION (  '', ( #114 ), #157 ) ;
#79 =( LENGTH_UNIT ( ) NAMED_UNIT ( * ) SI_UNIT ( $, .METRE. ) );
#80 = CARTESIAN_POINT ( 'NONE',  ( -0.2500000000000002220, 5.000000000000000000, 0.000000000000000000 ) ) ;
#81 = ORIENTED_EDGE ( 'NONE', *, *, #116, .T. ) ;
#82 = DIRECTION ( 'NONE',  ( -0.000000000000000000, -1.000000000000000000, -0.000000000000000000 ) ) ;
#83 = EDGE_CURVE ( 'NONE', #183, #151, #298, .T. ) ;
#84 = EDGE_CURVE ( 'NONE', #283, #279, #177, .T. ) ;
#85 = STYLED_ITEM ( 'NONE', ( #247 ), #280 ) ;
#86 =( NAMED_UNIT ( * ) PLANE_ANGLE_UNIT ( ) SI_UNIT ( $, .RADIAN. ) );
#87 = DIMENSIONAL_EXPONENTS ( 1.000000000000000000, 0.000000000000000000, 0.000000000000000000, 0.000000000000000000, 0.000000000000000000, 0.000000000000000000, 0.000000000000000000 ) ;
#88 = VERTEX_POINT ( 'NONE', #108 ) ;
#89 = DIMENSIONAL_EXPONENTS ( 1.000000000000000000, 0.000000000000000000, 0.000000000000000000, 0.000000000000000000, 0.000000000000000000, 0.000000000000000000, 0.000000000000000000 ) ;
#90 = ORIENTED_EDGE ( 'NONE', *, *, #168, .T. ) ;
#91 = AXIS2_PLACEMENT_3D ( 'NONE', #127, #101, #5 ) ;
#92 =( GEOMETRIC_REPRESENTATION_CONTEXT ( 3 ) GLOBAL_UNCERTAINTY_ASSIGNED_CONTEXT ( ( #163 ) ) GLOBAL_UNIT_ASSIGNED_CONTEXT ( ( #23, #285, #14 ) ) REPRESENTATION_CONTEXT ( 'NONE', 'WORKASPACE' ) );
#93 = DIRECTION ( 'NONE',  ( 0.000000000000000000, 0.000000000000000000, -1.000000000000000000 ) ) ;
#94 = EDGE_CURVE ( 'NONE', #151, #28, #276, .T. ) ;
#95 = FACE_OUTER_BOUND ( 'NONE', #58, .T. ) ;
#96 = AXIS2_PLACEMENT_3D ( 'NONE', #176, #82, #271 ) ;
#97 = DIRECTION ( 'NONE',  ( -1.000000000000000000, -4.898587196589412459E-17, 0.000000000000000000 ) ) ;
#98 = EDGE_LOOP ( 'NONE', ( #122, #63, #139, #243 ) ) ;
#99 = CARTESIAN_POINT ( 'NONE',  ( 3.061616997868383018E-17, 0.000000000000000000, 0.2500000000000000000 ) ) ;
#100 = SURFACE_SIDE_STYLE ('',( #137 ) ) ;
#101 = DIRECTION ( 'NONE',  ( 0.000000000000000000, 0.000000000000000000, 1.000000000000000000 ) ) ;
#102 = COLOUR_RGB ( '',0.7921568627450980005, 0.8196078431372548767, 0.9333333333333333481 ) ;
#103 = CARTESIAN_POINT ( 'NONE',  ( -1.224646799147353207E-16, 5.000000000000000000, 0.000000000000000000 ) ) ;
#104 = ORIENTED_EDGE ( 'NONE', *, *, #246, .T. ) ;
#105 = DIRECTION ( 'NONE',  ( 0.000000000000000000, 1.000000000000000000, 0.000000000000000000 ) ) ;
#106 = FILL_AREA_STYLE ('',( #269 ) ) ;
#107 = EDGE_CURVE ( 'NONE', #279, #302, #65, .T. ) ;
#108 = CARTESIAN_POINT ( 'NONE',  ( 0.2500000000000000555, 2.500000000000000000, 3.061616997868384251E-17 ) ) ;
#109 = PLANE ( 'NONE',  #124 ) ;
#110 = DIMENSIONAL_EXPONENTS ( 1.000000000000000000, 0.000000000000000000, 0.000000000000000000, 0.000000000000000000, 0.000000000000000000, 0.000000000000000000, 0.000000000000000000 ) ;
#111 = MECHANICAL_DESIGN_GEOMETRIC_PRESENTATION_REPRESENTATION (  '', ( #253 ), #227 ) ;
#112 = AXIS2_PLACEMENT_3D ( 'NONE', #32, #224, #10 ) ;
#113 =( LENGTH_UNIT ( ) NAMED_UNIT ( * ) SI_UNIT ( $, .METRE. ) );
#114 = STYLED_ITEM ( 'NONE', ( #76 ), #130 ) ;
#115 = FILL_AREA_STYLE ('',( #153 ) ) ;
#116 = EDGE_CURVE ( 'NONE', #28, #151, #228, .T. ) ;
#117 = CARTESIAN_POINT ( 'NONE',  ( 0.000000000000000000, 2.500000000000000000, -0.2500000000000000000 ) ) ;
#118 = VECTOR ( 'NONE', #203, 39.37007874015748143 ) ;
#119 = VECTOR ( 'NONE', #239, 39.37007874015748143 ) ;
#120 = FILL_AREA_STYLE ('',( #233 ) ) ;
#121 = SURFACE_STYLE_USAGE ( .BOTH. , #20 ) ;
#122 = ORIENTED_EDGE ( 'NONE', *, *, #44, .T. ) ;
#123 = FACE_OUTER_BOUND ( 'NONE', #187, .T. ) ;
#124 = AXIS2_PLACEMENT_3D ( 'NONE', #131, #206, #60 ) ;
#125 =( NAMED_UNIT ( * ) SI_UNIT ( $, .STERADIAN. ) SOLID_ANGLE_UNIT ( ) );
#126 = SURFACE_STYLE_FILL_AREA ( #267 ) ;
#127 = CARTESIAN_POINT ( 'NONE',  ( 0.000000000000000000, 0.000000000000000000, 0.000000000000000000 ) ) ;
#128 = DIRECTION ( 'NONE',  ( -0.000000000000000000, -1.000000000000000000, -0.000000000000000000 ) ) ;
#129 = COLOUR_RGB ( '',1.000000000000000000, 0.000000000000000000, 0.000000000000000000 ) ;
#130 = ADVANCED_FACE ( 'NONE', ( #2 ), #211, .T. ) ;
#131 = CARTESIAN_POINT ( 'NONE',  ( 0.000000000000000000, 0.000000000000000000, 0.000000000000000000 ) ) ;
#132 = DIRECTION ( 'NONE',  ( 0.000000000000000000, -0.000000000000000000, 1.000000000000000000 ) ) ;
#133 = SURFACE_STYLE_FILL_AREA ( #159 ) ;
#134 = AXIS2_PLACEMENT_3D ( 'NONE', #257, #46, #17 ) ;
#135 = STYLED_ITEM ( 'NONE', ( #297 ), #194 ) ;
#136 = ADVANCED_FACE ( 'NONE', ( #123 ), #66, .F. ) ;
#137 = SURFACE_STYLE_FILL_AREA ( #115 ) ;
#138 =( CONVERSION_BASED_UNIT ( 'INCH', #64 ) LENGTH_UNIT ( ) NAMED_UNIT ( #87 ) );
#139 = ORIENTED_EDGE ( 'NONE', *, *, #116, .F. ) ;
#140 = AXIS2_PLACEMENT_3D ( 'NONE', #235, #305, #190 ) ;
#141 = PRODUCT_DEFINITION_FORMATION_WITH_SPECIFIED_SOURCE ( 'ANY', '', #52, .NOT_KNOWN. ) ;
#142 =( NAMED_UNIT ( * ) PLANE_ANGLE_UNIT ( ) SI_UNIT ( $, .RADIAN. ) );
#143 = MECHANICAL_DESIGN_GEOMETRIC_PRESENTATION_REPRESENTATION (  '', ( #281 ), #92 ) ;
#144 = UNCERTAINTY_MEASURE_WITH_UNIT (LENGTH_MEASURE( 1.000000000000000082E-05 ), #191, 'distance_accuracy_value', 'NONE');
#145 = CYLINDRICAL_SURFACE ( 'NONE', #140, 0.2500000000000000555 ) ;
#146 = PRODUCT_DEFINITION_CONTEXT ( 'detailed design', #216, 'design' ) ;
#147 = MECHANICAL_DESIGN_GEOMETRIC_PRESENTATION_REPRESENTATION (  '', ( #85 ), #30 ) ;
#148 = LINE ( 'NONE', #296, #119 ) ;
#149 = ORIENTED_EDGE ( 'NONE', *, *, #36, .F. ) ;
#150 = PRESENTATION_LAYER_ASSIGNMENT (  '', '', ( #135 ) ) ;
#151 = VERTEX_POINT ( 'NONE', #42 ) ;
#152 = SURFACE_SIDE_STYLE ('',( #171 ) ) ;
#153 = FILL_AREA_STYLE_COLOUR ( '', #48 ) ;
#154 = SURFACE_SIDE_STYLE ('',( #133 ) ) ;
#155 = EDGE_LOOP ( 'NONE', ( #220, #55 ) ) ;
#156 =( NAMED_UNIT ( * ) PLANE_ANGLE_UNIT ( ) SI_UNIT ( $, .RADIAN. ) );
#157 =( GEOMETRIC_REPRESENTATION_CONTEXT ( 3 ) GLOBAL_UNCERTAINTY_ASSIGNED_CONTEXT ( ( #144 ) ) GLOBAL_UNIT_ASSIGNED_CONTEXT ( ( #191, #24, #125 ) ) REPRESENTATION_CONTEXT ( 'NONE', 'WORKASPACE' ) );
#158 =( NAMED_UNIT ( * ) PLANE_ANGLE_UNIT ( ) SI_UNIT ( $, .RADIAN. ) );
#159 = FILL_AREA_STYLE ('',( #255 ) ) ;
#160 = EDGE_LOOP ( 'NONE', ( #104, #307, #204, #34 ) ) ;
#161 = ADVANCED_FACE ( 'NONE', ( #39 ), #145, .T. ) ;
#162 =( GEOMETRIC_REPRESENTATION_CONTEXT ( 3 ) GLOBAL_UNCERTAINTY_ASSIGNED_CONTEXT ( ( #75 ) ) GLOBAL_UNIT_ASSIGNED_CONTEXT ( ( #164, #156, #45 ) ) REPRESENTATION_CONTEXT ( 'NONE', 'WORKASPACE' ) );
#163 = UNCERTAINTY_MEASURE_WITH_UNIT (LENGTH_MEASURE( 1.000000000000000082E-05 ), #23, 'distance_accuracy_value', 'NONE');
#164 =( CONVERSION_BASED_UNIT ( 'INCH', #232 ) LENGTH_UNIT ( ) NAMED_UNIT ( #110 ) );
#165 = CARTESIAN_POINT ( 'NONE',  ( 0.000000000000000000, 0.000000000000000000, 0.000000000000000000 ) ) ;
#166 =( CONVERSION_BASED_UNIT ( 'INCH', #308 ) LENGTH_UNIT ( ) NAMED_UNIT ( #207 ) );
#167 = SURFACE_STYLE_FILL_AREA ( #120 ) ;
#168 = EDGE_CURVE ( 'NONE', #88, #283, #231, .T. ) ;
#169 = ORIENTED_EDGE ( 'NONE', *, *, #258, .T. ) ;
#170 = MANIFOLD_SOLID_BREP ( 'Revolve - Cutting Edge', #16 ) ;
#171 = SURFACE_STYLE_FILL_AREA ( #278 ) ;
#172 = AXIS2_PLACEMENT_3D ( 'NONE', #29, #57, #61 ) ;
#173 = COLOUR_RGB ( '',0.7921568627450980005, 0.8196078431372548767, 0.9333333333333333481 ) ;
#174 = CARTESIAN_POINT ( 'NONE',  ( 0.000000000000000000, 2.500000000000000000, 0.000000000000000000 ) ) ;
#175 = PRODUCT_DEFINITION ( 'UNKNOWN', '', #141, #146 ) ;
#176 = CARTESIAN_POINT ( 'NONE',  ( 0.000000000000000000, 0.000000000000000000, 0.000000000000000000 ) ) ;
#177 = LINE ( 'NONE', #80, #295 ) ;
#178 = EDGE_LOOP ( 'NONE', ( #81, #229 ) ) ;
#179 = COLOUR_RGB ( '',1.000000000000000000, 0.000000000000000000, 0.000000000000000000 ) ;
#180 = CARTESIAN_POINT ( 'NONE',  ( -1.224646799147353207E-16, 5.000000000000000000, 0.000000000000000000 ) ) ;
#181 = AXIS2_PLACEMENT_3D ( 'NONE', #62, #105, #132 ) ;
#182 = DIRECTION ( 'NONE',  ( -1.000000000000000000, 0.000000000000000000, 0.000000000000000000 ) ) ;
#183 = VERTEX_POINT ( 'NONE', #71 ) ;
#184 = DIMENSIONAL_EXPONENTS ( 1.000000000000000000, 0.000000000000000000, 0.000000000000000000, 0.000000000000000000, 0.000000000000000000, 0.000000000000000000, 0.000000000000000000 ) ;
#185 = LENGTH_MEASURE_WITH_UNIT ( LENGTH_MEASURE( 0.02539999999999999897 ), #79 );
#186 = AXIS2_PLACEMENT_3D ( 'NONE', #287, #21, #67 ) ;
#187 = EDGE_LOOP ( 'NONE', ( #301, #41 ) ) ;
#188 = EDGE_LOOP ( 'NONE', ( #213, #90, #31, #149 ) ) ;
#189 = CARTESIAN_POINT ( 'NONE',  ( 0.000000000000000000, 0.000000000000000000, 0.000000000000000000 ) ) ;
#190 = DIRECTION ( 'NONE',  ( -1.000000000000000000, 0.000000000000000000, 0.000000000000000000 ) ) ;
#191 =( CONVERSION_BASED_UNIT ( 'INCH', #70 ) LENGTH_UNIT ( ) NAMED_UNIT ( #15 ) );
#192 = DIRECTION ( 'NONE',  ( -0.000000000000000000, -1.000000000000000000, -0.000000000000000000 ) ) ;
#193 = PRESENTATION_LAYER_ASSIGNMENT (  '', '', ( #209 ) ) ;
#194 = ADVANCED_FACE ( 'NONE', ( #74 ), #262, .T. ) ;
#195 = UNCERTAINTY_MEASURE_WITH_UNIT (LENGTH_MEASURE( 1.000000000000000082E-05 ), #225, 'distance_accuracy_value', 'NONE');
#196 = FILL_AREA_STYLE_COLOUR ( '', #179 ) ;
#197 = APPLICATION_PROTOCOL_DEFINITION ( 'draft international standard', 'automotive_design', 1998, #241 ) ;
#198 = SURFACE_SIDE_STYLE ('',( #126 ) ) ;
#199 =( LENGTH_UNIT ( ) NAMED_UNIT ( * ) SI_UNIT ( $, .METRE. ) );
#200 = ADVANCED_FACE ( 'NONE', ( #300 ), #218, .F. ) ;
#201 = AXIS2_PLACEMENT_3D ( 'NONE', #180, #291, #54 ) ;
#202 = CARTESIAN_POINT ( 'NONE',  ( 0.2500000000000000000, 5.000000000000000000, 0.000000000000000000 ) ) ;
#203 = DIRECTION ( 'NONE',  ( -0.000000000000000000, -1.000000000000000000, -0.000000000000000000 ) ) ;
#204 = ORIENTED_EDGE ( 'NONE', *, *, #107, .F. ) ;
#205 = CARTESIAN_POINT ( 'NONE',  ( -0.2500000000000002776, 5.000000000000000000, 0.000000000000000000 ) ) ;
#206 = DIRECTION ( 'NONE',  ( 0.000000000000000000, -1.000000000000000000, -0.000000000000000000 ) ) ;
#207 = DIMENSIONAL_EXPONENTS ( 1.000000000000000000, 0.000000000000000000, 0.000000000000000000, 0.000000000000000000, 0.000000000000000000, 0.000000000000000000, 0.000000000000000000 ) ;
#208 =( CONVERSION_BASED_UNIT ( 'INCH', #256 ) LENGTH_UNIT ( ) NAMED_UNIT ( #89 ) );
#209 = STYLED_ITEM ( 'NONE', ( #37 ), #292 ) ;
#210 = CARTESIAN_POINT ( 'NONE',  ( 0.000000000000000000, 0.000000000000000000, -0.2500000000000000000 ) ) ;
#211 = CYLINDRICAL_SURFACE ( 'NONE', #18, 0.2500000000000000000 ) ;
#212 = CIRCLE ( 'NONE', #249, 0.2500000000000000000 ) ;
#213 = ORIENTED_EDGE ( 'NONE', *, *, #234, .F. ) ;
#214 = DIRECTION ( 'NONE',  ( 0.000000000000000000, 0.000000000000000000, -1.000000000000000000 ) ) ;
#215 =( NAMED_UNIT ( * ) SI_UNIT ( $, .STERADIAN. ) SOLID_ANGLE_UNIT ( ) );
#216 = APPLICATION_CONTEXT ( 'automotive_design' ) ;
#217 = DIRECTION ( 'NONE',  ( -0.000000000000000000, -1.000000000000000000, -0.000000000000000000 ) ) ;
#218 = PLANE ( 'NONE',  #260 ) ;
#219 = PRESENTATION_LAYER_ASSIGNMENT (  '', '', ( #85 ) ) ;
#220 = ORIENTED_EDGE ( 'NONE', *, *, #107, .T. ) ;
#221 = DIRECTION ( 'NONE',  ( 4.898587196589412459E-17, -1.000000000000000000, 0.000000000000000000 ) ) ;
#222 =( LENGTH_UNIT ( ) NAMED_UNIT ( * ) SI_UNIT ( $, .METRE. ) );
#223 = FACE_OUTER_BOUND ( 'NONE', #160, .T. ) ;
#224 = DIRECTION ( 'NONE',  ( -0.000000000000000000, -1.000000000000000000, -0.000000000000000000 ) ) ;
#225 =( CONVERSION_BASED_UNIT ( 'INCH', #185 ) LENGTH_UNIT ( ) NAMED_UNIT ( #304 ) );
#226 = SURFACE_STYLE_USAGE ( .BOTH. , #154 ) ;
#227 =( GEOMETRIC_REPRESENTATION_CONTEXT ( 3 ) GLOBAL_UNCERTAINTY_ASSIGNED_CONTEXT ( ( #38 ) ) GLOBAL_UNIT_ASSIGNED_CONTEXT ( ( #166, #142, #215 ) ) REPRESENTATION_CONTEXT ( 'NONE', 'WORKASPACE' ) );
#228 = CIRCLE ( 'NONE', #266, 0.2500000000000000000 ) ;
#229 = ORIENTED_EDGE ( 'NONE', *, *, #94, .T. ) ;
#230 =( NAMED_UNIT ( * ) PLANE_ANGLE_UNIT ( ) SI_UNIT ( $, .RADIAN. ) );
#231 = CIRCLE ( 'NONE', #186, 0.2500000000000000000 ) ;
#232 = LENGTH_MEASURE_WITH_UNIT ( LENGTH_MEASURE( 0.02539999999999999897 ), #19 );
#233 = FILL_AREA_STYLE_COLOUR ( '', #129 ) ;
#234 = EDGE_CURVE ( 'NONE', #88, #302, #148, .T. ) ;
#235 = CARTESIAN_POINT ( 'NONE',  ( -1.224646799147353207E-16, 5.000000000000000000, 0.000000000000000000 ) ) ;
#236 = ORIENTED_EDGE ( 'NONE', *, *, #51, .T. ) ;
#237 =( LENGTH_UNIT ( ) NAMED_UNIT ( * ) SI_UNIT ( $, .METRE. ) );
#238 = EDGE_LOOP ( 'NONE', ( #273, #3 ) ) ;
#239 = DIRECTION ( 'NONE',  ( -4.898587196589412459E-17, 1.000000000000000000, -0.000000000000000000 ) ) ;
#240 = PRESENTATION_STYLE_ASSIGNMENT (( #293 ) ) ;
#241 = APPLICATION_CONTEXT ( 'automotive_design' ) ;
#242 = LINE ( 'NONE', #277, #118 ) ;
#243 = ORIENTED_EDGE ( 'NONE', *, *, #51, .F. ) ;
#244 = DIRECTION ( 'NONE',  ( 0.000000000000000000, 0.000000000000000000, -1.000000000000000000 ) ) ;
#245 =( NAMED_UNIT ( * ) SI_UNIT ( $, .STERADIAN. ) SOLID_ANGLE_UNIT ( ) );
#246 = EDGE_CURVE ( 'NONE', #283, #88, #7, .T. ) ;
#247 = PRESENTATION_STYLE_ASSIGNMENT (( #268 ) ) ;
#248 = SURFACE_SIDE_STYLE ('',( #12 ) ) ;
#249 = AXIS2_PLACEMENT_3D ( 'NONE', #174, #128, #244 ) ;
#250 = AXIS2_PLACEMENT_3D ( 'NONE', #288, #1, #97 ) ;
#251 = PRESENTATION_STYLE_ASSIGNMENT (( #226 ) ) ;
#252 = ORIENTED_EDGE ( 'NONE', *, *, #94, .F. ) ;
#253 = STYLED_ITEM ( 'NONE', ( #240 ), #6 ) ;
#254 =( GEOMETRIC_REPRESENTATION_CONTEXT ( 3 ) GLOBAL_UNCERTAINTY_ASSIGNED_CONTEXT ( ( #68 ) ) GLOBAL_UNIT_ASSIGNED_CONTEXT ( ( #138, #230, #270 ) ) REPRESENTATION_CONTEXT ( 'NONE', 'WORKASPACE' ) );
#255 = FILL_AREA_STYLE_COLOUR ( '', #102 ) ;
#256 = LENGTH_MEASURE_WITH_UNIT ( LENGTH_MEASURE( 0.02539999999999999897 ), #199 );
#257 = CARTESIAN_POINT ( 'NONE',  ( 0.000000000000000000, 0.000000000000000000, 0.000000000000000000 ) ) ;
#258 = EDGE_CURVE ( 'NONE', #183, #8, #40, .T. ) ;
#259 = PRESENTATION_LAYER_ASSIGNMENT (  '', '', ( #114 ) ) ;
#260 = AXIS2_PLACEMENT_3D ( 'NONE', #202, #221, #49 ) ;
#261 = AXIS2_PLACEMENT_3D ( 'NONE', #103, #4, #56 ) ;
#262 = PLANE ( 'NONE',  #181 ) ;
#263 = CARTESIAN_POINT ( 'NONE',  ( -0.2500000000000000000, 2.500000000000000000, 0.000000000000000000 ) ) ;
#264 =( LENGTH_UNIT ( ) NAMED_UNIT ( * ) SI_UNIT ( $, .METRE. ) );
#265 = CIRCLE ( 'NONE', #172, 0.2500000000000001110 ) ;
#266 = AXIS2_PLACEMENT_3D ( 'NONE', #165, #290, #93 ) ;
#267 = FILL_AREA_STYLE ('',( #196 ) ) ;
#268 = SURFACE_STYLE_USAGE ( .BOTH. , #152 ) ;
#269 = FILL_AREA_STYLE_COLOUR ( '', #33 ) ;
#270 =( NAMED_UNIT ( * ) SI_UNIT ( $, .STERADIAN. ) SOLID_ANGLE_UNIT ( ) );
#271 = DIRECTION ( 'NONE',  ( 0.000000000000000000, 0.000000000000000000, -1.000000000000000000 ) ) ;
#272 = DIRECTION ( 'NONE',  ( -4.898587196589412459E-17, 1.000000000000000000, -0.000000000000000000 ) ) ;
#273 = ORIENTED_EDGE ( 'NONE', *, *, #44, .F. ) ;
#274 = CLOSED_SHELL ( 'NONE', ( #306, #136, #161, #200 ) ) ;
#275 = SURFACE_STYLE_USAGE ( .BOTH. , #248 ) ;
#276 = CIRCLE ( 'NONE', #96, 0.2500000000000000000 ) ;
#277 = CARTESIAN_POINT ( 'NONE',  ( 0.000000000000000000, 0.000000000000000000, -0.2500000000000000000 ) ) ;
#278 = FILL_AREA_STYLE ('',( #77 ) ) ;
#279 = VERTEX_POINT ( 'NONE', #205 ) ;
#280 = MANIFOLD_SOLID_BREP ( 'Revolve - Tool Body (Straight Shanked)', #274 ) ;
#281 = STYLED_ITEM ( 'NONE', ( #251 ), #170 ) ;
#282 = UNCERTAINTY_MEASURE_WITH_UNIT (LENGTH_MEASURE( 1.000000000000000082E-05 ), #208, 'distance_accuracy_value', 'NONE');
#283 = VERTEX_POINT ( 'NONE', #263 ) ;
#284 = SURFACE_STYLE_USAGE ( .BOTH. , #100 ) ;
#285 =( NAMED_UNIT ( * ) PLANE_ANGLE_UNIT ( ) SI_UNIT ( $, .RADIAN. ) );
#286 =( GEOMETRIC_REPRESENTATION_CONTEXT ( 3 ) GLOBAL_UNCERTAINTY_ASSIGNED_CONTEXT ( ( #195 ) ) GLOBAL_UNIT_ASSIGNED_CONTEXT ( ( #225, #86, #245 ) ) REPRESENTATION_CONTEXT ( 'NONE', 'WORKASPACE' ) );
#287 = CARTESIAN_POINT ( 'NONE',  ( 1.516480271171051896E-32, 2.500000000000000000, 0.000000000000000000 ) ) ;
#288 = CARTESIAN_POINT ( 'NONE',  ( 2.999519565323715729E-34, 2.500000000000000000, 0.000000000000000000 ) ) ;
#289 =( NAMED_UNIT ( * ) SI_UNIT ( $, .STERADIAN. ) SOLID_ANGLE_UNIT ( ) );
#290 = DIRECTION ( 'NONE',  ( -0.000000000000000000, -1.000000000000000000, -0.000000000000000000 ) ) ;
#291 = DIRECTION ( 'NONE',  ( -4.898587196589413075E-17, 1.000000000000000000, -0.000000000000000000 ) ) ;
#292 = ADVANCED_FACE ( 'NONE', ( #47 ), #109, .T. ) ;
#293 = SURFACE_STYLE_USAGE ( .BOTH. , #198 ) ;
#294 = VECTOR ( 'NONE', #217, 39.37007874015748143 ) ;
#295 = VECTOR ( 'NONE', #272, 39.37007874015748143 ) ;
#296 = CARTESIAN_POINT ( 'NONE',  ( 0.2499999999999999167, 5.000000000000000000, 3.061616997868383634E-17 ) ) ;
#297 = PRESENTATION_STYLE_ASSIGNMENT (( #275 ) ) ;
#298 = LINE ( 'NONE', #99, #294 ) ;
#299 = ORIENTED_EDGE ( 'NONE', *, *, #83, .F. ) ;
#300 = FACE_OUTER_BOUND ( 'NONE', #155, .T. ) ;
#301 = ORIENTED_EDGE ( 'NONE', *, *, #246, .F. ) ;
#302 = VERTEX_POINT ( 'NONE', #43 ) ;
#303 = MECHANICAL_DESIGN_GEOMETRIC_PRESENTATION_REPRESENTATION (  '', ( #135 ), #286 ) ;
#304 = DIMENSIONAL_EXPONENTS ( 1.000000000000000000, 0.000000000000000000, 0.000000000000000000, 0.000000000000000000, 0.000000000000000000, 0.000000000000000000, 0.000000000000000000 ) ;
#305 = DIRECTION ( 'NONE',  ( -4.898587196589413075E-17, 1.000000000000000000, -0.000000000000000000 ) ) ;
#306 = ADVANCED_FACE ( 'NONE', ( #223 ), #35, .T. ) ;
#307 = ORIENTED_EDGE ( 'NONE', *, *, #234, .T. ) ;
#308 = LENGTH_MEASURE_WITH_UNIT ( LENGTH_MEASURE( 0.02539999999999999897 ), #222 );
#309 = PRODUCT_RELATED_PRODUCT_CATEGORY ( 'part', '', ( #52 ) ) ;
ENDSEC;
END-ISO-10303-21;
