ISO-10303-21;
HEADER;
FILE_DESCRIPTION (( 'STEP AP214' ),
    '1' );
FILE_NAME ('Micro_SFPM-050-70.STEP',
    '2021-09-02T07:16:57',
    ( '' ),
    ( '' ),
    'SwSTEP 2.0',
    'SolidWorks 2020',
    '' );
FILE_SCHEMA (( 'AUTOMOTIVE_DESIGN' ));
ENDSEC;

DATA;
#1 = FACE_OUTER_BOUND ( 'NONE', #75, .T. ) ;
#2 = CIRCLE ( 'NONE', #17, 0.09832657499999998552 ) ;
#3 = DIRECTION ( 'NONE',  ( -1.224646799147353207E-16, -0.0000000000000000000, -1.000000000000000000 ) ) ;
#4 = UNCERTAINTY_MEASURE_WITH_UNIT (LENGTH_MEASURE( 1.000000000000000082E-05 ), #130, 'distance_accuracy_value', 'NONE');
#5 = FACE_OUTER_BOUND ( 'NONE', #125, .T. ) ;
#6 = ORIENTED_EDGE ( 'NONE', *, *, #48, .T. ) ;
#7 = DIMENSIONAL_EXPONENTS ( 1.000000000000000000, 0.0000000000000000000, 0.0000000000000000000, 0.0000000000000000000, 0.0000000000000000000, 0.0000000000000000000, 0.0000000000000000000 ) ;
#8 = LENGTH_MEASURE_WITH_UNIT ( LENGTH_MEASURE( 0.02539999999999999897 ), #287 );
#9 = EDGE_LOOP ( 'NONE', ( #26, #6 ) ) ;
#10 = EDGE_CURVE ( 'NONE', #33, #71, #37, .T. ) ;
#11 = AXIS2_PLACEMENT_3D ( 'NONE', #234, #299, #182 ) ;
#12 = ORIENTED_EDGE ( 'NONE', *, *, #85, .F. ) ;
#13 = SURFACE_SIDE_STYLE ('',( #261 ) ) ;
#14 = DIRECTION ( 'NONE',  ( 1.000000000000000000, 0.0000000000000000000, -0.0000000000000000000 ) ) ;
#15 = DIRECTION ( 'NONE',  ( 0.0000000000000000000, 0.0000000000000000000, -1.000000000000000000 ) ) ;
#16 =( LENGTH_UNIT ( ) NAMED_UNIT ( * ) SI_UNIT ( $, .METRE. ) );
#17 = AXIS2_PLACEMENT_3D ( 'NONE', #104, #246, #220 ) ;
#18 = AXIS2_PLACEMENT_3D ( 'NONE', #64, #173, #296 ) ;
#19 = DIRECTION ( 'NONE',  ( -0.7071067811865563435, 0.0000000000000000000, -0.7071067811865386910 ) ) ;
#20 = CARTESIAN_POINT ( 'NONE',  ( 0.09832657500000009654, 0.0000000000000000000, 0.7874019999999999353 ) ) ;
#21 = PRODUCT_RELATED_PRODUCT_CATEGORY ( 'part', '', ( #285 ) ) ;
#22 = DIRECTION ( 'NONE',  ( -1.000000000000000000, 0.0000000000000000000, 1.224646799147353207E-16 ) ) ;
#23 = DIRECTION ( 'NONE',  ( 1.000000000000000000, 0.0000000000000000000, 0.0000000000000000000 ) ) ;
#24 = CARTESIAN_POINT ( 'NONE',  ( 0.0000000000000000000, 0.0000000000000000000, 3.740156999999999954 ) ) ;
#25 = CARTESIAN_POINT ( 'NONE',  ( 0.1574804999999999955, 1.928579902531247412E-17, 3.740156999999999954 ) ) ;
#26 = ORIENTED_EDGE ( 'NONE', *, *, #231, .T. ) ;
#27 = VECTOR ( 'NONE', #230, 39.37007874015748143 ) ;
#28 = EDGE_LOOP ( 'NONE', ( #286, #191, #236, #216 ) ) ;
#29 = EDGE_LOOP ( 'NONE', ( #258, #128, #162, #79 ) ) ;
#30 = CARTESIAN_POINT ( 'NONE',  ( 0.0000000000000000000, 0.0000000000000000000, 0.0000000000000000000 ) ) ;
#31 = CARTESIAN_POINT ( 'NONE',  ( 1.375132107401052622E-16, 0.0000000000000000000, 1.122880579411527524 ) ) ;
#32 = AXIS2_PLACEMENT_3D ( 'NONE', #31, #3, #86 ) ;
#33 = VERTEX_POINT ( 'NONE', #225 ) ;
#34 = ADVANCED_FACE ( 'NONE', ( #109 ), #171, .F. ) ;
#35 = DIRECTION ( 'NONE',  ( 0.0000000000000000000, 0.0000000000000000000, 1.000000000000000000 ) ) ;
#36 = CARTESIAN_POINT ( 'NONE',  ( -0.1424804999999998989, 0.0000000000000000000, 3.740156999999999954 ) ) ;
#37 = CIRCLE ( 'NONE', #32, 0.1574804999999999955 ) ;
#38 = AXIS2_PLACEMENT_3D ( 'NONE', #268, #183, #23 ) ;
#39 = LINE ( 'NONE', #36, #111 ) ;
#40 = DIRECTION ( 'NONE',  ( 1.000000000000000000, 0.0000000000000000000, 0.0000000000000000000 ) ) ;
#41 = EDGE_CURVE ( 'NONE', #168, #283, #290, .T. ) ;
#42 = CARTESIAN_POINT ( 'NONE',  ( -0.09832657499999988837, 1.204153253448721512E-17, 0.7874019999999999353 ) ) ;
#43 =( LENGTH_UNIT ( ) NAMED_UNIT ( * ) SI_UNIT ( $, .METRE. ) );
#44 = CIRCLE ( 'NONE', #201, 0.09832657499999998552 ) ;
#45 = STYLED_ITEM ( 'NONE', ( #172 ), #205 ) ;
#46 = LINE ( 'NONE', #25, #27 ) ;
#47 = CARTESIAN_POINT ( 'NONE',  ( 0.09832657499999998552, 1.204153253448721512E-17, 0.0000000000000000000 ) ) ;
#48 = EDGE_CURVE ( 'NONE', #188, #187, #2, .T. ) ;
#49 = ORIENTED_EDGE ( 'NONE', *, *, #41, .F. ) ;
#50 = CARTESIAN_POINT ( 'NONE',  ( 0.0000000000000000000, 0.0000000000000000000, 3.740156999999999954 ) ) ;
#51 = EDGE_LOOP ( 'NONE', ( #190, #145, #256, #149 ) ) ;
#52 = VECTOR ( 'NONE', #129, 39.37007874015747433 ) ;
#53 = AXIS2_PLACEMENT_3D ( 'NONE', #204, #115, #22 ) ;
#54 = DIRECTION ( 'NONE',  ( 1.000000000000000000, 0.0000000000000000000, 0.0000000000000000000 ) ) ;
#55 = ORIENTED_EDGE ( 'NONE', *, *, #167, .F. ) ;
#56 = ORIENTED_EDGE ( 'NONE', *, *, #10, .F. ) ;
#57 = EDGE_LOOP ( 'NONE', ( #101, #260, #210, #56 ) ) ;
#58 =( NAMED_UNIT ( * ) PLANE_ANGLE_UNIT ( ) SI_UNIT ( $, .RADIAN. ) );
#59 = CIRCLE ( 'NONE', #138, 0.09832657499999998552 ) ;
#60 = DIRECTION ( 'NONE',  ( -1.224646799147353207E-16, -0.0000000000000000000, -1.000000000000000000 ) ) ;
#61 = DIRECTION ( 'NONE',  ( -1.224646799147353207E-16, -0.0000000000000000000, -1.000000000000000000 ) ) ;
#62 = DIRECTION ( 'NONE',  ( -1.224646799147353207E-16, -0.0000000000000000000, -1.000000000000000000 ) ) ;
#63 = CIRCLE ( 'NONE', #132, 0.1574804999999999955 ) ;
#64 = CARTESIAN_POINT ( 'NONE',  ( 0.0000000000000000000, 0.0000000000000000000, 3.740156999999999954 ) ) ;
#65 = EDGE_CURVE ( 'NONE', #140, #164, #44, .T. ) ;
#66 = AXIS2_PLACEMENT_3D ( 'NONE', #156, #62, #80 ) ;
#67 = FILL_AREA_STYLE ('',( #178 ) ) ;
#68 = DIRECTION ( 'NONE',  ( 1.000000000000000000, 0.0000000000000000000, -0.0000000000000000000 ) ) ;
#69 =( GEOMETRIC_REPRESENTATION_CONTEXT ( 3 ) GLOBAL_UNCERTAINTY_ASSIGNED_CONTEXT ( ( #275 ) ) GLOBAL_UNIT_ASSIGNED_CONTEXT ( ( #139, #163, #159 ) ) REPRESENTATION_CONTEXT ( 'NONE', 'WORKASPACE' ) );
#70 = FACE_OUTER_BOUND ( 'NONE', #57, .T. ) ;
#71 = VERTEX_POINT ( 'NONE', #89 ) ;
#72 = ORIENTED_EDGE ( 'NONE', *, *, #74, .T. ) ;
#73 = DIRECTION ( 'NONE',  ( -1.224646799147353207E-16, -0.0000000000000000000, -1.000000000000000000 ) ) ;
#74 = EDGE_CURVE ( 'NONE', #164, #188, #108, .T. ) ;
#75 = EDGE_LOOP ( 'NONE', ( #126, #278 ) ) ;
#76 = CIRCLE ( 'NONE', #87, 0.1574804999999999955 ) ;
#77 = ORIENTED_EDGE ( 'NONE', *, *, #93, .T. ) ;
#78 = FILL_AREA_STYLE ('',( #100 ) ) ;
#79 = ORIENTED_EDGE ( 'NONE', *, *, #257, .F. ) ;
#80 = DIRECTION ( 'NONE',  ( -1.000000000000000000, 0.0000000000000000000, 1.224646799147353207E-16 ) ) ;
#81 = ADVANCED_FACE ( 'NONE', ( #200 ), #271, .T. ) ;
#82 = CIRCLE ( 'NONE', #245, 0.1424804999999998989 ) ;
#83 = CARTESIAN_POINT ( 'NONE',  ( 9.642893389422242582E-17, 0.0000000000000000000, 0.7874019999999999353 ) ) ;
#84 = LINE ( 'NONE', #247, #243 ) ;
#85 = EDGE_CURVE ( 'NONE', #283, #168, #76, .T. ) ;
#86 = DIRECTION ( 'NONE',  ( 1.000000000000000000, 0.0000000000000000000, 0.0000000000000000000 ) ) ;
#87 = AXIS2_PLACEMENT_3D ( 'NONE', #150, #174, #251 ) ;
#88 = VECTOR ( 'NONE', #206, 39.37007874015748143 ) ;
#89 = CARTESIAN_POINT ( 'NONE',  ( -0.1574804999999998567, 0.0000000000000000000, 1.122880579411527524 ) ) ;
#90 = CONICAL_SURFACE ( 'NONE', #11, 0.1424804999999998989, 0.7853981633974608245 ) ;
#91 = CARTESIAN_POINT ( 'NONE',  ( -0.09832657499999998552, 0.0000000000000000000, 1.204153253448721512E-17 ) ) ;
#92 = FACE_OUTER_BOUND ( 'NONE', #28, .T. ) ;
#93 = EDGE_CURVE ( 'NONE', #140, #71, #197, .T. ) ;
#94 = DIRECTION ( 'NONE',  ( -1.000000000000000000, 0.0000000000000000000, 0.0000000000000000000 ) ) ;
#95 = ORIENTED_EDGE ( 'NONE', *, *, #65, .T. ) ;
#96 = CARTESIAN_POINT ( 'NONE',  ( 0.1424804999999998989, 1.836731392595195200E-17, 3.740156999999999954 ) ) ;
#97 = VERTEX_POINT ( 'NONE', #137 ) ;
#98 = DIRECTION ( 'NONE',  ( -1.224646799147353207E-16, -0.0000000000000000000, -1.000000000000000000 ) ) ;
#99 = EDGE_LOOP ( 'NONE', ( #217, #184, #49, #55 ) ) ;
#100 = FILL_AREA_STYLE_COLOUR ( '', #127 ) ;
#101 = ORIENTED_EDGE ( 'NONE', *, *, #237, .F. ) ;
#102 = DIRECTION ( 'NONE',  ( 0.0000000000000000000, 0.0000000000000000000, 1.000000000000000000 ) ) ;
#103 = ORIENTED_EDGE ( 'NONE', *, *, #274, .T. ) ;
#104 = CARTESIAN_POINT ( 'NONE',  ( 1.474662427518848307E-33, 0.0000000000000000000, 1.204153253448721512E-17 ) ) ;
#105 = ADVANCED_FACE ( 'NONE', ( #114 ), #269, .T. ) ;
#106 = DIRECTION ( 'NONE',  ( 0.7071067811865563435, 8.659560562355041327E-17, -0.7071067811865386910 ) ) ;
#107 = VECTOR ( 'NONE', #186, 39.37007874015748143 ) ;
#108 = LINE ( 'NONE', #131, #208 ) ;
#109 = FACE_OUTER_BOUND ( 'NONE', #9, .T. ) ;
#110 = APPLICATION_CONTEXT ( 'automotive_design' ) ;
#111 = VECTOR ( 'NONE', #19, 39.37007874015748143 ) ;
#112 = CONICAL_SURFACE ( 'NONE', #226, 0.1424804999999998989, 0.7853981633974608245 ) ;
#113 = EDGE_CURVE ( 'NONE', #244, #283, #266, .T. ) ;
#114 = FACE_OUTER_BOUND ( 'NONE', #51, .T. ) ;
#115 = DIRECTION ( 'NONE',  ( -1.224646799147353207E-16, -0.0000000000000000000, -1.000000000000000000 ) ) ;
#116 = VECTOR ( 'NONE', #106, 39.37007874015748143 ) ;
#117 = CYLINDRICAL_SURFACE ( 'NONE', #53, 0.09832657499999998552 ) ;
#118 = EDGE_CURVE ( 'NONE', #164, #140, #198, .T. ) ;
#119 = LINE ( 'NONE', #91, #107 ) ;
#120 = LENGTH_MEASURE_WITH_UNIT ( LENGTH_MEASURE( 0.02539999999999999897 ), #43 );
#121 = ORIENTED_EDGE ( 'NONE', *, *, #113, .F. ) ;
#122 = UNCERTAINTY_MEASURE_WITH_UNIT (LENGTH_MEASURE( 1.000000000000000082E-05 ), #189, 'distance_accuracy_value', 'NONE');
#123 = AXIS2_PLACEMENT_3D ( 'NONE', #165, #228, #148 ) ;
#124 = DIRECTION ( 'NONE',  ( 0.0000000000000000000, 0.0000000000000000000, 1.000000000000000000 ) ) ;
#125 = EDGE_LOOP ( 'NONE', ( #95, #72, #219, #281 ) ) ;
#126 = ORIENTED_EDGE ( 'NONE', *, *, #279, .T. ) ;
#127 = COLOUR_RGB ( '',0.7921568627450980005, 0.8196078431372548767, 0.9333333333333333481 ) ;
#128 = ORIENTED_EDGE ( 'NONE', *, *, #237, .T. ) ;
#129 = DIRECTION ( 'NONE',  ( -0.1736481776669311639, 2.126576849575783008E-17, 0.9848077530122080203 ) ) ;
#130 =( CONVERSION_BASED_UNIT ( 'INCH', #8 ) LENGTH_UNIT ( ) NAMED_UNIT ( #239 ) );
#131 = CARTESIAN_POINT ( 'NONE',  ( 0.09832657499999998552, 1.204153253448721512E-17, -1.204153253448721512E-17 ) ) ;
#132 = AXIS2_PLACEMENT_3D ( 'NONE', #282, #73, #54 ) ;
#133 = SURFACE_SIDE_STYLE ('',( #158 ) ) ;
#134 = CLOSED_SHELL ( 'NONE', ( #185, #81, #199, #176, #221, #214, #270, #179, #105, #34 ) ) ;
#135 = EDGE_CURVE ( 'NONE', #164, #33, #84, .T. ) ;
#136 = DIRECTION ( 'NONE',  ( 0.1736481776669313581, 0.0000000000000000000, 0.9848077530122077983 ) ) ;
#137 = CARTESIAN_POINT ( 'NONE',  ( -0.1424804999999998989, 0.0000000000000000000, 3.740156999999999954 ) ) ;
#138 = AXIS2_PLACEMENT_3D ( 'NONE', #255, #98, #141 ) ;
#139 =( CONVERSION_BASED_UNIT ( 'INCH', #120 ) LENGTH_UNIT ( ) NAMED_UNIT ( #7 ) );
#140 = VERTEX_POINT ( 'NONE', #222 ) ;
#141 = DIRECTION ( 'NONE',  ( -1.000000000000000000, 0.0000000000000000000, 1.224646799147353207E-16 ) ) ;
#142 = AXIS2_PLACEMENT_3D ( 'NONE', #264, #35, #14 ) ;
#143 = AXIS2_PLACEMENT_3D ( 'NONE', #273, #160, #254 ) ;
#144 = CARTESIAN_POINT ( 'NONE',  ( 0.1574804999999999955, 1.928579902531247412E-17, 3.725156999999999829 ) ) ;
#145 = ORIENTED_EDGE ( 'NONE', *, *, #118, .T. ) ;
#146 = DIRECTION ( 'NONE',  ( 1.000000000000000000, 0.0000000000000000000, 0.0000000000000000000 ) ) ;
#147 = EDGE_LOOP ( 'NONE', ( #121, #263, #241, #12 ) ) ;
#148 = DIRECTION ( 'NONE',  ( 1.000000000000000000, 0.0000000000000000000, 0.0000000000000000000 ) ) ;
#149 = ORIENTED_EDGE ( 'NONE', *, *, #48, .F. ) ;
#150 = CARTESIAN_POINT ( 'NONE',  ( 0.0000000000000000000, 0.0000000000000000000, 3.725156999999999829 ) ) ;
#151 =( NAMED_UNIT ( * ) PLANE_ANGLE_UNIT ( ) SI_UNIT ( $, .RADIAN. ) );
#152 = PRODUCT_DEFINITION ( 'UNKNOWN', '', #295, #213 ) ;
#153 = DIRECTION ( 'NONE',  ( -1.000000000000000000, 0.0000000000000000000, 0.0000000000000000000 ) ) ;
#154 = SURFACE_STYLE_USAGE ( .BOTH. , #133 ) ;
#155 =( GEOMETRIC_REPRESENTATION_CONTEXT ( 3 ) GLOBAL_UNCERTAINTY_ASSIGNED_CONTEXT ( ( #4 ) ) GLOBAL_UNIT_ASSIGNED_CONTEXT ( ( #130, #151, #288 ) ) REPRESENTATION_CONTEXT ( 'NONE', 'WORKASPACE' ) );
#156 = CARTESIAN_POINT ( 'NONE',  ( 0.0000000000000000000, 0.0000000000000000000, 0.0000000000000000000 ) ) ;
#157 = AXIS2_PLACEMENT_3D ( 'NONE', #30, #102, #146 ) ;
#158 = SURFACE_STYLE_FILL_AREA ( #67 ) ;
#159 =( NAMED_UNIT ( * ) SI_UNIT ( $, .STERADIAN. ) SOLID_ANGLE_UNIT ( ) );
#160 = DIRECTION ( 'NONE',  ( -0.0000000000000000000, -0.0000000000000000000, -1.000000000000000000 ) ) ;
#161 = CARTESIAN_POINT ( 'NONE',  ( -0.09832657499999998552, 0.0000000000000000000, 2.408306506897443024E-17 ) ) ;
#162 = ORIENTED_EDGE ( 'NONE', *, *, #274, .F. ) ;
#163 =( NAMED_UNIT ( * ) PLANE_ANGLE_UNIT ( ) SI_UNIT ( $, .RADIAN. ) );
#164 = VERTEX_POINT ( 'NONE', #20 ) ;
#165 = CARTESIAN_POINT ( 'NONE',  ( 0.0000000000000000000, 0.0000000000000000000, 3.740156999999999954 ) ) ;
#166 = ORIENTED_EDGE ( 'NONE', *, *, #65, .F. ) ;
#167 = EDGE_CURVE ( 'NONE', #97, #168, #39, .T. ) ;
#168 = VERTEX_POINT ( 'NONE', #196 ) ;
#169 = DIRECTION ( 'NONE',  ( -1.224646799147353207E-16, -0.0000000000000000000, -1.000000000000000000 ) ) ;
#170 = PRODUCT_DEFINITION_SHAPE ( 'NONE', 'NONE',  #152 ) ;
#171 = PLANE ( 'NONE',  #142 ) ;
#172 = PRESENTATION_STYLE_ASSIGNMENT (( #238 ) ) ;
#173 = DIRECTION ( 'NONE',  ( -0.0000000000000000000, -0.0000000000000000000, -1.000000000000000000 ) ) ;
#174 = DIRECTION ( 'NONE',  ( 0.0000000000000000000, 0.0000000000000000000, -1.000000000000000000 ) ) ;
#175 = CIRCLE ( 'NONE', #123, 0.1424804999999998989 ) ;
#176 = ADVANCED_FACE ( 'NONE', ( #253 ), #293, .T. ) ;
#177 = MANIFOLD_SOLID_BREP ( 'Cut-Revolve1', #134 ) ;
#178 = FILL_AREA_STYLE_COLOUR ( '', #209 ) ;
#179 = ADVANCED_FACE ( 'NONE', ( #92 ), #180, .T. ) ;
#180 = CONICAL_SURFACE ( 'NONE', #38, 0.09832657499999998552, 0.1745329251994338637 ) ;
#181 = CARTESIAN_POINT ( 'NONE',  ( 0.0000000000000000000, 0.0000000000000000000, 3.740156999999999954 ) ) ;
#182 = DIRECTION ( 'NONE',  ( -1.000000000000000000, 0.0000000000000000000, 0.0000000000000000000 ) ) ;
#183 = DIRECTION ( 'NONE',  ( 1.224646799147353207E-16, 0.0000000000000000000, 1.000000000000000000 ) ) ;
#184 = ORIENTED_EDGE ( 'NONE', *, *, #113, .T. ) ;
#185 = ADVANCED_FACE ( 'NONE', ( #5 ), #117, .T. ) ;
#186 = DIRECTION ( 'NONE',  ( -1.224646799147353207E-16, -0.0000000000000000000, -1.000000000000000000 ) ) ;
#187 = VERTEX_POINT ( 'NONE', #161 ) ;
#188 = VERTEX_POINT ( 'NONE', #47 ) ;
#189 =( CONVERSION_BASED_UNIT ( 'INCH', #192 ) LENGTH_UNIT ( ) NAMED_UNIT ( #229 ) );
#190 = ORIENTED_EDGE ( 'NONE', *, *, #74, .F. ) ;
#191 = ORIENTED_EDGE ( 'NONE', *, *, #118, .F. ) ;
#192 = LENGTH_MEASURE_WITH_UNIT ( LENGTH_MEASURE( 0.02539999999999999897 ), #16 );
#193 = CARTESIAN_POINT ( 'NONE',  ( 9.642893389422242582E-17, 0.0000000000000000000, 0.7874019999999999353 ) ) ;
#194 = PRODUCT_CONTEXT ( 'NONE', #110, 'mechanical' ) ;
#195 = CARTESIAN_POINT ( 'NONE',  ( 0.0000000000000000000, 0.0000000000000000000, 3.725156999999999829 ) ) ;
#196 = CARTESIAN_POINT ( 'NONE',  ( -0.1574804999999999955, 0.0000000000000000000, 3.725156999999999829 ) ) ;
#197 = LINE ( 'NONE', #42, #52 ) ;
#198 = CIRCLE ( 'NONE', #223, 0.09832657499999998552 ) ;
#199 = ADVANCED_FACE ( 'NONE', ( #232 ), #90, .T. ) ;
#200 = FACE_OUTER_BOUND ( 'NONE', #233, .T. ) ;
#201 = AXIS2_PLACEMENT_3D ( 'NONE', #291, #169, #294 ) ;
#202 = DIRECTION ( 'NONE',  ( 0.0000000000000000000, 0.0000000000000000000, 1.000000000000000000 ) ) ;
#203 =( GEOMETRIC_REPRESENTATION_CONTEXT ( 3 ) GLOBAL_UNCERTAINTY_ASSIGNED_CONTEXT ( ( #122 ) ) GLOBAL_UNIT_ASSIGNED_CONTEXT ( ( #189, #58, #240 ) ) REPRESENTATION_CONTEXT ( 'NONE', 'WORKASPACE' ) );
#204 = CARTESIAN_POINT ( 'NONE',  ( 0.0000000000000000000, 0.0000000000000000000, 0.0000000000000000000 ) ) ;
#205 = ADVANCED_BREP_SHAPE_REPRESENTATION ( 'Micro_SFPM-050-70', ( #177, #157 ), #203 ) ;
#206 = DIRECTION ( 'NONE',  ( -0.0000000000000000000, -0.0000000000000000000, -1.000000000000000000 ) ) ;
#207 = DIRECTION ( 'NONE',  ( 1.000000000000000000, 0.0000000000000000000, 0.0000000000000000000 ) ) ;
#208 = VECTOR ( 'NONE', #60, 39.37007874015748143 ) ;
#209 = COLOUR_RGB ( '',0.7921568627450980005, 0.8196078431372548767, 0.9333333333333333481 ) ;
#210 = ORIENTED_EDGE ( 'NONE', *, *, #257, .T. ) ;
#211 = DIRECTION ( 'NONE',  ( 0.0000000000000000000, 0.0000000000000000000, -1.000000000000000000 ) ) ;
#212 = ORIENTED_EDGE ( 'NONE', *, *, #135, .F. ) ;
#213 = PRODUCT_DEFINITION_CONTEXT ( 'detailed design', #265, 'design' ) ;
#214 = ADVANCED_FACE ( 'NONE', ( #1 ), #276, .T. ) ;
#215 = SHAPE_DEFINITION_REPRESENTATION ( #170, #205 ) ;
#216 = ORIENTED_EDGE ( 'NONE', *, *, #10, .T. ) ;
#217 = ORIENTED_EDGE ( 'NONE', *, *, #250, .F. ) ;
#218 = AXIS2_PLACEMENT_3D ( 'NONE', #50, #202, #68 ) ;
#219 = ORIENTED_EDGE ( 'NONE', *, *, #231, .F. ) ;
#220 = DIRECTION ( 'NONE',  ( -1.000000000000000000, 0.0000000000000000000, 1.224646799147353207E-16 ) ) ;
#221 = ADVANCED_FACE ( 'NONE', ( #70 ), #277, .T. ) ;
#222 = CARTESIAN_POINT ( 'NONE',  ( -0.09832657499999988837, 1.566366577989984077E-17, 0.7874019999999999353 ) ) ;
#223 = AXIS2_PLACEMENT_3D ( 'NONE', #83, #61, #153 ) ;
#224 = PRESENTATION_LAYER_ASSIGNMENT (  '', '', ( #284 ) ) ;
#225 = CARTESIAN_POINT ( 'NONE',  ( 0.1574805000000001343, 1.928579902531249261E-17, 1.122880579411527524 ) ) ;
#226 = AXIS2_PLACEMENT_3D ( 'NONE', #181, #211, #94 ) ;
#227 = DIRECTION ( 'NONE',  ( 1.224646799147353207E-16, 0.0000000000000000000, 1.000000000000000000 ) ) ;
#228 = DIRECTION ( 'NONE',  ( 0.0000000000000000000, 0.0000000000000000000, 1.000000000000000000 ) ) ;
#229 = DIMENSIONAL_EXPONENTS ( 1.000000000000000000, 0.0000000000000000000, 0.0000000000000000000, 0.0000000000000000000, 0.0000000000000000000, 0.0000000000000000000, 0.0000000000000000000 ) ;
#230 = DIRECTION ( 'NONE',  ( -0.0000000000000000000, -0.0000000000000000000, -1.000000000000000000 ) ) ;
#231 = EDGE_CURVE ( 'NONE', #187, #188, #59, .T. ) ;
#232 = FACE_OUTER_BOUND ( 'NONE', #99, .T. ) ;
#233 = EDGE_LOOP ( 'NONE', ( #166, #77, #103, #212 ) ) ;
#234 = CARTESIAN_POINT ( 'NONE',  ( 0.0000000000000000000, 0.0000000000000000000, 3.740156999999999954 ) ) ;
#235 = AXIS2_PLACEMENT_3D ( 'NONE', #195, #15, #40 ) ;
#236 = ORIENTED_EDGE ( 'NONE', *, *, #135, .T. ) ;
#237 = EDGE_CURVE ( 'NONE', #283, #33, #46, .T. ) ;
#238 = SURFACE_STYLE_USAGE ( .BOTH. , #13 ) ;
#239 = DIMENSIONAL_EXPONENTS ( 1.000000000000000000, 0.0000000000000000000, 0.0000000000000000000, 0.0000000000000000000, 0.0000000000000000000, 0.0000000000000000000, 0.0000000000000000000 ) ;
#240 =( NAMED_UNIT ( * ) SI_UNIT ( $, .STERADIAN. ) SOLID_ANGLE_UNIT ( ) );
#241 = ORIENTED_EDGE ( 'NONE', *, *, #167, .T. ) ;
#242 = APPLICATION_PROTOCOL_DEFINITION ( 'draft international standard', 'automotive_design', 1998, #265 ) ;
#243 = VECTOR ( 'NONE', #136, 39.37007874015748143 ) ;
#244 = VERTEX_POINT ( 'NONE', #96 ) ;
#245 = AXIS2_PLACEMENT_3D ( 'NONE', #24, #124, #207 ) ;
#246 = DIRECTION ( 'NONE',  ( -1.224646799147353207E-16, -0.0000000000000000000, -1.000000000000000000 ) ) ;
#247 = CARTESIAN_POINT ( 'NONE',  ( 0.09832657500000009654, 0.0000000000000000000, 0.7874019999999999353 ) ) ;
#248 = PRESENTATION_STYLE_ASSIGNMENT (( #154 ) ) ;
#249 = AXIS2_PLACEMENT_3D ( 'NONE', #193, #227, #289 ) ;
#250 = EDGE_CURVE ( 'NONE', #244, #97, #82, .T. ) ;
#251 = DIRECTION ( 'NONE',  ( 1.000000000000000000, 0.0000000000000000000, 0.0000000000000000000 ) ) ;
#252 = MECHANICAL_DESIGN_GEOMETRIC_PRESENTATION_REPRESENTATION (  '', ( #284 ), #69 ) ;
#253 = FACE_OUTER_BOUND ( 'NONE', #29, .T. ) ;
#254 = DIRECTION ( 'NONE',  ( -1.000000000000000000, 0.0000000000000000000, 0.0000000000000000000 ) ) ;
#255 = CARTESIAN_POINT ( 'NONE',  ( 1.474662427518848307E-33, 0.0000000000000000000, 1.204153253448721512E-17 ) ) ;
#256 = ORIENTED_EDGE ( 'NONE', *, *, #267, .T. ) ;
#257 = EDGE_CURVE ( 'NONE', #168, #71, #259, .T. ) ;
#258 = ORIENTED_EDGE ( 'NONE', *, *, #41, .T. ) ;
#259 = LINE ( 'NONE', #298, #88 ) ;
#260 = ORIENTED_EDGE ( 'NONE', *, *, #85, .T. ) ;
#261 = SURFACE_STYLE_FILL_AREA ( #78 ) ;
#262 = APPLICATION_PROTOCOL_DEFINITION ( 'draft international standard', 'automotive_design', 1998, #110 ) ;
#263 = ORIENTED_EDGE ( 'NONE', *, *, #279, .F. ) ;
#264 = CARTESIAN_POINT ( 'NONE',  ( 0.0000000000000000000, 0.0000000000000000000, 0.0000000000000000000 ) ) ;
#265 = APPLICATION_CONTEXT ( 'automotive_design' ) ;
#266 = LINE ( 'NONE', #272, #116 ) ;
#267 = EDGE_CURVE ( 'NONE', #140, #187, #119, .T. ) ;
#268 = CARTESIAN_POINT ( 'NONE',  ( 9.642893389422242582E-17, 0.0000000000000000000, 0.7874019999999999353 ) ) ;
#269 = CYLINDRICAL_SURFACE ( 'NONE', #66, 0.09832657499999998552 ) ;
#270 = ADVANCED_FACE ( 'NONE', ( #280 ), #112, .T. ) ;
#271 = CONICAL_SURFACE ( 'NONE', #249, 0.09832657499999998552, 0.1745329251994338637 ) ;
#272 = CARTESIAN_POINT ( 'NONE',  ( 0.1424804999999998989, 1.744882882659143297E-17, 3.740156999999999954 ) ) ;
#273 = CARTESIAN_POINT ( 'NONE',  ( 0.0000000000000000000, 0.0000000000000000000, 3.740156999999999954 ) ) ;
#274 = EDGE_CURVE ( 'NONE', #71, #33, #63, .T. ) ;
#275 = UNCERTAINTY_MEASURE_WITH_UNIT (LENGTH_MEASURE( 1.000000000000000082E-05 ), #139, 'distance_accuracy_value', 'NONE');
#276 = PLANE ( 'NONE',  #218 ) ;
#277 = CYLINDRICAL_SURFACE ( 'NONE', #143, 0.1574804999999999955 ) ;
#278 = ORIENTED_EDGE ( 'NONE', *, *, #250, .T. ) ;
#279 = EDGE_CURVE ( 'NONE', #97, #244, #175, .T. ) ;
#280 = FACE_OUTER_BOUND ( 'NONE', #147, .T. ) ;
#281 = ORIENTED_EDGE ( 'NONE', *, *, #267, .F. ) ;
#282 = CARTESIAN_POINT ( 'NONE',  ( 1.375132107401052622E-16, 0.0000000000000000000, 1.122880579411527524 ) ) ;
#283 = VERTEX_POINT ( 'NONE', #144 ) ;
#284 = STYLED_ITEM ( 'NONE', ( #248 ), #177 ) ;
#285 = PRODUCT ( 'Micro_SFPM-050-70', 'Micro_SFPM-050-70', '', ( #194 ) ) ;
#286 = ORIENTED_EDGE ( 'NONE', *, *, #93, .F. ) ;
#287 =( LENGTH_UNIT ( ) NAMED_UNIT ( * ) SI_UNIT ( $, .METRE. ) );
#288 =( NAMED_UNIT ( * ) SI_UNIT ( $, .STERADIAN. ) SOLID_ANGLE_UNIT ( ) );
#289 = DIRECTION ( 'NONE',  ( 1.000000000000000000, 0.0000000000000000000, 0.0000000000000000000 ) ) ;
#290 = CIRCLE ( 'NONE', #235, 0.1574804999999999955 ) ;
#291 = CARTESIAN_POINT ( 'NONE',  ( 9.642893389422242582E-17, 0.0000000000000000000, 0.7874019999999999353 ) ) ;
#292 = MECHANICAL_DESIGN_GEOMETRIC_PRESENTATION_REPRESENTATION (  '', ( #45 ), #155 ) ;
#293 = CYLINDRICAL_SURFACE ( 'NONE', #18, 0.1574804999999999955 ) ;
#294 = DIRECTION ( 'NONE',  ( -1.000000000000000000, 0.0000000000000000000, 0.0000000000000000000 ) ) ;
#295 = PRODUCT_DEFINITION_FORMATION_WITH_SPECIFIED_SOURCE ( 'ANY', '', #285, .NOT_KNOWN. ) ;
#296 = DIRECTION ( 'NONE',  ( -1.000000000000000000, 0.0000000000000000000, 0.0000000000000000000 ) ) ;
#297 = PRESENTATION_LAYER_ASSIGNMENT (  '', '', ( #45 ) ) ;
#298 = CARTESIAN_POINT ( 'NONE',  ( -0.1574804999999999955, 0.0000000000000000000, 3.740156999999999954 ) ) ;
#299 = DIRECTION ( 'NONE',  ( 0.0000000000000000000, 0.0000000000000000000, -1.000000000000000000 ) ) ;
ENDSEC;
END-ISO-10303-21;
