ISO-10303-21;
HEADER;
FILE_DESCRIPTION (( 'STEP AP214' ),
    '1' );
FILE_NAME ('Micro_RME-025-2.STEP',
    '2021-09-01T22:58:31',
    ( '' ),
    ( '' ),
    'SwSTEP 2.0',
    'SolidWorks 2020',
    '' );
FILE_SCHEMA (( 'AUTOMOTIVE_DESIGN' ));
ENDSEC;

DATA;
#1 = DIRECTION ( 'NONE',  ( -1.224646799147353454E-16, -0.0000000000000000000, -1.000000000000000000 ) ) ;
#2 = UNCERTAINTY_MEASURE_WITH_UNIT (LENGTH_MEASURE( 1.000000000000000082E-05 ), #92, 'distance_accuracy_value', 'NONE');
#3 = STYLED_ITEM ( 'NONE', ( #65 ), #288 ) ;
#4 = CYLINDRICAL_SURFACE ( 'NONE', #140, 0.06250000000000002776 ) ;
#5 = EDGE_LOOP ( 'NONE', ( #156, #217, #211, #126 ) ) ;
#6 = CARTESIAN_POINT ( 'NONE',  ( -0.06250000000000002776, 0.0000000000000000000, 1.500000000000000222 ) ) ;
#7 = DIRECTION ( 'NONE',  ( -1.224646799147353454E-16, -0.0000000000000000000, -1.000000000000000000 ) ) ;
#8 = CARTESIAN_POINT ( 'NONE',  ( 0.01248750000000000034, 1.529277690435257475E-18, 0.0000000000000000000 ) ) ;
#9 = EDGE_CURVE ( 'NONE', #181, #189, #52, .T. ) ;
#10 = PRODUCT_DEFINITION_CONTEXT ( 'detailed design', #151, 'design' ) ;
#11 = DIRECTION ( 'NONE',  ( 0.1736481776669313859, 0.0000000000000000000, 0.9848077530122077983 ) ) ;
#12 = DIRECTION ( 'NONE',  ( 1.000000000000000000, 0.0000000000000000000, 0.0000000000000000000 ) ) ;
#13 = FACE_OUTER_BOUND ( 'NONE', #261, .T. ) ;
#14 = CONICAL_SURFACE ( 'NONE', #218, 0.04750000000000064587, 0.7853981633974466137 ) ;
#15 = PRODUCT_RELATED_PRODUCT_CATEGORY ( 'part', '', ( #275 ) ) ;
#16 = ORIENTED_EDGE ( 'NONE', *, *, #35, .F. ) ;
#17 =( LENGTH_UNIT ( ) NAMED_UNIT ( * ) SI_UNIT ( $, .METRE. ) );
#18 = CARTESIAN_POINT ( 'NONE',  ( 1.872825028598995623E-34, 0.0000000000000000000, 1.529277690435257668E-18 ) ) ;
#19 = ORIENTED_EDGE ( 'NONE', *, *, #25, .T. ) ;
#20 = VECTOR ( 'NONE', #11, 39.37007874015748143 ) ;
#21 = EDGE_CURVE ( 'NONE', #189, #98, #234, .T. ) ;
#22 = SURFACE_STYLE_USAGE ( .BOTH. , #39 ) ;
#23 = DIRECTION ( 'NONE',  ( 1.000000000000000000, 0.0000000000000000000, 0.0000000000000000000 ) ) ;
#24 = CLOSED_SHELL ( 'NONE', ( #298, #120, #208, #73, #232, #102, #131, #260, #148, #29 ) ) ;
#25 = EDGE_CURVE ( 'NONE', #263, #139, #117, .T. ) ;
#26 = AXIS2_PLACEMENT_3D ( 'NONE', #18, #294, #42 ) ;
#27 = ORIENTED_EDGE ( 'NONE', *, *, #173, .T. ) ;
#28 = FACE_OUTER_BOUND ( 'NONE', #64, .T. ) ;
#29 = ADVANCED_FACE ( 'NONE', ( #239 ), #94, .F. ) ;
#30 = STYLED_ITEM ( 'NONE', ( #112 ), #244 ) ;
#31 = FACE_OUTER_BOUND ( 'NONE', #162, .T. ) ;
#32 = EDGE_LOOP ( 'NONE', ( #142, #299, #186, #214 ) ) ;
#33 = SURFACE_STYLE_FILL_AREA ( #257 ) ;
#34 = CARTESIAN_POINT ( 'NONE',  ( 0.01248750000000000901, 0.0000000000000000000, 0.07499999999999999722 ) ) ;
#35 = EDGE_CURVE ( 'NONE', #116, #274, #78, .T. ) ;
#36 = CIRCLE ( 'NONE', #265, 0.04750000000000064587 ) ;
#37 = DIRECTION ( 'NONE',  ( -0.0000000000000000000, -0.0000000000000000000, -1.000000000000000000 ) ) ;
#38 = VECTOR ( 'NONE', #277, 39.37007874015748854 ) ;
#39 = SURFACE_SIDE_STYLE ('',( #249 ) ) ;
#40 = CYLINDRICAL_SURFACE ( 'NONE', #46, 0.01248750000000000034 ) ;
#41 = VECTOR ( 'NONE', #59, 39.37007874015748143 ) ;
#42 = DIRECTION ( 'NONE',  ( -1.000000000000000000, 0.0000000000000000000, 1.224646799147353454E-16 ) ) ;
#43 = EDGE_LOOP ( 'NONE', ( #111, #243, #254, #93 ) ) ;
#44 = ORIENTED_EDGE ( 'NONE', *, *, #235, .T. ) ;
#45 = LINE ( 'NONE', #236, #51 ) ;
#46 = AXIS2_PLACEMENT_3D ( 'NONE', #127, #252, #226 ) ;
#47 = ORIENTED_EDGE ( 'NONE', *, *, #49, .F. ) ;
#48 = DIRECTION ( 'NONE',  ( -0.0000000000000000000, -0.0000000000000000000, -1.000000000000000000 ) ) ;
#49 = EDGE_CURVE ( 'NONE', #283, #274, #45, .T. ) ;
#50 = DIRECTION ( 'NONE',  ( 1.000000000000000000, 0.0000000000000000000, -0.0000000000000000000 ) ) ;
#51 = VECTOR ( 'NONE', #74, 39.37007874015747433 ) ;
#52 = LINE ( 'NONE', #297, #137 ) ;
#53 = DIRECTION ( 'NONE',  ( -1.000000000000000000, 0.0000000000000000000, 0.0000000000000000000 ) ) ;
#54 = CARTESIAN_POINT ( 'NONE',  ( 0.01248750000000000901, 0.0000000000000000000, 0.07499999999999999722 ) ) ;
#55 =( NAMED_UNIT ( * ) PLANE_ANGLE_UNIT ( ) SI_UNIT ( $, .RADIAN. ) );
#56 = AXIS2_PLACEMENT_3D ( 'NONE', #165, #237, #121 ) ;
#57 = DIRECTION ( 'NONE',  ( -1.000000000000000000, 0.0000000000000000000, 0.0000000000000000000 ) ) ;
#58 = CARTESIAN_POINT ( 'NONE',  ( 0.06250000000000006939, 7.654042494670963708E-18, 0.3586349820036292546 ) ) ;
#59 = DIRECTION ( 'NONE',  ( -0.0000000000000000000, -0.0000000000000000000, -1.000000000000000000 ) ) ;
#60 = AXIS2_PLACEMENT_3D ( 'NONE', #132, #221, #109 ) ;
#61 = ORIENTED_EDGE ( 'NONE', *, *, #179, .T. ) ;
#62 = CIRCLE ( 'NONE', #26, 0.01248750000000000034 ) ;
#63 = EDGE_CURVE ( 'NONE', #295, #263, #215, .T. ) ;
#64 = EDGE_LOOP ( 'NONE', ( #44, #185 ) ) ;
#65 = PRESENTATION_STYLE_ASSIGNMENT (( #85 ) ) ;
#66 = ORIENTED_EDGE ( 'NONE', *, *, #21, .F. ) ;
#67 = AXIS2_PLACEMENT_3D ( 'NONE', #71, #196, #50 ) ;
#68 = PRODUCT_DEFINITION_SHAPE ( 'NONE', 'NONE',  #69 ) ;
#69 = PRODUCT_DEFINITION ( 'UNKNOWN', '', #118, #10 ) ;
#70 = CARTESIAN_POINT ( 'NONE',  ( 1.872825028598995623E-34, 0.0000000000000000000, 1.529277690435257668E-18 ) ) ;
#71 = CARTESIAN_POINT ( 'NONE',  ( 0.0000000000000000000, 0.0000000000000000000, 0.0000000000000000000 ) ) ;
#72 = AXIS2_PLACEMENT_3D ( 'NONE', #225, #272, #251 ) ;
#73 = ADVANCED_FACE ( 'NONE', ( #31 ), #4, .T. ) ;
#74 = DIRECTION ( 'NONE',  ( -0.1736481776669311916, 2.126576849575783316E-17, 0.9848077530122080203 ) ) ;
#75 = UNCERTAINTY_MEASURE_WITH_UNIT (LENGTH_MEASURE( 1.000000000000000082E-05 ), #158, 'distance_accuracy_value', 'NONE');
#76 = ORIENTED_EDGE ( 'NONE', *, *, #155, .F. ) ;
#77 = ORIENTED_EDGE ( 'NONE', *, *, #21, .T. ) ;
#78 = CIRCLE ( 'NONE', #281, 0.06250000000000002776 ) ;
#79 = AXIS2_PLACEMENT_3D ( 'NONE', #233, #161, #258 ) ;
#80 = DIRECTION ( 'NONE',  ( 0.0000000000000000000, 0.0000000000000000000, -1.000000000000000000 ) ) ;
#81 = FACE_OUTER_BOUND ( 'NONE', #238, .T. ) ;
#82 = CARTESIAN_POINT ( 'NONE',  ( 0.0000000000000000000, 0.0000000000000000000, 1.500000000000000222 ) ) ;
#83 = COLOUR_RGB ( '',0.7921568627450980005, 0.8196078431372548767, 0.9333333333333333481 ) ;
#84 = CARTESIAN_POINT ( 'NONE',  ( 4.392011827730132361E-17, 0.0000000000000000000, 0.3586349820036292546 ) ) ;
#85 = SURFACE_STYLE_USAGE ( .BOTH. , #87 ) ;
#86 = CARTESIAN_POINT ( 'NONE',  ( -0.04750000000000064587, 0.0000000000000000000, 1.500000000000000222 ) ) ;
#87 = SURFACE_SIDE_STYLE ('',( #33 ) ) ;
#88 = EDGE_CURVE ( 'NONE', #139, #263, #276, .T. ) ;
#89 =( LENGTH_UNIT ( ) NAMED_UNIT ( * ) SI_UNIT ( $, .METRE. ) );
#90 = LENGTH_MEASURE_WITH_UNIT ( LENGTH_MEASURE( 0.02539999999999999897 ), #17 );
#91 = EDGE_LOOP ( 'NONE', ( #169, #19, #160, #16 ) ) ;
#92 =( CONVERSION_BASED_UNIT ( 'INCH', #157 ) LENGTH_UNIT ( ) NAMED_UNIT ( #224 ) );
#93 = ORIENTED_EDGE ( 'NONE', *, *, #125, .F. ) ;
#94 = PLANE ( 'NONE',  #67 ) ;
#95 = DIRECTION ( 'NONE',  ( -1.224646799147353454E-16, -0.0000000000000000000, -1.000000000000000000 ) ) ;
#96 = CARTESIAN_POINT ( 'NONE',  ( 0.0000000000000000000, 0.0000000000000000000, 1.500000000000000222 ) ) ;
#97 = PRESENTATION_LAYER_ASSIGNMENT (  '', '', ( #3 ) ) ;
#98 = VERTEX_POINT ( 'NONE', #143 ) ;
#99 = ORIENTED_EDGE ( 'NONE', *, *, #88, .T. ) ;
#100 =( NAMED_UNIT ( * ) SI_UNIT ( $, .STERADIAN. ) SOLID_ANGLE_UNIT ( ) );
#101 = CARTESIAN_POINT ( 'NONE',  ( -0.06250000000000002776, 0.0000000000000000000, 1.485000000000000764 ) ) ;
#102 = ADVANCED_FACE ( 'NONE', ( #28 ), #123, .T. ) ;
#103 = FACE_OUTER_BOUND ( 'NONE', #5, .T. ) ;
#104 =( LENGTH_UNIT ( ) NAMED_UNIT ( * ) SI_UNIT ( $, .METRE. ) );
#105 = DIRECTION ( 'NONE',  ( 0.0000000000000000000, 0.0000000000000000000, 1.000000000000000000 ) ) ;
#106 = EDGE_CURVE ( 'NONE', #181, #283, #170, .T. ) ;
#107 = FACE_OUTER_BOUND ( 'NONE', #32, .T. ) ;
#108 = DIRECTION ( 'NONE',  ( -1.000000000000000000, 0.0000000000000000000, 1.224646799147353454E-16 ) ) ;
#109 = DIRECTION ( 'NONE',  ( 1.000000000000000000, 0.0000000000000000000, 0.0000000000000000000 ) ) ;
#110 = DIMENSIONAL_EXPONENTS ( 1.000000000000000000, 0.0000000000000000000, 0.0000000000000000000, 0.0000000000000000000, 0.0000000000000000000, 0.0000000000000000000, 0.0000000000000000000 ) ;
#111 = ORIENTED_EDGE ( 'NONE', *, *, #163, .T. ) ;
#112 = PRESENTATION_STYLE_ASSIGNMENT (( #22 ) ) ;
#113 = LINE ( 'NONE', #188, #38 ) ;
#114 = DIMENSIONAL_EXPONENTS ( 1.000000000000000000, 0.0000000000000000000, 0.0000000000000000000, 0.0000000000000000000, 0.0000000000000000000, 0.0000000000000000000, 0.0000000000000000000 ) ;
#115 = ORIENTED_EDGE ( 'NONE', *, *, #269, .T. ) ;
#116 = VERTEX_POINT ( 'NONE', #58 ) ;
#117 = CIRCLE ( 'NONE', #194, 0.06250000000000002776 ) ;
#118 = PRODUCT_DEFINITION_FORMATION_WITH_SPECIFIED_SOURCE ( 'ANY', '', #275, .NOT_KNOWN. ) ;
#119 = ORIENTED_EDGE ( 'NONE', *, *, #63, .F. ) ;
#120 = ADVANCED_FACE ( 'NONE', ( #107 ), #240, .T. ) ;
#121 = DIRECTION ( 'NONE',  ( 1.000000000000000000, 0.0000000000000000000, 0.0000000000000000000 ) ) ;
#122 = UNCERTAINTY_MEASURE_WITH_UNIT (LENGTH_MEASURE( 1.000000000000000082E-05 ), #246, 'distance_accuracy_value', 'NONE');
#123 = PLANE ( 'NONE',  #159 ) ;
#124 = CONICAL_SURFACE ( 'NONE', #79, 0.01248750000000000034, 0.1745329251994338915 ) ;
#125 = EDGE_CURVE ( 'NONE', #283, #98, #199, .T. ) ;
#126 = ORIENTED_EDGE ( 'NONE', *, *, #250, .F. ) ;
#127 = CARTESIAN_POINT ( 'NONE',  ( 0.0000000000000000000, 0.0000000000000000000, 0.0000000000000000000 ) ) ;
#128 = AXIS2_PLACEMENT_3D ( 'NONE', #171, #202, #53 ) ;
#129 = AXIS2_PLACEMENT_3D ( 'NONE', #130, #105, #201 ) ;
#130 = CARTESIAN_POINT ( 'NONE',  ( 0.0000000000000000000, 0.0000000000000000000, 1.500000000000000222 ) ) ;
#131 = ADVANCED_FACE ( 'NONE', ( #13 ), #14, .T. ) ;
#132 = CARTESIAN_POINT ( 'NONE',  ( 9.184850993605148746E-18, 0.0000000000000000000, 0.07499999999999999722 ) ) ;
#133 = DIRECTION ( 'NONE',  ( -1.000000000000000000, 0.0000000000000000000, 0.0000000000000000000 ) ) ;
#134 = CARTESIAN_POINT ( 'NONE',  ( 0.06250000000000002776, 7.654042494670959086E-18, 1.485000000000000764 ) ) ;
#135 = CARTESIAN_POINT ( 'NONE',  ( -0.01248749999999999166, 4.591660092553109051E-18, 0.07499999999999999722 ) ) ;
#136 = ORIENTED_EDGE ( 'NONE', *, *, #106, .F. ) ;
#137 = VECTOR ( 'NONE', #95, 39.37007874015748143 ) ;
#138 = EDGE_CURVE ( 'NONE', #139, #274, #291, .T. ) ;
#139 = VERTEX_POINT ( 'NONE', #101 ) ;
#140 = AXIS2_PLACEMENT_3D ( 'NONE', #96, #48, #280 ) ;
#141 =( GEOMETRIC_REPRESENTATION_CONTEXT ( 3 ) GLOBAL_UNCERTAINTY_ASSIGNED_CONTEXT ( ( #122 ) ) GLOBAL_UNIT_ASSIGNED_CONTEXT ( ( #246, #200, #100 ) ) REPRESENTATION_CONTEXT ( 'NONE', 'WORKASPACE' ) );
#142 = ORIENTED_EDGE ( 'NONE', *, *, #163, .F. ) ;
#143 = CARTESIAN_POINT ( 'NONE',  ( -0.01248750000000000034, 0.0000000000000000000, 3.058555380870515335E-18 ) ) ;
#144 = EDGE_LOOP ( 'NONE', ( #115, #77 ) ) ;
#145 = EDGE_LOOP ( 'NONE', ( #47, #136, #27, #284 ) ) ;
#146 = DIRECTION ( 'NONE',  ( 1.000000000000000000, 0.0000000000000000000, 0.0000000000000000000 ) ) ;
#147 = DIRECTION ( 'NONE',  ( 0.0000000000000000000, 0.0000000000000000000, 1.000000000000000000 ) ) ;
#148 = ADVANCED_FACE ( 'NONE', ( #81 ), #40, .T. ) ;
#149 = VECTOR ( 'NONE', #286, 39.37007874015748143 ) ;
#150 = FILL_AREA_STYLE ('',( #268 ) ) ;
#151 = APPLICATION_CONTEXT ( 'automotive_design' ) ;
#152 = CARTESIAN_POINT ( 'NONE',  ( 0.0000000000000000000, 0.0000000000000000000, 1.500000000000000222 ) ) ;
#153 = CARTESIAN_POINT ( 'NONE',  ( 0.06250000000000002776, 7.654042494670959086E-18, 1.500000000000000222 ) ) ;
#154 = APPLICATION_PROTOCOL_DEFINITION ( 'draft international standard', 'automotive_design', 1998, #172 ) ;
#155 = EDGE_CURVE ( 'NONE', #274, #116, #182, .T. ) ;
#156 = ORIENTED_EDGE ( 'NONE', *, *, #213, .F. ) ;
#157 = LENGTH_MEASURE_WITH_UNIT ( LENGTH_MEASURE( 0.02539999999999999897 ), #89 );
#158 =( CONVERSION_BASED_UNIT ( 'INCH', #90 ) LENGTH_UNIT ( ) NAMED_UNIT ( #110 ) );
#159 = AXIS2_PLACEMENT_3D ( 'NONE', #197, #267, #227 ) ;
#160 = ORIENTED_EDGE ( 'NONE', *, *, #138, .T. ) ;
#161 = DIRECTION ( 'NONE',  ( 1.224646799147353454E-16, 0.0000000000000000000, 1.000000000000000000 ) ) ;
#162 = EDGE_LOOP ( 'NONE', ( #99, #61, #76, #195 ) ) ;
#163 = EDGE_CURVE ( 'NONE', #283, #181, #222, .T. ) ;
#164 = DIRECTION ( 'NONE',  ( -1.224646799147353454E-16, -0.0000000000000000000, -1.000000000000000000 ) ) ;
#165 = CARTESIAN_POINT ( 'NONE',  ( 0.0000000000000000000, 0.0000000000000000000, 1.485000000000000764 ) ) ;
#166 = AXIS2_PLACEMENT_3D ( 'NONE', #70, #1, #167 ) ;
#167 = DIRECTION ( 'NONE',  ( -1.000000000000000000, 0.0000000000000000000, 1.224646799147353454E-16 ) ) ;
#168 = DIRECTION ( 'NONE',  ( 1.000000000000000000, 0.0000000000000000000, 0.0000000000000000000 ) ) ;
#169 = ORIENTED_EDGE ( 'NONE', *, *, #179, .F. ) ;
#170 = CIRCLE ( 'NONE', #72, 0.01248750000000000034 ) ;
#171 = CARTESIAN_POINT ( 'NONE',  ( 9.184850993605148746E-18, 0.0000000000000000000, 0.07499999999999999722 ) ) ;
#172 = APPLICATION_CONTEXT ( 'automotive_design' ) ;
#173 = EDGE_CURVE ( 'NONE', #181, #116, #220, .T. ) ;
#174 = DIRECTION ( 'NONE',  ( -0.0000000000000000000, -0.0000000000000000000, -1.000000000000000000 ) ) ;
#175 = CARTESIAN_POINT ( 'NONE',  ( 0.0000000000000000000, 0.0000000000000000000, 1.500000000000000222 ) ) ;
#176 = VECTOR ( 'NONE', #262, 39.37007874015748854 ) ;
#177 = DIRECTION ( 'NONE',  ( 0.0000000000000000000, 0.0000000000000000000, -1.000000000000000000 ) ) ;
#178 = DIRECTION ( 'NONE',  ( -1.224646799147353454E-16, -0.0000000000000000000, -1.000000000000000000 ) ) ;
#179 = EDGE_CURVE ( 'NONE', #263, #116, #290, .T. ) ;
#180 = SHAPE_DEFINITION_REPRESENTATION ( #68, #288 ) ;
#181 = VERTEX_POINT ( 'NONE', #34 ) ;
#182 = CIRCLE ( 'NONE', #255, 0.06250000000000002776 ) ;
#183 =( GEOMETRIC_REPRESENTATION_CONTEXT ( 3 ) GLOBAL_UNCERTAINTY_ASSIGNED_CONTEXT ( ( #75 ) ) GLOBAL_UNIT_ASSIGNED_CONTEXT ( ( #158, #55, #212 ) ) REPRESENTATION_CONTEXT ( 'NONE', 'WORKASPACE' ) );
#184 = CYLINDRICAL_SURFACE ( 'NONE', #203, 0.01248750000000000034 ) ;
#185 = ORIENTED_EDGE ( 'NONE', *, *, #213, .T. ) ;
#186 = ORIENTED_EDGE ( 'NONE', *, *, #155, .T. ) ;
#187 = APPLICATION_PROTOCOL_DEFINITION ( 'draft international standard', 'automotive_design', 1998, #151 ) ;
#188 = CARTESIAN_POINT ( 'NONE',  ( -0.04750000000000064587, 0.0000000000000000000, 1.500000000000000222 ) ) ;
#189 = VERTEX_POINT ( 'NONE', #8 ) ;
#190 = ORIENTED_EDGE ( 'NONE', *, *, #9, .F. ) ;
#191 = CARTESIAN_POINT ( 'NONE',  ( 0.04750000000000064587, 5.817072295950006528E-18, 1.500000000000000222 ) ) ;
#192 = FILL_AREA_STYLE_COLOUR ( '', #83 ) ;
#193 = ORIENTED_EDGE ( 'NONE', *, *, #125, .T. ) ;
#194 = AXIS2_PLACEMENT_3D ( 'NONE', #259, #216, #219 ) ;
#195 = ORIENTED_EDGE ( 'NONE', *, *, #138, .F. ) ;
#196 = DIRECTION ( 'NONE',  ( 0.0000000000000000000, 0.0000000000000000000, 1.000000000000000000 ) ) ;
#197 = CARTESIAN_POINT ( 'NONE',  ( 0.0000000000000000000, 0.0000000000000000000, 1.500000000000000222 ) ) ;
#198 = AXIS2_PLACEMENT_3D ( 'NONE', #230, #279, #23 ) ;
#199 = LINE ( 'NONE', #287, #149 ) ;
#200 =( NAMED_UNIT ( * ) PLANE_ANGLE_UNIT ( ) SI_UNIT ( $, .RADIAN. ) );
#201 = DIRECTION ( 'NONE',  ( 1.000000000000000000, 0.0000000000000000000, 0.0000000000000000000 ) ) ;
#202 = DIRECTION ( 'NONE',  ( -1.224646799147353454E-16, -0.0000000000000000000, -1.000000000000000000 ) ) ;
#203 = AXIS2_PLACEMENT_3D ( 'NONE', #242, #7, #108 ) ;
#204 = DIRECTION ( 'NONE',  ( -1.000000000000000000, 0.0000000000000000000, 0.0000000000000000000 ) ) ;
#205 =( NAMED_UNIT ( * ) SI_UNIT ( $, .STERADIAN. ) SOLID_ANGLE_UNIT ( ) );
#206 = ORIENTED_EDGE ( 'NONE', *, *, #250, .T. ) ;
#207 = PRODUCT_CONTEXT ( 'NONE', #172, 'mechanical' ) ;
#208 = ADVANCED_FACE ( 'NONE', ( #103 ), #228, .T. ) ;
#209 = AXIS2_PLACEMENT_3D ( 'NONE', #175, #80, #57 ) ;
#210 = MECHANICAL_DESIGN_GEOMETRIC_PRESENTATION_REPRESENTATION (  '', ( #3 ), #183 ) ;
#211 = ORIENTED_EDGE ( 'NONE', *, *, #88, .F. ) ;
#212 =( NAMED_UNIT ( * ) SI_UNIT ( $, .STERADIAN. ) SOLID_ANGLE_UNIT ( ) );
#213 = EDGE_CURVE ( 'NONE', #295, #292, #36, .T. ) ;
#214 = ORIENTED_EDGE ( 'NONE', *, *, #173, .F. ) ;
#215 = LINE ( 'NONE', #191, #176 ) ;
#216 = DIRECTION ( 'NONE',  ( 0.0000000000000000000, 0.0000000000000000000, -1.000000000000000000 ) ) ;
#217 = ORIENTED_EDGE ( 'NONE', *, *, #63, .T. ) ;
#218 = AXIS2_PLACEMENT_3D ( 'NONE', #152, #177, #204 ) ;
#219 = DIRECTION ( 'NONE',  ( 1.000000000000000000, 0.0000000000000000000, 0.0000000000000000000 ) ) ;
#220 = LINE ( 'NONE', #54, #20 ) ;
#221 = DIRECTION ( 'NONE',  ( 1.224646799147353454E-16, 0.0000000000000000000, 1.000000000000000000 ) ) ;
#222 = CIRCLE ( 'NONE', #128, 0.01248750000000000034 ) ;
#223 = PRESENTATION_LAYER_ASSIGNMENT (  '', '', ( #30 ) ) ;
#224 = DIMENSIONAL_EXPONENTS ( 1.000000000000000000, 0.0000000000000000000, 0.0000000000000000000, 0.0000000000000000000, 0.0000000000000000000, 0.0000000000000000000, 0.0000000000000000000 ) ;
#225 = CARTESIAN_POINT ( 'NONE',  ( 9.184850993605148746E-18, 0.0000000000000000000, 0.07499999999999999722 ) ) ;
#226 = DIRECTION ( 'NONE',  ( -1.000000000000000000, 0.0000000000000000000, 1.224646799147353454E-16 ) ) ;
#227 = DIRECTION ( 'NONE',  ( 1.000000000000000000, 0.0000000000000000000, -0.0000000000000000000 ) ) ;
#228 = CONICAL_SURFACE ( 'NONE', #209, 0.04750000000000064587, 0.7853981633974466137 ) ;
#229 = CARTESIAN_POINT ( 'NONE',  ( -0.06249999999999997918, 0.0000000000000000000, 0.3586349820036292546 ) ) ;
#230 = CARTESIAN_POINT ( 'NONE',  ( 0.0000000000000000000, 0.0000000000000000000, 0.0000000000000000000 ) ) ;
#231 = FACE_OUTER_BOUND ( 'NONE', #43, .T. ) ;
#232 = ADVANCED_FACE ( 'NONE', ( #245 ), #271, .T. ) ;
#233 = CARTESIAN_POINT ( 'NONE',  ( 9.184850993605148746E-18, 0.0000000000000000000, 0.07499999999999999722 ) ) ;
#234 = CIRCLE ( 'NONE', #166, 0.01248750000000000034 ) ;
#235 = EDGE_CURVE ( 'NONE', #292, #295, #296, .T. ) ;
#236 = CARTESIAN_POINT ( 'NONE',  ( -0.01248749999999999166, 1.529277690435257475E-18, 0.07499999999999999722 ) ) ;
#237 = DIRECTION ( 'NONE',  ( 0.0000000000000000000, 0.0000000000000000000, -1.000000000000000000 ) ) ;
#238 = EDGE_LOOP ( 'NONE', ( #190, #273, #193, #66 ) ) ;
#239 = FACE_OUTER_BOUND ( 'NONE', #144, .T. ) ;
#240 = CONICAL_SURFACE ( 'NONE', #60, 0.01248750000000000034, 0.1745329251994338915 ) ;
#241 =( GEOMETRIC_REPRESENTATION_CONTEXT ( 3 ) GLOBAL_UNCERTAINTY_ASSIGNED_CONTEXT ( ( #2 ) ) GLOBAL_UNIT_ASSIGNED_CONTEXT ( ( #92, #256, #205 ) ) REPRESENTATION_CONTEXT ( 'NONE', 'WORKASPACE' ) );
#242 = CARTESIAN_POINT ( 'NONE',  ( 0.0000000000000000000, 0.0000000000000000000, 0.0000000000000000000 ) ) ;
#243 = ORIENTED_EDGE ( 'NONE', *, *, #9, .T. ) ;
#244 = MANIFOLD_SOLID_BREP ( 'Cut-Revolve1', #24 ) ;
#245 = FACE_OUTER_BOUND ( 'NONE', #91, .T. ) ;
#246 =( CONVERSION_BASED_UNIT ( 'INCH', #266 ) LENGTH_UNIT ( ) NAMED_UNIT ( #114 ) );
#247 = CARTESIAN_POINT ( 'NONE',  ( 0.0000000000000000000, 0.0000000000000000000, 1.500000000000000222 ) ) ;
#248 = COLOUR_RGB ( '',0.7921568627450980005, 0.8196078431372548767, 0.9333333333333333481 ) ;
#249 = SURFACE_STYLE_FILL_AREA ( #150 ) ;
#250 = EDGE_CURVE ( 'NONE', #292, #139, #113, .T. ) ;
#251 = DIRECTION ( 'NONE',  ( -1.000000000000000000, 0.0000000000000000000, 0.0000000000000000000 ) ) ;
#252 = DIRECTION ( 'NONE',  ( -1.224646799147353454E-16, -0.0000000000000000000, -1.000000000000000000 ) ) ;
#253 = CARTESIAN_POINT ( 'NONE',  ( 0.04750000000000064587, 6.735557395310483192E-18, 1.500000000000000222 ) ) ;
#254 = ORIENTED_EDGE ( 'NONE', *, *, #269, .F. ) ;
#255 = AXIS2_PLACEMENT_3D ( 'NONE', #84, #178, #12 ) ;
#256 =( NAMED_UNIT ( * ) PLANE_ANGLE_UNIT ( ) SI_UNIT ( $, .RADIAN. ) );
#257 = FILL_AREA_STYLE ('',( #192 ) ) ;
#258 = DIRECTION ( 'NONE',  ( 1.000000000000000000, 0.0000000000000000000, 0.0000000000000000000 ) ) ;
#259 = CARTESIAN_POINT ( 'NONE',  ( 0.0000000000000000000, 0.0000000000000000000, 1.485000000000000764 ) ) ;
#260 = ADVANCED_FACE ( 'NONE', ( #289 ), #124, .T. ) ;
#261 = EDGE_LOOP ( 'NONE', ( #119, #278, #206, #285 ) ) ;
#262 = DIRECTION ( 'NONE',  ( 0.7071067811865462405, 8.659560562354916834E-17, -0.7071067811865486830 ) ) ;
#263 = VERTEX_POINT ( 'NONE', #134 ) ;
#264 = CARTESIAN_POINT ( 'NONE',  ( 4.392011827730132361E-17, 0.0000000000000000000, 0.3586349820036292546 ) ) ;
#265 = AXIS2_PLACEMENT_3D ( 'NONE', #82, #147, #146 ) ;
#266 = LENGTH_MEASURE_WITH_UNIT ( LENGTH_MEASURE( 0.02539999999999999897 ), #104 );
#267 = DIRECTION ( 'NONE',  ( 0.0000000000000000000, 0.0000000000000000000, 1.000000000000000000 ) ) ;
#268 = FILL_AREA_STYLE_COLOUR ( '', #248 ) ;
#269 = EDGE_CURVE ( 'NONE', #98, #189, #62, .T. ) ;
#270 = MECHANICAL_DESIGN_GEOMETRIC_PRESENTATION_REPRESENTATION (  '', ( #30 ), #241 ) ;
#271 = CYLINDRICAL_SURFACE ( 'NONE', #282, 0.06250000000000002776 ) ;
#272 = DIRECTION ( 'NONE',  ( -1.224646799147353454E-16, -0.0000000000000000000, -1.000000000000000000 ) ) ;
#273 = ORIENTED_EDGE ( 'NONE', *, *, #106, .T. ) ;
#274 = VERTEX_POINT ( 'NONE', #229 ) ;
#275 = PRODUCT ( 'Micro_RME-025-2', 'Micro_RME-025-2', '', ( #207 ) ) ;
#276 = CIRCLE ( 'NONE', #56, 0.06250000000000002776 ) ;
#277 = DIRECTION ( 'NONE',  ( -0.7071067811865462405, 0.0000000000000000000, -0.7071067811865486830 ) ) ;
#278 = ORIENTED_EDGE ( 'NONE', *, *, #235, .F. ) ;
#279 = DIRECTION ( 'NONE',  ( 0.0000000000000000000, 0.0000000000000000000, 1.000000000000000000 ) ) ;
#280 = DIRECTION ( 'NONE',  ( -1.000000000000000000, 0.0000000000000000000, 0.0000000000000000000 ) ) ;
#281 = AXIS2_PLACEMENT_3D ( 'NONE', #264, #164, #168 ) ;
#282 = AXIS2_PLACEMENT_3D ( 'NONE', #247, #37, #133 ) ;
#283 = VERTEX_POINT ( 'NONE', #135 ) ;
#284 = ORIENTED_EDGE ( 'NONE', *, *, #35, .T. ) ;
#285 = ORIENTED_EDGE ( 'NONE', *, *, #25, .F. ) ;
#286 = DIRECTION ( 'NONE',  ( -1.224646799147353454E-16, -0.0000000000000000000, -1.000000000000000000 ) ) ;
#287 = CARTESIAN_POINT ( 'NONE',  ( -0.01248750000000000034, 0.0000000000000000000, 1.529277690435257668E-18 ) ) ;
#288 = ADVANCED_BREP_SHAPE_REPRESENTATION ( 'Micro_RME-025-2', ( #244, #198 ), #141 ) ;
#289 = FACE_OUTER_BOUND ( 'NONE', #145, .T. ) ;
#290 = LINE ( 'NONE', #153, #293 ) ;
#291 = LINE ( 'NONE', #6, #41 ) ;
#292 = VERTEX_POINT ( 'NONE', #86 ) ;
#293 = VECTOR ( 'NONE', #174, 39.37007874015748143 ) ;
#294 = DIRECTION ( 'NONE',  ( -1.224646799147353454E-16, -0.0000000000000000000, -1.000000000000000000 ) ) ;
#295 = VERTEX_POINT ( 'NONE', #253 ) ;
#296 = CIRCLE ( 'NONE', #129, 0.04750000000000064587 ) ;
#297 = CARTESIAN_POINT ( 'NONE',  ( 0.01248750000000000034, 1.529277690435257475E-18, -1.529277690435257668E-18 ) ) ;
#298 = ADVANCED_FACE ( 'NONE', ( #231 ), #184, .T. ) ;
#299 = ORIENTED_EDGE ( 'NONE', *, *, #49, .T. ) ;
ENDSEC;
END-ISO-10303-21;
