ISO-10303-21;
HEADER;
FILE_DESCRIPTION (( 'STEP AP214' ),
    '1' );
FILE_NAME ('Micro_KC-500-1500-125.STEP',
    '2021-09-03T19:46:12',
    ( '' ),
    ( '' ),
    'SwSTEP 2.0',
    'SolidWorks 2020',
    '' );
FILE_SCHEMA (( 'AUTOMOTIVE_DESIGN' ));
ENDSEC;

DATA;
#1 = SURFACE_STYLE_USAGE ( .BOTH. , #129 ) ;
#2 = DIRECTION ( 'NONE',  ( -1.000000000000000000, 0.0000000000000000000, 0.0000000000000000000 ) ) ;
#3 = AXIS2_PLACEMENT_3D ( 'NONE', #223, #227, #315 ) ;
#4 = ORIENTED_EDGE ( 'NONE', *, *, #306, .F. ) ;
#5 = ORIENTED_EDGE ( 'NONE', *, *, #21, .F. ) ;
#6 = DIRECTION ( 'NONE',  ( -1.000000000000000000, 0.0000000000000000000, 0.0000000000000000000 ) ) ;
#7 = ORIENTED_EDGE ( 'NONE', *, *, #121, .T. ) ;
#8 = DIRECTION ( 'NONE',  ( 0.0000000000000000000, 0.0000000000000000000, -1.000000000000000000 ) ) ;
#9 = ADVANCED_FACE ( 'NONE', ( #378 ), #239, .T. ) ;
#10 = LINE ( 'NONE', #284, #274 ) ;
#11 = CONICAL_SURFACE ( 'NONE', #42, 0.1250000000000001943, 0.7853981633974500554 ) ;
#12 = ORIENTED_EDGE ( 'NONE', *, *, #110, .F. ) ;
#13 = DIRECTION ( 'NONE',  ( -0.0000000000000000000, -0.0000000000000000000, -1.000000000000000000 ) ) ;
#14 = DIRECTION ( 'NONE',  ( -0.0000000000000000000, -0.0000000000000000000, -1.000000000000000000 ) ) ;
#15 = EDGE_CURVE ( 'NONE', #59, #357, #355, .T. ) ;
#16 = CARTESIAN_POINT ( 'NONE',  ( 0.2500000000000000000, 3.061616997868382402E-17, 2.985000000000001208 ) ) ;
#17 = COLOUR_RGB ( '',0.7921568627450980005, 0.8196078431372548767, 0.9333333333333333481 ) ;
#18 = DIMENSIONAL_EXPONENTS ( 1.000000000000000000, 0.0000000000000000000, 0.0000000000000000000, 0.0000000000000000000, 0.0000000000000000000, 0.0000000000000000000, 0.0000000000000000000 ) ;
#19 = CARTESIAN_POINT ( 'NONE',  ( 0.0000000000000000000, 0.0000000000000000000, 0.1250000000000000000 ) ) ;
#20 = CARTESIAN_POINT ( 'NONE',  ( 0.0000000000000000000, 0.0000000000000000000, 0.1250000000000000278 ) ) ;
#21 = EDGE_CURVE ( 'NONE', #242, #93, #196, .T. ) ;
#22 = EDGE_CURVE ( 'NONE', #335, #357, #328, .T. ) ;
#23 = LINE ( 'NONE', #324, #350 ) ;
#24 = ORIENTED_EDGE ( 'NONE', *, *, #345, .F. ) ;
#25 = ORIENTED_EDGE ( 'NONE', *, *, #177, .T. ) ;
#26 = VECTOR ( 'NONE', #220, 39.37007874015748854 ) ;
#27 = AXIS2_PLACEMENT_3D ( 'NONE', #265, #374, #123 ) ;
#28 = EDGE_CURVE ( 'NONE', #164, #250, #54, .T. ) ;
#29 = ORIENTED_EDGE ( 'NONE', *, *, #286, .T. ) ;
#30 = CARTESIAN_POINT ( 'NONE',  ( -0.1250000000000001943, 1.530808498934193974E-17, 1.500000000000000222 ) ) ;
#31 =( CONVERSION_BASED_UNIT ( 'INCH', #303 ) LENGTH_UNIT ( ) NAMED_UNIT ( #230 ) );
#32 = EDGE_LOOP ( 'NONE', ( #362, #180, #276, #280 ) ) ;
#33 = DIRECTION ( 'NONE',  ( -1.000000000000000000, 0.0000000000000000000, 0.0000000000000000000 ) ) ;
#34 = AXIS2_PLACEMENT_3D ( 'NONE', #337, #238, #67 ) ;
#35 = COLOUR_RGB ( '',0.7921568627450980005, 0.8196078431372548767, 0.9333333333333333481 ) ;
#36 = EDGE_LOOP ( 'NONE', ( #4, #181, #58, #257 ) ) ;
#37 = ADVANCED_FACE ( 'NONE', ( #304 ), #141, .T. ) ;
#38 = CARTESIAN_POINT ( 'NONE',  ( 0.0000000000000000000, 0.0000000000000000000, 1.624999999999999556 ) ) ;
#39 = ORIENTED_EDGE ( 'NONE', *, *, #124, .T. ) ;
#40 = DIRECTION ( 'NONE',  ( -0.7071067811865402453, 0.0000000000000000000, -0.7071067811865546782 ) ) ;
#41 = ADVANCED_FACE ( 'NONE', ( #338 ), #279, .F. ) ;
#42 = AXIS2_PLACEMENT_3D ( 'NONE', #222, #76, #317 ) ;
#43 = FACE_OUTER_BOUND ( 'NONE', #61, .T. ) ;
#44 = DIMENSIONAL_EXPONENTS ( 1.000000000000000000, 0.0000000000000000000, 0.0000000000000000000, 0.0000000000000000000, 0.0000000000000000000, 0.0000000000000000000, 0.0000000000000000000 ) ;
#45 = DIRECTION ( 'NONE',  ( 0.7071067811865402453, 8.659560562354845344E-17, -0.7071067811865546782 ) ) ;
#46 = PRODUCT_RELATED_PRODUCT_CATEGORY ( 'part', '', ( #66 ) ) ;
#47 = CARTESIAN_POINT ( 'NONE',  ( -0.1250000000000001943, 2.296212748401288342E-17, 1.500000000000000222 ) ) ;
#48 = EDGE_CURVE ( 'NONE', #242, #357, #302, .T. ) ;
#49 =( NAMED_UNIT ( * ) SI_UNIT ( $, .STERADIAN. ) SOLID_ANGLE_UNIT ( ) );
#50 =( GEOMETRIC_REPRESENTATION_CONTEXT ( 3 ) GLOBAL_UNCERTAINTY_ASSIGNED_CONTEXT ( ( #168 ) ) GLOBAL_UNIT_ASSIGNED_CONTEXT ( ( #236, #373, #49 ) ) REPRESENTATION_CONTEXT ( 'NONE', 'WORKASPACE' ) );
#51 = DIRECTION ( 'NONE',  ( -1.000000000000000000, 0.0000000000000000000, 0.0000000000000000000 ) ) ;
#52 = FACE_OUTER_BOUND ( 'NONE', #159, .T. ) ;
#53 = DIRECTION ( 'NONE',  ( -1.000000000000000000, 0.0000000000000000000, 0.0000000000000000000 ) ) ;
#54 = CIRCLE ( 'NONE', #332, 0.2500000000000000000 ) ;
#55 = MECHANICAL_DESIGN_GEOMETRIC_PRESENTATION_REPRESENTATION (  '', ( #79 ), #182 ) ;
#56 = CARTESIAN_POINT ( 'NONE',  ( 0.2500000000000000555, 3.061616997868383018E-17, 0.1250000000000000000 ) ) ;
#57 = APPLICATION_CONTEXT ( 'automotive_design' ) ;
#58 = ORIENTED_EDGE ( 'NONE', *, *, #167, .F. ) ;
#59 = VERTEX_POINT ( 'NONE', #102 ) ;
#60 =( LENGTH_UNIT ( ) NAMED_UNIT ( * ) SI_UNIT ( $, .METRE. ) );
#61 = EDGE_LOOP ( 'NONE', ( #179, #375, #295, #241 ) ) ;
#62 = CIRCLE ( 'NONE', #78, 0.2500000000000000555 ) ;
#63 = AXIS2_PLACEMENT_3D ( 'NONE', #342, #165, #143 ) ;
#64 =( NAMED_UNIT ( * ) SI_UNIT ( $, .STERADIAN. ) SOLID_ANGLE_UNIT ( ) );
#65 = DIRECTION ( 'NONE',  ( -0.0000000000000000000, -0.0000000000000000000, -1.000000000000000000 ) ) ;
#66 = PRODUCT ( 'Micro_KC-500-1500-125', 'Micro_KC-500-1500-125', '', ( #248 ) ) ;
#67 = DIRECTION ( 'NONE',  ( -1.000000000000000000, 0.0000000000000000000, 0.0000000000000000000 ) ) ;
#68 = CARTESIAN_POINT ( 'NONE',  ( 0.0000000000000000000, 0.0000000000000000000, 0.0000000000000000000 ) ) ;
#69 = VECTOR ( 'NONE', #361, 39.37007874015748143 ) ;
#70 = DIRECTION ( 'NONE',  ( 1.000000000000000000, 0.0000000000000000000, 0.0000000000000000000 ) ) ;
#71 = CIRCLE ( 'NONE', #224, 0.2500000000000000000 ) ;
#72 = CARTESIAN_POINT ( 'NONE',  ( 0.2350000000000011524, 2.969768487932338510E-17, 3.000000000000000444 ) ) ;
#73 = DIRECTION ( 'NONE',  ( -1.000000000000000000, 0.0000000000000000000, 0.0000000000000000000 ) ) ;
#74 = ADVANCED_FACE ( 'NONE', ( #191 ), #354, .T. ) ;
#75 = CARTESIAN_POINT ( 'NONE',  ( 0.1250000000000001110, 1.530808498934192742E-17, 0.0000000000000000000 ) ) ;
#76 = DIRECTION ( 'NONE',  ( 0.0000000000000000000, 0.0000000000000000000, 1.000000000000000000 ) ) ;
#77 = EDGE_CURVE ( 'NONE', #185, #334, #62, .T. ) ;
#78 = AXIS2_PLACEMENT_3D ( 'NONE', #310, #336, #6 ) ;
#79 = STYLED_ITEM ( 'NONE', ( #275 ), #228 ) ;
#80 = DIRECTION ( 'NONE',  ( 1.000000000000000000, 0.0000000000000000000, 0.0000000000000000000 ) ) ;
#81 = DIRECTION ( 'NONE',  ( -0.0000000000000000000, -0.0000000000000000000, -1.000000000000000000 ) ) ;
#82 =( LENGTH_UNIT ( ) NAMED_UNIT ( * ) SI_UNIT ( $, .METRE. ) );
#83 = EDGE_CURVE ( 'NONE', #329, #153, #339, .T. ) ;
#84 = CARTESIAN_POINT ( 'NONE',  ( -0.2500000000000000000, 0.0000000000000000000, 2.985000000000001208 ) ) ;
#85 = AXIS2_PLACEMENT_3D ( 'NONE', #68, #358, #277 ) ;
#86 = CARTESIAN_POINT ( 'NONE',  ( 0.0000000000000000000, 0.0000000000000000000, 0.0000000000000000000 ) ) ;
#87 = DIRECTION ( 'NONE',  ( -0.0000000000000000000, -0.0000000000000000000, -1.000000000000000000 ) ) ;
#88 = EDGE_CURVE ( 'NONE', #93, #242, #376, .T. ) ;
#89 = CYLINDRICAL_SURFACE ( 'NONE', #346, 0.2500000000000000000 ) ;
#90 = AXIS2_PLACEMENT_3D ( 'NONE', #319, #8, #80 ) ;
#91 = UNCERTAINTY_MEASURE_WITH_UNIT (LENGTH_MEASURE( 1.000000000000000082E-05 ), #31, 'distance_accuracy_value', 'NONE');
#92 = DIRECTION ( 'NONE',  ( -1.000000000000000000, 0.0000000000000000000, 0.0000000000000000000 ) ) ;
#93 = VERTEX_POINT ( 'NONE', #359 ) ;
#94 = ORIENTED_EDGE ( 'NONE', *, *, #289, .F. ) ;
#95 = CARTESIAN_POINT ( 'NONE',  ( 0.0000000000000000000, 0.0000000000000000000, 1.624999999999999556 ) ) ;
#96 = ORIENTED_EDGE ( 'NONE', *, *, #286, .F. ) ;
#97 = AXIS2_PLACEMENT_3D ( 'NONE', #307, #212, #73 ) ;
#98 = CONICAL_SURFACE ( 'NONE', #27, 0.1250000000000001943, 0.7853981633974500554 ) ;
#99 = CARTESIAN_POINT ( 'NONE',  ( 0.0000000000000000000, 0.0000000000000000000, 3.000000000000000444 ) ) ;
#100 =( LENGTH_UNIT ( ) NAMED_UNIT ( * ) SI_UNIT ( $, .METRE. ) );
#101 = ORIENTED_EDGE ( 'NONE', *, *, #28, .F. ) ;
#102 = CARTESIAN_POINT ( 'NONE',  ( 0.2500000000000000000, 3.061616997868382402E-17, 1.624999999999999556 ) ) ;
#103 = CARTESIAN_POINT ( 'NONE',  ( 0.0000000000000000000, 0.0000000000000000000, 0.0000000000000000000 ) ) ;
#104 = ORIENTED_EDGE ( 'NONE', *, *, #177, .F. ) ;
#105 = DIRECTION ( 'NONE',  ( -0.7071067811865486830, 8.659560562354947649E-17, 0.7071067811865462405 ) ) ;
#106 = AXIS2_PLACEMENT_3D ( 'NONE', #139, #313, #366 ) ;
#107 = AXIS2_PLACEMENT_3D ( 'NONE', #186, #178, #92 ) ;
#108 = DIRECTION ( 'NONE',  ( 1.000000000000000000, 0.0000000000000000000, 0.0000000000000000000 ) ) ;
#109 = ORIENTED_EDGE ( 'NONE', *, *, #15, .F. ) ;
#110 = EDGE_CURVE ( 'NONE', #93, #59, #344, .T. ) ;
#111 = FACE_OUTER_BOUND ( 'NONE', #187, .T. ) ;
#112 = CARTESIAN_POINT ( 'NONE',  ( -0.2350000000000011524, 0.0000000000000000000, 3.000000000000000444 ) ) ;
#113 = CIRCLE ( 'NONE', #3, 0.1250000000000000278 ) ;
#114 = PRODUCT_DEFINITION ( 'UNKNOWN', '', #371, #201 ) ;
#115 = AXIS2_PLACEMENT_3D ( 'NONE', #103, #192, #70 ) ;
#116 = FACE_OUTER_BOUND ( 'NONE', #32, .T. ) ;
#117 = CARTESIAN_POINT ( 'NONE',  ( 0.1250000000000000278, 1.530808498934192125E-17, 0.1250000000000000278 ) ) ;
#118 = SURFACE_SIDE_STYLE ('',( #293 ) ) ;
#119 = DIRECTION ( 'NONE',  ( 1.000000000000000000, 0.0000000000000000000, -0.0000000000000000000 ) ) ;
#120 = VECTOR ( 'NONE', #45, 39.37007874015748854 ) ;
#121 = EDGE_CURVE ( 'NONE', #211, #252, #113, .T. ) ;
#122 = CARTESIAN_POINT ( 'NONE',  ( 0.2500000000000000000, 3.061616997868382402E-17, 3.000000000000000444 ) ) ;
#123 = DIRECTION ( 'NONE',  ( 1.000000000000000000, 0.0000000000000000000, 0.0000000000000000000 ) ) ;
#124 = EDGE_CURVE ( 'NONE', #334, #250, #10, .T. ) ;
#125 = DIRECTION ( 'NONE',  ( -0.0000000000000000000, -0.0000000000000000000, -1.000000000000000000 ) ) ;
#126 = AXIS2_PLACEMENT_3D ( 'NONE', #195, #163, #226 ) ;
#127 =( NAMED_UNIT ( * ) SI_UNIT ( $, .STERADIAN. ) SOLID_ANGLE_UNIT ( ) );
#128 = VERTEX_POINT ( 'NONE', #16 ) ;
#129 = SURFACE_SIDE_STYLE ('',( #268 ) ) ;
#130 = ORIENTED_EDGE ( 'NONE', *, *, #285, .T. ) ;
#131 = ORIENTED_EDGE ( 'NONE', *, *, #48, .T. ) ;
#132 = DIRECTION ( 'NONE',  ( 1.000000000000000000, 0.0000000000000000000, 0.0000000000000000000 ) ) ;
#133 = AXIS2_PLACEMENT_3D ( 'NONE', #283, #251, #287 ) ;
#134 = PRESENTATION_LAYER_ASSIGNMENT (  '', '', ( #79 ) ) ;
#135 = ORIENTED_EDGE ( 'NONE', *, *, #124, .F. ) ;
#136 = ORIENTED_EDGE ( 'NONE', *, *, #22, .T. ) ;
#137 = DIRECTION ( 'NONE',  ( 0.0000000000000000000, 0.0000000000000000000, 1.000000000000000000 ) ) ;
#138 = ORIENTED_EDGE ( 'NONE', *, *, #110, .T. ) ;
#139 = CARTESIAN_POINT ( 'NONE',  ( 0.0000000000000000000, 0.0000000000000000000, 3.000000000000000444 ) ) ;
#140 = LINE ( 'NONE', #144, #327 ) ;
#141 = CYLINDRICAL_SURFACE ( 'NONE', #205, 0.2500000000000000000 ) ;
#142 = MECHANICAL_DESIGN_GEOMETRIC_PRESENTATION_REPRESENTATION (  '', ( #309 ), #50 ) ;
#143 = DIRECTION ( 'NONE',  ( -1.000000000000000000, 0.0000000000000000000, 0.0000000000000000000 ) ) ;
#144 = CARTESIAN_POINT ( 'NONE',  ( -0.1250000000000001110, 0.0000000000000000000, 0.0000000000000000000 ) ) ;
#145 = DIRECTION ( 'NONE',  ( 1.000000000000000000, 0.0000000000000000000, -0.0000000000000000000 ) ) ;
#146 = PLANE ( 'NONE',  #210 ) ;
#147 = DIRECTION ( 'NONE',  ( 1.000000000000000000, 0.0000000000000000000, 0.0000000000000000000 ) ) ;
#148 = FACE_OUTER_BOUND ( 'NONE', #316, .T. ) ;
#149 = CARTESIAN_POINT ( 'NONE',  ( 0.0000000000000000000, 0.0000000000000000000, 3.000000000000000444 ) ) ;
#150 = CLOSED_SHELL ( 'NONE', ( #37, #74, #314, #368, #260, #9, #347, #231, #254, #320, #190, #41, #249 ) ) ;
#151 = DIRECTION ( 'NONE',  ( 0.0000000000000000000, 0.0000000000000000000, 1.000000000000000000 ) ) ;
#152 = ORIENTED_EDGE ( 'NONE', *, *, #289, .T. ) ;
#153 = VERTEX_POINT ( 'NONE', #72 ) ;
#154 = ORIENTED_EDGE ( 'NONE', *, *, #77, .F. ) ;
#155 = ORIENTED_EDGE ( 'NONE', *, *, #235, .F. ) ;
#156 = ORIENTED_EDGE ( 'NONE', *, *, #48, .F. ) ;
#157 = EDGE_CURVE ( 'NONE', #242, #252, #140, .T. ) ;
#158 = CIRCLE ( 'NONE', #90, 0.2500000000000000000 ) ;
#159 = EDGE_LOOP ( 'NONE', ( #5, #131, #162, #12 ) ) ;
#160 = CARTESIAN_POINT ( 'NONE',  ( 0.0000000000000000000, 0.0000000000000000000, 0.0000000000000000000 ) ) ;
#161 = DIRECTION ( 'NONE',  ( 0.0000000000000000000, 0.0000000000000000000, 1.000000000000000000 ) ) ;
#162 = ORIENTED_EDGE ( 'NONE', *, *, #184, .T. ) ;
#163 = DIRECTION ( 'NONE',  ( 0.0000000000000000000, 0.0000000000000000000, -1.000000000000000000 ) ) ;
#164 = VERTEX_POINT ( 'NONE', #363 ) ;
#165 = DIRECTION ( 'NONE',  ( -0.0000000000000000000, -0.0000000000000000000, -1.000000000000000000 ) ) ;
#166 = CARTESIAN_POINT ( 'NONE',  ( 0.0000000000000000000, 0.0000000000000000000, 0.0000000000000000000 ) ) ;
#167 = EDGE_CURVE ( 'NONE', #335, #128, #158, .T. ) ;
#168 = UNCERTAINTY_MEASURE_WITH_UNIT (LENGTH_MEASURE( 1.000000000000000082E-05 ), #236, 'distance_accuracy_value', 'NONE');
#169 = CARTESIAN_POINT ( 'NONE',  ( 0.1250000000000001943, 0.0000000000000000000, 1.500000000000000222 ) ) ;
#170 = CIRCLE ( 'NONE', #365, 0.1250000000000000278 ) ;
#171 = LINE ( 'NONE', #122, #318 ) ;
#172 = CYLINDRICAL_SURFACE ( 'NONE', #377, 0.1250000000000001110 ) ;
#173 = PRESENTATION_STYLE_ASSIGNMENT (( #264 ) ) ;
#174 = PRESENTATION_LAYER_ASSIGNMENT (  '', '', ( #309 ) ) ;
#175 = EDGE_CURVE ( 'NONE', #329, #335, #193, .T. ) ;
#176 = CARTESIAN_POINT ( 'NONE',  ( -0.2500000000000000000, 0.0000000000000000000, 3.000000000000000444 ) ) ;
#177 = EDGE_CURVE ( 'NONE', #93, #211, #197, .T. ) ;
#178 = DIRECTION ( 'NONE',  ( 0.0000000000000000000, 0.0000000000000000000, -1.000000000000000000 ) ) ;
#179 = ORIENTED_EDGE ( 'NONE', *, *, #167, .T. ) ;
#180 = ORIENTED_EDGE ( 'NONE', *, *, #83, .F. ) ;
#181 = ORIENTED_EDGE ( 'NONE', *, *, #218, .T. ) ;
#182 =( GEOMETRIC_REPRESENTATION_CONTEXT ( 3 ) GLOBAL_UNCERTAINTY_ASSIGNED_CONTEXT ( ( #91 ) ) GLOBAL_UNIT_ASSIGNED_CONTEXT ( ( #31, #213, #127 ) ) REPRESENTATION_CONTEXT ( 'NONE', 'WORKASPACE' ) );
#183 = FILL_AREA_STYLE_COLOUR ( '', #17 ) ;
#184 = EDGE_CURVE ( 'NONE', #357, #59, #253, .T. ) ;
#185 = VERTEX_POINT ( 'NONE', #321 ) ;
#186 = CARTESIAN_POINT ( 'NONE',  ( 0.0000000000000000000, 0.0000000000000000000, 3.000000000000000444 ) ) ;
#187 = EDGE_LOOP ( 'NONE', ( #156, #379, #138, #351 ) ) ;
#188 = ORIENTED_EDGE ( 'NONE', *, *, #121, .F. ) ;
#189 = AXIS2_PLACEMENT_3D ( 'NONE', #206, #125, #2 ) ;
#190 = ADVANCED_FACE ( 'NONE', ( #194, #364 ), #146, .T. ) ;
#191 = FACE_OUTER_BOUND ( 'NONE', #271, .T. ) ;
#192 = DIRECTION ( 'NONE',  ( 0.0000000000000000000, 0.0000000000000000000, 1.000000000000000000 ) ) ;
#193 = LINE ( 'NONE', #112, #308 ) ;
#194 = FACE_BOUND ( 'NONE', #243, .T. ) ;
#195 = CARTESIAN_POINT ( 'NONE',  ( 0.0000000000000000000, 0.0000000000000000000, 3.000000000000000444 ) ) ;
#196 = CIRCLE ( 'NONE', #34, 0.1250000000000001943 ) ;
#197 = LINE ( 'NONE', #75, #217 ) ;
#198 = DIRECTION ( 'NONE',  ( 1.000000000000000000, 0.0000000000000000000, 0.0000000000000000000 ) ) ;
#199 = CIRCLE ( 'NONE', #288, 0.2350000000000011524 ) ;
#200 = DIRECTION ( 'NONE',  ( -0.0000000000000000000, -0.0000000000000000000, -1.000000000000000000 ) ) ;
#201 = PRODUCT_DEFINITION_CONTEXT ( 'detailed design', #225, 'design' ) ;
#202 = DIRECTION ( 'NONE',  ( -0.0000000000000000000, -0.0000000000000000000, -1.000000000000000000 ) ) ;
#203 = CARTESIAN_POINT ( 'NONE',  ( -0.2350000000000011524, 0.0000000000000000000, 3.000000000000000444 ) ) ;
#204 = DIRECTION ( 'NONE',  ( -1.000000000000000000, 0.0000000000000000000, 0.0000000000000000000 ) ) ;
#205 = AXIS2_PLACEMENT_3D ( 'NONE', #99, #244, #33 ) ;
#206 = CARTESIAN_POINT ( 'NONE',  ( 0.0000000000000000000, 0.0000000000000000000, 3.000000000000000444 ) ) ;
#207 = APPLICATION_PROTOCOL_DEFINITION ( 'draft international standard', 'automotive_design', 1998, #57 ) ;
#208 = EDGE_LOOP ( 'NONE', ( #272, #130, #136, #109 ) ) ;
#209 = AXIS2_PLACEMENT_3D ( 'NONE', #95, #65, #132 ) ;
#210 = AXIS2_PLACEMENT_3D ( 'NONE', #343, #261, #145 ) ;
#211 = VERTEX_POINT ( 'NONE', #117 ) ;
#212 = DIRECTION ( 'NONE',  ( -0.0000000000000000000, -0.0000000000000000000, -1.000000000000000000 ) ) ;
#213 =( NAMED_UNIT ( * ) PLANE_ANGLE_UNIT ( ) SI_UNIT ( $, .RADIAN. ) );
#214 = ORIENTED_EDGE ( 'NONE', *, *, #345, .T. ) ;
#215 = SHAPE_DEFINITION_REPRESENTATION ( #298, #228 ) ;
#216 = ORIENTED_EDGE ( 'NONE', *, *, #77, .T. ) ;
#217 = VECTOR ( 'NONE', #312, 39.37007874015748143 ) ;
#218 = EDGE_CURVE ( 'NONE', #153, #128, #258, .T. ) ;
#219 = EDGE_LOOP ( 'NONE', ( #101, #155 ) ) ;
#220 = DIRECTION ( 'NONE',  ( 0.7071067811865486830, 0.0000000000000000000, 0.7071067811865462405 ) ) ;
#221 = UNCERTAINTY_MEASURE_WITH_UNIT (LENGTH_MEASURE( 1.000000000000000082E-05 ), #333, 'distance_accuracy_value', 'NONE');
#222 = CARTESIAN_POINT ( 'NONE',  ( 0.0000000000000000000, 0.0000000000000000000, 1.500000000000000222 ) ) ;
#223 = CARTESIAN_POINT ( 'NONE',  ( 0.0000000000000000000, 0.0000000000000000000, 0.1250000000000000278 ) ) ;
#224 = AXIS2_PLACEMENT_3D ( 'NONE', #367, #229, #147 ) ;
#225 = APPLICATION_CONTEXT ( 'automotive_design' ) ;
#226 = DIRECTION ( 'NONE',  ( -1.000000000000000000, 0.0000000000000000000, 0.0000000000000000000 ) ) ;
#227 = DIRECTION ( 'NONE',  ( -0.0000000000000000000, -0.0000000000000000000, -1.000000000000000000 ) ) ;
#228 = ADVANCED_BREP_SHAPE_REPRESENTATION ( 'Micro_KC-500-1500-125', ( #331, #115 ), #292 ) ;
#229 = DIRECTION ( 'NONE',  ( 0.0000000000000000000, 0.0000000000000000000, -1.000000000000000000 ) ) ;
#230 = DIMENSIONAL_EXPONENTS ( 1.000000000000000000, 0.0000000000000000000, 0.0000000000000000000, 0.0000000000000000000, 0.0000000000000000000, 0.0000000000000000000, 0.0000000000000000000 ) ;
#231 = ADVANCED_FACE ( 'NONE', ( #116 ), #300, .T. ) ;
#232 = AXIS2_PLACEMENT_3D ( 'NONE', #149, #369, #119 ) ;
#233 = CARTESIAN_POINT ( 'NONE',  ( -0.2500000000000000000, 0.0000000000000000000, 1.624999999999999556 ) ) ;
#234 = DIRECTION ( 'NONE',  ( -0.0000000000000000000, -0.0000000000000000000, -1.000000000000000000 ) ) ;
#235 = EDGE_CURVE ( 'NONE', #250, #164, #255, .T. ) ;
#236 =( CONVERSION_BASED_UNIT ( 'INCH', #262 ) LENGTH_UNIT ( ) NAMED_UNIT ( #18 ) );
#237 = AXIS2_PLACEMENT_3D ( 'NONE', #166, #161, #198 ) ;
#238 = DIRECTION ( 'NONE',  ( -0.0000000000000000000, -0.0000000000000000000, -1.000000000000000000 ) ) ;
#239 = CYLINDRICAL_SURFACE ( 'NONE', #189, 0.2500000000000000000 ) ;
#240 =( NAMED_UNIT ( * ) PLANE_ANGLE_UNIT ( ) SI_UNIT ( $, .RADIAN. ) );
#241 = ORIENTED_EDGE ( 'NONE', *, *, #22, .F. ) ;
#242 = VERTEX_POINT ( 'NONE', #47 ) ;
#243 = EDGE_LOOP ( 'NONE', ( #29, #7 ) ) ;
#244 = DIRECTION ( 'NONE',  ( -0.0000000000000000000, -0.0000000000000000000, -1.000000000000000000 ) ) ;
#245 = ORIENTED_EDGE ( 'NONE', *, *, #235, .T. ) ;
#246 = ORIENTED_EDGE ( 'NONE', *, *, #28, .T. ) ;
#247 = ORIENTED_EDGE ( 'NONE', *, *, #83, .T. ) ;
#248 = PRODUCT_CONTEXT ( 'NONE', #57, 'mechanical' ) ;
#249 = ADVANCED_FACE ( 'NONE', ( #278 ), #281, .T. ) ;
#250 = VERTEX_POINT ( 'NONE', #256 ) ;
#251 = DIRECTION ( 'NONE',  ( -0.0000000000000000000, -0.0000000000000000000, -1.000000000000000000 ) ) ;
#252 = VERTEX_POINT ( 'NONE', #360 ) ;
#253 = CIRCLE ( 'NONE', #340, 0.2500000000000000000 ) ;
#254 = ADVANCED_FACE ( 'NONE', ( #111 ), #11, .T. ) ;
#255 = CIRCLE ( 'NONE', #237, 0.2500000000000000000 ) ;
#256 = CARTESIAN_POINT ( 'NONE',  ( 0.2500000000000000000, 3.061616997868382402E-17, 0.0000000000000000000 ) ) ;
#257 = ORIENTED_EDGE ( 'NONE', *, *, #175, .F. ) ;
#258 = LINE ( 'NONE', #259, #120 ) ;
#259 = CARTESIAN_POINT ( 'NONE',  ( 0.2350000000000011524, 2.877919977996294002E-17, 3.000000000000000444 ) ) ;
#260 = ADVANCED_FACE ( 'NONE', ( #43 ), #89, .T. ) ;
#261 = DIRECTION ( 'NONE',  ( 0.0000000000000000000, 0.0000000000000000000, 1.000000000000000000 ) ) ;
#262 = LENGTH_MEASURE_WITH_UNIT ( LENGTH_MEASURE( 0.02539999999999999897 ), #82 );
#263 = PLANE ( 'NONE',  #232 ) ;
#264 = SURFACE_STYLE_USAGE ( .BOTH. , #118 ) ;
#265 = CARTESIAN_POINT ( 'NONE',  ( 0.0000000000000000000, 0.0000000000000000000, 1.500000000000000222 ) ) ;
#266 = DIRECTION ( 'NONE',  ( 1.000000000000000000, 0.0000000000000000000, 0.0000000000000000000 ) ) ;
#267 = ORIENTED_EDGE ( 'NONE', *, *, #21, .T. ) ;
#268 = SURFACE_STYLE_FILL_AREA ( #305 ) ;
#269 = AXIS2_PLACEMENT_3D ( 'NONE', #19, #200, #323 ) ;
#270 = EDGE_LOOP ( 'NONE', ( #135, #214, #152, #246 ) ) ;
#271 = EDGE_LOOP ( 'NONE', ( #267, #25, #96, #352 ) ) ;
#272 = ORIENTED_EDGE ( 'NONE', *, *, #325, .F. ) ;
#273 = EDGE_LOOP ( 'NONE', ( #154, #24 ) ) ;
#274 = VECTOR ( 'NONE', #13, 39.37007874015748143 ) ;
#275 = PRESENTATION_STYLE_ASSIGNMENT (( #1 ) ) ;
#276 = ORIENTED_EDGE ( 'NONE', *, *, #175, .T. ) ;
#277 = DIRECTION ( 'NONE',  ( 1.000000000000000000, 0.0000000000000000000, -0.0000000000000000000 ) ) ;
#278 = FACE_OUTER_BOUND ( 'NONE', #270, .T. ) ;
#279 = PLANE ( 'NONE',  #85 ) ;
#280 = ORIENTED_EDGE ( 'NONE', *, *, #285, .F. ) ;
#281 = CYLINDRICAL_SURFACE ( 'NONE', #63, 0.2500000000000000000 ) ;
#282 = CIRCLE ( 'NONE', #269, 0.2500000000000000555 ) ;
#283 = CARTESIAN_POINT ( 'NONE',  ( 0.0000000000000000000, 0.0000000000000000000, 1.500000000000000222 ) ) ;
#284 = CARTESIAN_POINT ( 'NONE',  ( 0.2500000000000000000, 3.061616997868382402E-17, 3.000000000000000444 ) ) ;
#285 = EDGE_CURVE ( 'NONE', #128, #335, #71, .T. ) ;
#286 = EDGE_CURVE ( 'NONE', #252, #211, #170, .T. ) ;
#287 = DIRECTION ( 'NONE',  ( -1.000000000000000000, 0.0000000000000000000, 0.0000000000000000000 ) ) ;
#288 = AXIS2_PLACEMENT_3D ( 'NONE', #290, #151, #266 ) ;
#289 = EDGE_CURVE ( 'NONE', #185, #164, #23, .T. ) ;
#290 = CARTESIAN_POINT ( 'NONE',  ( 0.0000000000000000000, 0.0000000000000000000, 3.000000000000000444 ) ) ;
#291 = FILL_AREA_STYLE_COLOUR ( '', #35 ) ;
#292 =( GEOMETRIC_REPRESENTATION_CONTEXT ( 3 ) GLOBAL_UNCERTAINTY_ASSIGNED_CONTEXT ( ( #221 ) ) GLOBAL_UNIT_ASSIGNED_CONTEXT ( ( #333, #240, #64 ) ) REPRESENTATION_CONTEXT ( 'NONE', 'WORKASPACE' ) );
#293 = SURFACE_STYLE_FILL_AREA ( #326 ) ;
#294 = CARTESIAN_POINT ( 'NONE',  ( 0.0000000000000000000, 0.0000000000000000000, 3.000000000000000444 ) ) ;
#295 = ORIENTED_EDGE ( 'NONE', *, *, #184, .F. ) ;
#296 = ORIENTED_EDGE ( 'NONE', *, *, #88, .T. ) ;
#297 = LENGTH_MEASURE_WITH_UNIT ( LENGTH_MEASURE( 0.02539999999999999897 ), #60 );
#298 = PRODUCT_DEFINITION_SHAPE ( 'NONE', 'NONE',  #114 ) ;
#299 = EDGE_LOOP ( 'NONE', ( #216, #39, #245, #94 ) ) ;
#300 = CONICAL_SURFACE ( 'NONE', #126, 0.2350000000000011524, 0.7853981633974380649 ) ;
#301 = ORIENTED_EDGE ( 'NONE', *, *, #306, .T. ) ;
#302 = LINE ( 'NONE', #30, #370 ) ;
#303 = LENGTH_MEASURE_WITH_UNIT ( LENGTH_MEASURE( 0.02539999999999999897 ), #100 );
#304 = FACE_OUTER_BOUND ( 'NONE', #299, .T. ) ;
#305 = FILL_AREA_STYLE ('',( #183 ) ) ;
#306 = EDGE_CURVE ( 'NONE', #153, #329, #199, .T. ) ;
#307 = CARTESIAN_POINT ( 'NONE',  ( 0.0000000000000000000, 0.0000000000000000000, 0.0000000000000000000 ) ) ;
#308 = VECTOR ( 'NONE', #40, 39.37007874015748854 ) ;
#309 = STYLED_ITEM ( 'NONE', ( #173 ), #331 ) ;
#310 = CARTESIAN_POINT ( 'NONE',  ( 0.0000000000000000000, 0.0000000000000000000, 0.1250000000000000000 ) ) ;
#311 = APPLICATION_PROTOCOL_DEFINITION ( 'draft international standard', 'automotive_design', 1998, #225 ) ;
#312 = DIRECTION ( 'NONE',  ( -0.0000000000000000000, -0.0000000000000000000, -1.000000000000000000 ) ) ;
#313 = DIRECTION ( 'NONE',  ( 0.0000000000000000000, 0.0000000000000000000, 1.000000000000000000 ) ) ;
#314 = ADVANCED_FACE ( 'NONE', ( #52 ), #98, .T. ) ;
#315 = DIRECTION ( 'NONE',  ( -1.000000000000000000, 0.0000000000000000000, 0.0000000000000000000 ) ) ;
#316 = EDGE_LOOP ( 'NONE', ( #247, #301 ) ) ;
#317 = DIRECTION ( 'NONE',  ( 1.000000000000000000, 0.0000000000000000000, 0.0000000000000000000 ) ) ;
#318 = VECTOR ( 'NONE', #322, 39.37007874015748143 ) ;
#319 = CARTESIAN_POINT ( 'NONE',  ( 0.0000000000000000000, 0.0000000000000000000, 2.985000000000001208 ) ) ;
#320 = ADVANCED_FACE ( 'NONE', ( #349 ), #172, .T. ) ;
#321 = CARTESIAN_POINT ( 'NONE',  ( -0.2500000000000000555, 0.0000000000000000000, 0.1250000000000000000 ) ) ;
#322 = DIRECTION ( 'NONE',  ( -0.0000000000000000000, -0.0000000000000000000, -1.000000000000000000 ) ) ;
#323 = DIRECTION ( 'NONE',  ( -1.000000000000000000, 0.0000000000000000000, 0.0000000000000000000 ) ) ;
#324 = CARTESIAN_POINT ( 'NONE',  ( -0.2500000000000000000, 0.0000000000000000000, 3.000000000000000444 ) ) ;
#325 = EDGE_CURVE ( 'NONE', #128, #59, #171, .T. ) ;
#326 = FILL_AREA_STYLE ('',( #291 ) ) ;
#327 = VECTOR ( 'NONE', #14, 39.37007874015748143 ) ;
#328 = LINE ( 'NONE', #176, #69 ) ;
#329 = VERTEX_POINT ( 'NONE', #203 ) ;
#330 = EDGE_LOOP ( 'NONE', ( #104, #296, #353, #188 ) ) ;
#331 = MANIFOLD_SOLID_BREP ( 'Cut-Revolve1', #150 ) ;
#332 = AXIS2_PLACEMENT_3D ( 'NONE', #160, #137, #341 ) ;
#333 =( CONVERSION_BASED_UNIT ( 'INCH', #297 ) LENGTH_UNIT ( ) NAMED_UNIT ( #44 ) );
#334 = VERTEX_POINT ( 'NONE', #56 ) ;
#335 = VERTEX_POINT ( 'NONE', #84 ) ;
#336 = DIRECTION ( 'NONE',  ( -0.0000000000000000000, -0.0000000000000000000, -1.000000000000000000 ) ) ;
#337 = CARTESIAN_POINT ( 'NONE',  ( 0.0000000000000000000, 0.0000000000000000000, 1.500000000000000222 ) ) ;
#338 = FACE_OUTER_BOUND ( 'NONE', #219, .T. ) ;
#339 = CIRCLE ( 'NONE', #106, 0.2350000000000011524 ) ;
#340 = AXIS2_PLACEMENT_3D ( 'NONE', #38, #81, #108 ) ;
#341 = DIRECTION ( 'NONE',  ( 1.000000000000000000, 0.0000000000000000000, 0.0000000000000000000 ) ) ;
#342 = CARTESIAN_POINT ( 'NONE',  ( 0.0000000000000000000, 0.0000000000000000000, 3.000000000000000444 ) ) ;
#343 = CARTESIAN_POINT ( 'NONE',  ( 0.2500000000000000555, 0.0000000000000000000, 0.1250000000000000000 ) ) ;
#344 = LINE ( 'NONE', #169, #26 ) ;
#345 = EDGE_CURVE ( 'NONE', #334, #185, #282, .T. ) ;
#346 = AXIS2_PLACEMENT_3D ( 'NONE', #294, #234, #53 ) ;
#347 = ADVANCED_FACE ( 'NONE', ( #148 ), #263, .T. ) ;
#348 = FACE_OUTER_BOUND ( 'NONE', #36, .T. ) ;
#349 = FACE_OUTER_BOUND ( 'NONE', #330, .T. ) ;
#350 = VECTOR ( 'NONE', #372, 39.37007874015748143 ) ;
#351 = ORIENTED_EDGE ( 'NONE', *, *, #15, .T. ) ;
#352 = ORIENTED_EDGE ( 'NONE', *, *, #157, .F. ) ;
#353 = ORIENTED_EDGE ( 'NONE', *, *, #157, .T. ) ;
#354 = CYLINDRICAL_SURFACE ( 'NONE', #97, 0.1250000000000001110 ) ;
#355 = CIRCLE ( 'NONE', #209, 0.2500000000000000000 ) ;
#356 = CONICAL_SURFACE ( 'NONE', #107, 0.2350000000000011524, 0.7853981633974380649 ) ;
#357 = VERTEX_POINT ( 'NONE', #233 ) ;
#358 = DIRECTION ( 'NONE',  ( 0.0000000000000000000, 0.0000000000000000000, 1.000000000000000000 ) ) ;
#359 = CARTESIAN_POINT ( 'NONE',  ( 0.1250000000000001943, 0.0000000000000000000, 1.500000000000000222 ) ) ;
#360 = CARTESIAN_POINT ( 'NONE',  ( -0.1250000000000000278, 0.0000000000000000000, 0.1250000000000000278 ) ) ;
#361 = DIRECTION ( 'NONE',  ( -0.0000000000000000000, -0.0000000000000000000, -1.000000000000000000 ) ) ;
#362 = ORIENTED_EDGE ( 'NONE', *, *, #218, .F. ) ;
#363 = CARTESIAN_POINT ( 'NONE',  ( -0.2500000000000000000, 0.0000000000000000000, 0.0000000000000000000 ) ) ;
#364 = FACE_OUTER_BOUND ( 'NONE', #273, .T. ) ;
#365 = AXIS2_PLACEMENT_3D ( 'NONE', #20, #202, #51 ) ;
#366 = DIRECTION ( 'NONE',  ( 1.000000000000000000, 0.0000000000000000000, 0.0000000000000000000 ) ) ;
#367 = CARTESIAN_POINT ( 'NONE',  ( 0.0000000000000000000, 0.0000000000000000000, 2.985000000000001208 ) ) ;
#368 = ADVANCED_FACE ( 'NONE', ( #348 ), #356, .T. ) ;
#369 = DIRECTION ( 'NONE',  ( 0.0000000000000000000, 0.0000000000000000000, 1.000000000000000000 ) ) ;
#370 = VECTOR ( 'NONE', #105, 39.37007874015748854 ) ;
#371 = PRODUCT_DEFINITION_FORMATION_WITH_SPECIFIED_SOURCE ( 'ANY', '', #66, .NOT_KNOWN. ) ;
#372 = DIRECTION ( 'NONE',  ( -0.0000000000000000000, -0.0000000000000000000, -1.000000000000000000 ) ) ;
#373 =( NAMED_UNIT ( * ) PLANE_ANGLE_UNIT ( ) SI_UNIT ( $, .RADIAN. ) );
#374 = DIRECTION ( 'NONE',  ( 0.0000000000000000000, 0.0000000000000000000, 1.000000000000000000 ) ) ;
#375 = ORIENTED_EDGE ( 'NONE', *, *, #325, .T. ) ;
#376 = CIRCLE ( 'NONE', #133, 0.1250000000000001943 ) ;
#377 = AXIS2_PLACEMENT_3D ( 'NONE', #86, #87, #204 ) ;
#378 = FACE_OUTER_BOUND ( 'NONE', #208, .T. ) ;
#379 = ORIENTED_EDGE ( 'NONE', *, *, #88, .F. ) ;
ENDSEC;
END-ISO-10303-21;
