ISO-10303-21;
HEADER;
FILE_DESCRIPTION (( 'STEP AP214' ),
    '1' );
FILE_NAME ('01735.STEP',
    '2023-06-22T14:45:42',
    ( '' ),
    ( '' ),
    'SwSTEP 2.0',
    'SolidWorks 2023',
    '' );
FILE_SCHEMA (( 'AUTOMOTIVE_DESIGN' ));
ENDSEC;

DATA;
#1 = ADVANCED_FACE ( 'NONE', ( #221 ), #9, .T. ) ;
#2 = PRODUCT_DEFINITION_SHAPE ( 'NONE', 'NONE',  #240 ) ;
#3 = DIRECTION ( 'NONE',  ( 1.113315271952139481E-16, 1.000000000000000000, -0.000000000000000000 ) ) ;
#4 = PRESENTATION_LAYER_ASSIGNMENT (  '', '', ( #150 ) ) ;
#5 = ADVANCED_FACE ( 'NONE', ( #166 ), #142, .T. ) ;
#6 = PRESENTATION_STYLE_ASSIGNMENT (( #100 ) ) ;
#7 = MECHANICAL_DESIGN_GEOMETRIC_PRESENTATION_REPRESENTATION (  '', ( #150 ), #179 ) ;
#8 =( GEOMETRIC_REPRESENTATION_CONTEXT ( 3 ) GLOBAL_UNCERTAINTY_ASSIGNED_CONTEXT ( ( #38 ) ) GLOBAL_UNIT_ASSIGNED_CONTEXT ( ( #74, #262, #56 ) ) REPRESENTATION_CONTEXT ( 'NONE', 'WORKASPACE' ) );
#9 = CYLINDRICAL_SURFACE ( 'NONE', #188, 0.5000000000000000000 ) ;
#10 = PRODUCT_DEFINITION_CONTEXT ( 'detailed design', #45, 'design' ) ;
#11 = FACE_OUTER_BOUND ( 'NONE', #197, .T. ) ;
#12 = ORIENTED_EDGE ( 'NONE', *, *, #83, .F. ) ;
#13 = STYLED_ITEM ( 'NONE', ( #207 ), #65 ) ;
#14 = STYLED_ITEM ( 'NONE', ( #260 ), #132 ) ;
#15 = CARTESIAN_POINT ( 'NONE',  ( 0.5000000000000001110, 1.250000000000000000, 6.123233995736766036E-17 ) ) ;
#16 = ORIENTED_EDGE ( 'NONE', *, *, #165, .F. ) ;
#17 =( NAMED_UNIT ( * ) SI_UNIT ( $, .STERADIAN. ) SOLID_ANGLE_UNIT ( ) );
#18 = ADVANCED_FACE ( 'NONE', ( #145 ), #180, .F. ) ;
#19 = AXIS2_PLACEMENT_3D ( 'NONE', #175, #296, #135 ) ;
#20 = DIMENSIONAL_EXPONENTS ( 1.000000000000000000, 0.000000000000000000, 0.000000000000000000, 0.000000000000000000, 0.000000000000000000, 0.000000000000000000, 0.000000000000000000 ) ;
#21 = DIRECTION ( 'NONE',  ( -1.000000000000000000, 1.113315271952139481E-16, 0.000000000000000000 ) ) ;
#22 = CARTESIAN_POINT ( 'NONE',  ( 3.098677236904665650E-33, 1.250000000000000000, 0.000000000000000000 ) ) ;
#23 = PRODUCT ( '01735', '01735', '', ( #250 ) ) ;
#24 = AXIS2_PLACEMENT_3D ( 'NONE', #253, #48, #148 ) ;
#25 = UNCERTAINTY_MEASURE_WITH_UNIT (LENGTH_MEASURE( 1.000000000000000082E-05 ), #238, 'distance_accuracy_value', 'NONE');
#26 = DIRECTION ( 'NONE',  ( -1.000000000000000000, 0.000000000000000000, 0.000000000000000000 ) ) ;
#27 = LENGTH_MEASURE_WITH_UNIT ( LENGTH_MEASURE( 0.02539999999999999897 ), #290 );
#28 = CIRCLE ( 'NONE', #119, 0.4999999999999997224 ) ;
#29 = CARTESIAN_POINT ( 'NONE',  ( 0.000000000000000000, 0.000000000000000000, 0.000000000000000000 ) ) ;
#30 = DIRECTION ( 'NONE',  ( -0.000000000000000000, -1.000000000000000000, -0.000000000000000000 ) ) ;
#31 = DIRECTION ( 'NONE',  ( 0.000000000000000000, 0.000000000000000000, -1.000000000000000000 ) ) ;
#32 = EDGE_LOOP ( 'NONE', ( #194, #299 ) ) ;
#33 = EDGE_LOOP ( 'NONE', ( #103, #273, #178, #12 ) ) ;
#34 = COLOUR_RGB ( '',0.7921568627450980005, 0.8196078431372548767, 0.9333333333333333481 ) ;
#35 = AXIS2_PLACEMENT_3D ( 'NONE', #247, #84, #272 ) ;
#36 = MANIFOLD_SOLID_BREP ( 'Revolve - Cutting Edge', #115 ) ;
#37 = PLANE ( 'NONE',  #300 ) ;
#38 = UNCERTAINTY_MEASURE_WITH_UNIT (LENGTH_MEASURE( 1.000000000000000082E-05 ), #74, 'distance_accuracy_value', 'NONE');
#39 =( NAMED_UNIT ( * ) PLANE_ANGLE_UNIT ( ) SI_UNIT ( $, .RADIAN. ) );
#40 = VERTEX_POINT ( 'NONE', #276 ) ;
#41 = CARTESIAN_POINT ( 'NONE',  ( 0.000000000000000000, 0.000000000000000000, 0.000000000000000000 ) ) ;
#42 = STYLED_ITEM ( 'NONE', ( #90 ), #36 ) ;
#43 = FACE_OUTER_BOUND ( 'NONE', #107, .T. ) ;
#44 = LINE ( 'NONE', #139, #279 ) ;
#45 = APPLICATION_CONTEXT ( 'automotive_design' ) ;
#46 = APPLICATION_PROTOCOL_DEFINITION ( 'draft international standard', 'automotive_design', 1998, #45 ) ;
#47 = DIRECTION ( 'NONE',  ( 1.113315271952139481E-16, 1.000000000000000000, -0.000000000000000000 ) ) ;
#48 = DIRECTION ( 'NONE',  ( 0.000000000000000000, 1.000000000000000000, 0.000000000000000000 ) ) ;
#49 = DIRECTION ( 'NONE',  ( -1.000000000000000000, 0.000000000000000000, 0.000000000000000000 ) ) ;
#50 = LINE ( 'NONE', #164, #76 ) ;
#51 = EDGE_CURVE ( 'NONE', #61, #108, #50, .T. ) ;
#52 = CARTESIAN_POINT ( 'NONE',  ( 0.000000000000000000, 0.000000000000000000, 0.000000000000000000 ) ) ;
#53 = SURFACE_SIDE_STYLE ('',( #123 ) ) ;
#54 = FILL_AREA_STYLE ('',( #154 ) ) ;
#55 = EDGE_CURVE ( 'NONE', #40, #110, #44, .T. ) ;
#56 =( NAMED_UNIT ( * ) SI_UNIT ( $, .STERADIAN. ) SOLID_ANGLE_UNIT ( ) );
#57 = LENGTH_MEASURE_WITH_UNIT ( LENGTH_MEASURE( 0.02539999999999999897 ), #160 );
#58 = ORIENTED_EDGE ( 'NONE', *, *, #149, .F. ) ;
#59 = SURFACE_SIDE_STYLE ('',( #227 ) ) ;
#60 = DIRECTION ( 'NONE',  ( 1.113315271952139481E-16, 1.000000000000000000, -0.000000000000000000 ) ) ;
#61 = VERTEX_POINT ( 'NONE', #73 ) ;
#62 = CARTESIAN_POINT ( 'NONE',  ( -0.4999999999999996114, 4.000000000000000000, 0.000000000000000000 ) ) ;
#63 = DIRECTION ( 'NONE',  ( 0.000000000000000000, 0.000000000000000000, -1.000000000000000000 ) ) ;
#64 = EDGE_LOOP ( 'NONE', ( #294, #303, #58, #133 ) ) ;
#65 = ADVANCED_FACE ( 'NONE', ( #169 ), #88, .T. ) ;
#66 = SHAPE_DEFINITION_REPRESENTATION ( #2, #201 ) ;
#67 =( CONVERSION_BASED_UNIT ( 'INCH', #278 ) LENGTH_UNIT ( ) NAMED_UNIT ( #237 ) );
#68 = CARTESIAN_POINT ( 'NONE',  ( 0.000000000000000000, 0.000000000000000000, 0.000000000000000000 ) ) ;
#69 = COLOUR_RGB ( '',1.000000000000000000, 0.000000000000000000, 0.000000000000000000 ) ;
#70 = DIRECTION ( 'NONE',  ( 0.000000000000000000, 0.000000000000000000, -1.000000000000000000 ) ) ;
#71 = DIRECTION ( 'NONE',  ( -1.000000000000000000, 0.000000000000000000, 0.000000000000000000 ) ) ;
#72 = DIMENSIONAL_EXPONENTS ( 1.000000000000000000, 0.000000000000000000, 0.000000000000000000, 0.000000000000000000, 0.000000000000000000, 0.000000000000000000, 0.000000000000000000 ) ;
#73 = CARTESIAN_POINT ( 'NONE',  ( 0.000000000000000000, 1.250000000000000000, -0.5000000000000000000 ) ) ;
#74 =( CONVERSION_BASED_UNIT ( 'INCH', #288 ) LENGTH_UNIT ( ) NAMED_UNIT ( #96 ) );
#75 = SURFACE_STYLE_FILL_AREA ( #289 ) ;
#76 = VECTOR ( 'NONE', #249, 39.37007874015748143 ) ;
#77 = AXIS2_PLACEMENT_3D ( 'NONE', #155, #266, #229 ) ;
#78 =( NAMED_UNIT ( * ) SI_UNIT ( $, .STERADIAN. ) SOLID_ANGLE_UNIT ( ) );
#79 = ORIENTED_EDGE ( 'NONE', *, *, #189, .F. ) ;
#80 =( CONVERSION_BASED_UNIT ( 'INCH', #57 ) LENGTH_UNIT ( ) NAMED_UNIT ( #72 ) );
#81 = DIRECTION ( 'NONE',  ( 1.113315271952139481E-16, 1.000000000000000000, -0.000000000000000000 ) ) ;
#82 = ORIENTED_EDGE ( 'NONE', *, *, #233, .T. ) ;
#83 = EDGE_CURVE ( 'NONE', #110, #108, #219, .T. ) ;
#84 = DIRECTION ( 'NONE',  ( -0.000000000000000000, -1.000000000000000000, -0.000000000000000000 ) ) ;
#85 = FILL_AREA_STYLE_COLOUR ( '', #257 ) ;
#86 = MECHANICAL_DESIGN_GEOMETRIC_PRESENTATION_REPRESENTATION (  '', ( #198 ), #225 ) ;
#87 =( LENGTH_UNIT ( ) NAMED_UNIT ( * ) SI_UNIT ( $, .METRE. ) );
#88 = PLANE ( 'NONE',  #24 ) ;
#89 = CARTESIAN_POINT ( 'NONE',  ( 0.000000000000000000, 0.000000000000000000, 0.000000000000000000 ) ) ;
#90 = PRESENTATION_STYLE_ASSIGNMENT (( #248 ) ) ;
#91 = LENGTH_MEASURE_WITH_UNIT ( LENGTH_MEASURE( 0.02539999999999999897 ), #87 );
#92 =( LENGTH_UNIT ( ) NAMED_UNIT ( * ) SI_UNIT ( $, .METRE. ) );
#93 = VECTOR ( 'NONE', #293, 39.37007874015748143 ) ;
#94 = SURFACE_STYLE_USAGE ( .BOTH. , #182 ) ;
#95 = DIMENSIONAL_EXPONENTS ( 1.000000000000000000, 0.000000000000000000, 0.000000000000000000, 0.000000000000000000, 0.000000000000000000, 0.000000000000000000, 0.000000000000000000 ) ;
#96 = DIMENSIONAL_EXPONENTS ( 1.000000000000000000, 0.000000000000000000, 0.000000000000000000, 0.000000000000000000, 0.000000000000000000, 0.000000000000000000, 0.000000000000000000 ) ;
#97 = CYLINDRICAL_SURFACE ( 'NONE', #101, 0.5000000000000000000 ) ;
#98 = COLOUR_RGB ( '',1.000000000000000000, 0.000000000000000000, 0.000000000000000000 ) ;
#99 =( NAMED_UNIT ( * ) PLANE_ANGLE_UNIT ( ) SI_UNIT ( $, .RADIAN. ) );
#100 = SURFACE_STYLE_USAGE ( .BOTH. , #53 ) ;
#101 = AXIS2_PLACEMENT_3D ( 'NONE', #29, #151, #191 ) ;
#102 = SURFACE_STYLE_USAGE ( .BOTH. , #187 ) ;
#103 = ORIENTED_EDGE ( 'NONE', *, *, #55, .F. ) ;
#104 = CARTESIAN_POINT ( 'NONE',  ( 0.5000000000000001110, 4.000000000000000000, 6.123233995736764803E-17 ) ) ;
#105 = ORIENTED_EDGE ( 'NONE', *, *, #189, .T. ) ;
#106 = CARTESIAN_POINT ( 'NONE',  ( 0.000000000000000000, 1.250000000000000000, 0.000000000000000000 ) ) ;
#107 = EDGE_LOOP ( 'NONE', ( #105, #177, #224, #136 ) ) ;
#108 = VERTEX_POINT ( 'NONE', #215 ) ;
#109 = FACE_OUTER_BOUND ( 'NONE', #32, .T. ) ;
#110 = VERTEX_POINT ( 'NONE', #259 ) ;
#111 = ADVANCED_FACE ( 'NONE', ( #170 ), #97, .T. ) ;
#112 = UNCERTAINTY_MEASURE_WITH_UNIT (LENGTH_MEASURE( 1.000000000000000082E-05 ), #209, 'distance_accuracy_value', 'NONE');
#113 = PLANE ( 'NONE',  #19 ) ;
#114 = DIRECTION ( 'NONE',  ( -0.000000000000000000, -1.000000000000000000, -0.000000000000000000 ) ) ;
#115 = CLOSED_SHELL ( 'NONE', ( #111, #65, #1, #216 ) ) ;
#116 = UNCERTAINTY_MEASURE_WITH_UNIT (LENGTH_MEASURE( 1.000000000000000082E-05 ), #80, 'distance_accuracy_value', 'NONE');
#117 =( NAMED_UNIT ( * ) PLANE_ANGLE_UNIT ( ) SI_UNIT ( $, .RADIAN. ) );
#118 =( CONVERSION_BASED_UNIT ( 'INCH', #91 ) LENGTH_UNIT ( ) NAMED_UNIT ( #95 ) );
#119 = AXIS2_PLACEMENT_3D ( 'NONE', #122, #3, #71 ) ;
#120 = SURFACE_STYLE_FILL_AREA ( #186 ) ;
#121 = DIMENSIONAL_EXPONENTS ( 1.000000000000000000, 0.000000000000000000, 0.000000000000000000, 0.000000000000000000, 0.000000000000000000, 0.000000000000000000, 0.000000000000000000 ) ;
#122 = CARTESIAN_POINT ( 'NONE',  ( 3.061616997868383634E-16, 4.000000000000000000, 0.000000000000000000 ) ) ;
#123 = SURFACE_STYLE_FILL_AREA ( #54 ) ;
#124 = PRESENTATION_LAYER_ASSIGNMENT (  '', '', ( #13 ) ) ;
#125 = AXIS2_PLACEMENT_3D ( 'NONE', #217, #235, #26 ) ;
#126 = FILL_AREA_STYLE_COLOUR ( '', #167 ) ;
#127 = ORIENTED_EDGE ( 'NONE', *, *, #152, .T. ) ;
#128 =( GEOMETRIC_REPRESENTATION_CONTEXT ( 3 ) GLOBAL_UNCERTAINTY_ASSIGNED_CONTEXT ( ( #112 ) ) GLOBAL_UNIT_ASSIGNED_CONTEXT ( ( #209, #117, #141 ) ) REPRESENTATION_CONTEXT ( 'NONE', 'WORKASPACE' ) );
#129 =( LENGTH_UNIT ( ) NAMED_UNIT ( * ) SI_UNIT ( $, .METRE. ) );
#130 = EDGE_LOOP ( 'NONE', ( #218, #244 ) ) ;
#131 = DIRECTION ( 'NONE',  ( 0.000000000000000000, 0.000000000000000000, -1.000000000000000000 ) ) ;
#132 = MANIFOLD_SOLID_BREP ( 'Revolve - Tool Body (Straight Shanked)', #285 ) ;
#133 = ORIENTED_EDGE ( 'NONE', *, *, #51, .F. ) ;
#134 = MECHANICAL_DESIGN_GEOMETRIC_PRESENTATION_REPRESENTATION (  '', ( #13 ), #291 ) ;
#135 = DIRECTION ( 'NONE',  ( 1.000000000000000000, -1.113315271952139481E-16, 0.000000000000000000 ) ) ;
#136 = ORIENTED_EDGE ( 'NONE', *, *, #208, .F. ) ;
#137 = CIRCLE ( 'NONE', #192, 0.5000000000000000000 ) ;
#138 = CYLINDRICAL_SURFACE ( 'NONE', #77, 0.4999999999999998335 ) ;
#139 = CARTESIAN_POINT ( 'NONE',  ( 6.123233995736766036E-17, 0.000000000000000000, 0.5000000000000000000 ) ) ;
#140 =( CONVERSION_BASED_UNIT ( 'INCH', #281 ) LENGTH_UNIT ( ) NAMED_UNIT ( #20 ) );
#141 =( NAMED_UNIT ( * ) SI_UNIT ( $, .STERADIAN. ) SOLID_ANGLE_UNIT ( ) );
#142 = CYLINDRICAL_SURFACE ( 'NONE', #161, 0.4999999999999998335 ) ;
#143 = PRESENTATION_LAYER_ASSIGNMENT (  '', '', ( #42 ) ) ;
#144 = AXIS2_PLACEMENT_3D ( 'NONE', #52, #168, #31 ) ;
#145 = FACE_OUTER_BOUND ( 'NONE', #159, .T. ) ;
#146 = UNCERTAINTY_MEASURE_WITH_UNIT (LENGTH_MEASURE( 1.000000000000000082E-05 ), #118, 'distance_accuracy_value', 'NONE');
#147 = FILL_AREA_STYLE ('',( #210 ) ) ;
#148 = DIRECTION ( 'NONE',  ( 0.000000000000000000, -0.000000000000000000, 1.000000000000000000 ) ) ;
#149 = EDGE_CURVE ( 'NONE', #108, #110, #181, .T. ) ;
#150 = STYLED_ITEM ( 'NONE', ( #6 ), #111 ) ;
#151 = DIRECTION ( 'NONE',  ( -0.000000000000000000, -1.000000000000000000, -0.000000000000000000 ) ) ;
#152 = EDGE_CURVE ( 'NONE', #270, #242, #261, .T. ) ;
#153 = EDGE_CURVE ( 'NONE', #242, #270, #28, .T. ) ;
#154 = FILL_AREA_STYLE_COLOUR ( '', #267 ) ;
#155 = CARTESIAN_POINT ( 'NONE',  ( 3.061616997868383634E-16, 4.000000000000000000, 0.000000000000000000 ) ) ;
#156 = ORIENTED_EDGE ( 'NONE', *, *, #153, .T. ) ;
#157 = PRESENTATION_LAYER_ASSIGNMENT (  '', '', ( #268 ) ) ;
#158 = ORIENTED_EDGE ( 'NONE', *, *, #153, .F. ) ;
#159 = EDGE_LOOP ( 'NONE', ( #79, #246 ) ) ;
#160 =( LENGTH_UNIT ( ) NAMED_UNIT ( * ) SI_UNIT ( $, .METRE. ) );
#161 = AXIS2_PLACEMENT_3D ( 'NONE', #251, #280, #49 ) ;
#162 = CARTESIAN_POINT ( 'NONE',  ( -0.4999999999999994449, 4.000000000000000000, 0.000000000000000000 ) ) ;
#163 = AXIS2_PLACEMENT_3D ( 'NONE', #176, #271, #63 ) ;
#164 = CARTESIAN_POINT ( 'NONE',  ( 0.000000000000000000, 0.000000000000000000, -0.5000000000000000000 ) ) ;
#165 = EDGE_CURVE ( 'NONE', #173, #242, #258, .T. ) ;
#166 = FACE_OUTER_BOUND ( 'NONE', #228, .T. ) ;
#167 = COLOUR_RGB ( '',0.7921568627450980005, 0.8196078431372548767, 0.9333333333333333481 ) ;
#168 = DIRECTION ( 'NONE',  ( -0.000000000000000000, -1.000000000000000000, -0.000000000000000000 ) ) ;
#169 = FACE_OUTER_BOUND ( 'NONE', #130, .T. ) ;
#170 = FACE_OUTER_BOUND ( 'NONE', #64, .T. ) ;
#171 = AXIS2_PLACEMENT_3D ( 'NONE', #22, #47, #21 ) ;
#172 = CIRCLE ( 'NONE', #35, 0.5000000000000000000 ) ;
#173 = VERTEX_POINT ( 'NONE', #15 ) ;
#174 = PRESENTATION_STYLE_ASSIGNMENT (( #243 ) ) ;
#175 = CARTESIAN_POINT ( 'NONE',  ( 0.5000000000000000000, 4.000000000000000000, 0.000000000000000000 ) ) ;
#176 = CARTESIAN_POINT ( 'NONE',  ( 0.000000000000000000, 1.250000000000000000, 0.000000000000000000 ) ) ;
#177 = ORIENTED_EDGE ( 'NONE', *, *, #165, .T. ) ;
#178 = ORIENTED_EDGE ( 'NONE', *, *, #51, .T. ) ;
#179 =( GEOMETRIC_REPRESENTATION_CONTEXT ( 3 ) GLOBAL_UNCERTAINTY_ASSIGNED_CONTEXT ( ( #25 ) ) GLOBAL_UNIT_ASSIGNED_CONTEXT ( ( #238, #99, #78 ) ) REPRESENTATION_CONTEXT ( 'NONE', 'WORKASPACE' ) );
#180 = PLANE ( 'NONE',  #171 ) ;
#181 = CIRCLE ( 'NONE', #144, 0.5000000000000000000 ) ;
#182 = SURFACE_SIDE_STYLE ('',( #120 ) ) ;
#183 =( LENGTH_UNIT ( ) NAMED_UNIT ( * ) SI_UNIT ( $, .METRE. ) );
#184 = ADVANCED_FACE ( 'NONE', ( #11 ), #113, .F. ) ;
#185 = CIRCLE ( 'NONE', #309, 0.5000000000000000000 ) ;
#186 = FILL_AREA_STYLE ('',( #236 ) ) ;
#187 = SURFACE_SIDE_STYLE ('',( #75 ) ) ;
#188 = AXIS2_PLACEMENT_3D ( 'NONE', #68, #114, #206 ) ;
#189 = EDGE_CURVE ( 'NONE', #200, #173, #185, .T. ) ;
#190 =( LENGTH_UNIT ( ) NAMED_UNIT ( * ) SI_UNIT ( $, .METRE. ) );
#191 = DIRECTION ( 'NONE',  ( 0.000000000000000000, 0.000000000000000000, -1.000000000000000000 ) ) ;
#192 = AXIS2_PLACEMENT_3D ( 'NONE', #106, #302, #301 ) ;
#193 = CARTESIAN_POINT ( 'NONE',  ( 0.000000000000000000, 0.000000000000000000, 0.000000000000000000 ) ) ;
#194 = ORIENTED_EDGE ( 'NONE', *, *, #149, .T. ) ;
#195 = LENGTH_MEASURE_WITH_UNIT ( LENGTH_MEASURE( 0.02539999999999999897 ), #129 );
#196 = DIRECTION ( 'NONE',  ( -1.000000000000000000, 0.000000000000000000, 0.000000000000000000 ) ) ;
#197 = EDGE_LOOP ( 'NONE', ( #127, #156 ) ) ;
#198 = STYLED_ITEM ( 'NONE', ( #232 ), #1 ) ;
#199 = DIRECTION ( 'NONE',  ( 0.000000000000000000, -1.000000000000000000, -0.000000000000000000 ) ) ;
#200 = VERTEX_POINT ( 'NONE', #298 ) ;
#201 = ADVANCED_BREP_SHAPE_REPRESENTATION ( '01735', ( #36, #132, #214 ), #128 ) ;
#202 = CARTESIAN_POINT ( 'NONE',  ( 0.000000000000000000, 1.250000000000000000, 0.000000000000000000 ) ) ;
#203 = SURFACE_STYLE_FILL_AREA ( #147 ) ;
#204 = DIRECTION ( 'NONE',  ( 0.000000000000000000, 0.000000000000000000, 1.000000000000000000 ) ) ;
#205 = DIRECTION ( 'NONE',  ( -0.000000000000000000, -1.000000000000000000, -0.000000000000000000 ) ) ;
#206 = DIRECTION ( 'NONE',  ( 0.000000000000000000, 0.000000000000000000, -1.000000000000000000 ) ) ;
#207 = PRESENTATION_STYLE_ASSIGNMENT (( #94 ) ) ;
#208 = EDGE_CURVE ( 'NONE', #200, #270, #245, .T. ) ;
#209 =( CONVERSION_BASED_UNIT ( 'INCH', #195 ) LENGTH_UNIT ( ) NAMED_UNIT ( #121 ) );
#210 = FILL_AREA_STYLE_COLOUR ( '', #34 ) ;
#211 =( NAMED_UNIT ( * ) PLANE_ANGLE_UNIT ( ) SI_UNIT ( $, .RADIAN. ) );
#212 = MECHANICAL_DESIGN_GEOMETRIC_PRESENTATION_REPRESENTATION (  '', ( #42 ), #256 ) ;
#213 = MECHANICAL_DESIGN_GEOMETRIC_PRESENTATION_REPRESENTATION (  '', ( #14 ), #8 ) ;
#214 = AXIS2_PLACEMENT_3D ( 'NONE', #89, #204, #307 ) ;
#215 = CARTESIAN_POINT ( 'NONE',  ( 0.000000000000000000, 0.000000000000000000, -0.5000000000000000000 ) ) ;
#216 = ADVANCED_FACE ( 'NONE', ( #109 ), #37, .T. ) ;
#217 = CARTESIAN_POINT ( 'NONE',  ( 3.061616997868383634E-16, 4.000000000000000000, 0.000000000000000000 ) ) ;
#218 = ORIENTED_EDGE ( 'NONE', *, *, #269, .F. ) ;
#219 = CIRCLE ( 'NONE', #234, 0.5000000000000000000 ) ;
#220 = CIRCLE ( 'NONE', #163, 0.5000000000000000000 ) ;
#221 = FACE_OUTER_BOUND ( 'NONE', #33, .T. ) ;
#222 = FILL_AREA_STYLE ('',( #85 ) ) ;
#223 = UNCERTAINTY_MEASURE_WITH_UNIT (LENGTH_MEASURE( 1.000000000000000082E-05 ), #140, 'distance_accuracy_value', 'NONE');
#224 = ORIENTED_EDGE ( 'NONE', *, *, #152, .F. ) ;
#225 =( GEOMETRIC_REPRESENTATION_CONTEXT ( 3 ) GLOBAL_UNCERTAINTY_ASSIGNED_CONTEXT ( ( #295 ) ) GLOBAL_UNIT_ASSIGNED_CONTEXT ( ( #67, #254, #305 ) ) REPRESENTATION_CONTEXT ( 'NONE', 'WORKASPACE' ) );
#226 = VECTOR ( 'NONE', #81, 39.37007874015748143 ) ;
#227 = SURFACE_STYLE_FILL_AREA ( #222 ) ;
#228 = EDGE_LOOP ( 'NONE', ( #16, #82, #264, #158 ) ) ;
#229 = DIRECTION ( 'NONE',  ( -1.000000000000000000, 0.000000000000000000, 0.000000000000000000 ) ) ;
#230 = SURFACE_STYLE_FILL_AREA ( #252 ) ;
#231 = SURFACE_SIDE_STYLE ('',( #230 ) ) ;
#232 = PRESENTATION_STYLE_ASSIGNMENT (( #277 ) ) ;
#233 = EDGE_CURVE ( 'NONE', #173, #200, #137, .T. ) ;
#234 = AXIS2_PLACEMENT_3D ( 'NONE', #193, #30, #70 ) ;
#235 = DIRECTION ( 'NONE',  ( 1.113315271952139481E-16, 1.000000000000000000, -0.000000000000000000 ) ) ;
#236 = FILL_AREA_STYLE_COLOUR ( '', #98 ) ;
#237 = DIMENSIONAL_EXPONENTS ( 1.000000000000000000, 0.000000000000000000, 0.000000000000000000, 0.000000000000000000, 0.000000000000000000, 0.000000000000000000, 0.000000000000000000 ) ;
#238 =( CONVERSION_BASED_UNIT ( 'INCH', #27 ) LENGTH_UNIT ( ) NAMED_UNIT ( #286 ) );
#239 =( GEOMETRIC_REPRESENTATION_CONTEXT ( 3 ) GLOBAL_UNCERTAINTY_ASSIGNED_CONTEXT ( ( #116 ) ) GLOBAL_UNIT_ASSIGNED_CONTEXT ( ( #80, #39, #241 ) ) REPRESENTATION_CONTEXT ( 'NONE', 'WORKASPACE' ) );
#240 = PRODUCT_DEFINITION ( 'UNKNOWN', '', #304, #10 ) ;
#241 =( NAMED_UNIT ( * ) SI_UNIT ( $, .STERADIAN. ) SOLID_ANGLE_UNIT ( ) );
#242 = VERTEX_POINT ( 'NONE', #263 ) ;
#243 = SURFACE_STYLE_USAGE ( .BOTH. , #59 ) ;
#244 = ORIENTED_EDGE ( 'NONE', *, *, #255, .F. ) ;
#245 = LINE ( 'NONE', #62, #226 ) ;
#246 = ORIENTED_EDGE ( 'NONE', *, *, #233, .F. ) ;
#247 = CARTESIAN_POINT ( 'NONE',  ( 0.000000000000000000, 1.250000000000000000, 0.000000000000000000 ) ) ;
#248 = SURFACE_STYLE_USAGE ( .BOTH. , #308 ) ;
#249 = DIRECTION ( 'NONE',  ( -0.000000000000000000, -1.000000000000000000, -0.000000000000000000 ) ) ;
#250 = PRODUCT_CONTEXT ( 'NONE', #265, 'mechanical' ) ;
#251 = CARTESIAN_POINT ( 'NONE',  ( 3.061616997868383634E-16, 4.000000000000000000, 0.000000000000000000 ) ) ;
#252 = FILL_AREA_STYLE ('',( #297 ) ) ;
#253 = CARTESIAN_POINT ( 'NONE',  ( 0.000000000000000000, 1.250000000000000000, 0.000000000000000000 ) ) ;
#254 =( NAMED_UNIT ( * ) PLANE_ANGLE_UNIT ( ) SI_UNIT ( $, .RADIAN. ) );
#255 = EDGE_CURVE ( 'NONE', #40, #61, #172, .T. ) ;
#256 =( GEOMETRIC_REPRESENTATION_CONTEXT ( 3 ) GLOBAL_UNCERTAINTY_ASSIGNED_CONTEXT ( ( #146 ) ) GLOBAL_UNIT_ASSIGNED_CONTEXT ( ( #118, #211, #282 ) ) REPRESENTATION_CONTEXT ( 'NONE', 'WORKASPACE' ) );
#257 = COLOUR_RGB ( '',1.000000000000000000, 0.000000000000000000, 0.000000000000000000 ) ;
#258 = LINE ( 'NONE', #104, #93 ) ;
#259 = CARTESIAN_POINT ( 'NONE',  ( 6.123233995736766036E-17, 0.000000000000000000, 0.5000000000000000000 ) ) ;
#260 = PRESENTATION_STYLE_ASSIGNMENT (( #102 ) ) ;
#261 = CIRCLE ( 'NONE', #125, 0.4999999999999997224 ) ;
#262 =( NAMED_UNIT ( * ) PLANE_ANGLE_UNIT ( ) SI_UNIT ( $, .RADIAN. ) );
#263 = CARTESIAN_POINT ( 'NONE',  ( 0.5000000000000001110, 4.000000000000000000, 6.123233995736766036E-17 ) ) ;
#264 = ORIENTED_EDGE ( 'NONE', *, *, #208, .T. ) ;
#265 = APPLICATION_CONTEXT ( 'automotive_design' ) ;
#266 = DIRECTION ( 'NONE',  ( 1.113315271952139481E-16, 1.000000000000000000, -0.000000000000000000 ) ) ;
#267 = COLOUR_RGB ( '',1.000000000000000000, 0.000000000000000000, 0.000000000000000000 ) ;
#268 = STYLED_ITEM ( 'NONE', ( #174 ), #216 ) ;
#269 = EDGE_CURVE ( 'NONE', #61, #40, #220, .T. ) ;
#270 = VERTEX_POINT ( 'NONE', #162 ) ;
#271 = DIRECTION ( 'NONE',  ( -0.000000000000000000, -1.000000000000000000, -0.000000000000000000 ) ) ;
#272 = DIRECTION ( 'NONE',  ( 0.000000000000000000, 0.000000000000000000, -1.000000000000000000 ) ) ;
#273 = ORIENTED_EDGE ( 'NONE', *, *, #255, .T. ) ;
#274 = PRESENTATION_LAYER_ASSIGNMENT (  '', '', ( #14 ) ) ;
#275 = APPLICATION_PROTOCOL_DEFINITION ( 'draft international standard', 'automotive_design', 1998, #265 ) ;
#276 = CARTESIAN_POINT ( 'NONE',  ( 6.123233995736766036E-17, 1.250000000000000000, 0.5000000000000000000 ) ) ;
#277 = SURFACE_STYLE_USAGE ( .BOTH. , #231 ) ;
#278 = LENGTH_MEASURE_WITH_UNIT ( LENGTH_MEASURE( 0.02539999999999999897 ), #183 );
#279 = VECTOR ( 'NONE', #205, 39.37007874015748143 ) ;
#280 = DIRECTION ( 'NONE',  ( 1.113315271952139481E-16, 1.000000000000000000, -0.000000000000000000 ) ) ;
#281 = LENGTH_MEASURE_WITH_UNIT ( LENGTH_MEASURE( 0.02539999999999999897 ), #92 );
#282 =( NAMED_UNIT ( * ) SI_UNIT ( $, .STERADIAN. ) SOLID_ANGLE_UNIT ( ) );
#283 = ADVANCED_FACE ( 'NONE', ( #43 ), #138, .T. ) ;
#284 = PRESENTATION_LAYER_ASSIGNMENT (  '', '', ( #198 ) ) ;
#285 = CLOSED_SHELL ( 'NONE', ( #283, #18, #5, #184 ) ) ;
#286 = DIMENSIONAL_EXPONENTS ( 1.000000000000000000, 0.000000000000000000, 0.000000000000000000, 0.000000000000000000, 0.000000000000000000, 0.000000000000000000, 0.000000000000000000 ) ;
#287 = PRODUCT_RELATED_PRODUCT_CATEGORY ( 'part', '', ( #23 ) ) ;
#288 = LENGTH_MEASURE_WITH_UNIT ( LENGTH_MEASURE( 0.02539999999999999897 ), #190 );
#289 = FILL_AREA_STYLE ('',( #126 ) ) ;
#290 =( LENGTH_UNIT ( ) NAMED_UNIT ( * ) SI_UNIT ( $, .METRE. ) );
#291 =( GEOMETRIC_REPRESENTATION_CONTEXT ( 3 ) GLOBAL_UNCERTAINTY_ASSIGNED_CONTEXT ( ( #223 ) ) GLOBAL_UNIT_ASSIGNED_CONTEXT ( ( #140, #306, #17 ) ) REPRESENTATION_CONTEXT ( 'NONE', 'WORKASPACE' ) );
#292 = MECHANICAL_DESIGN_GEOMETRIC_PRESENTATION_REPRESENTATION (  '', ( #268 ), #239 ) ;
#293 = DIRECTION ( 'NONE',  ( 1.113315271952139481E-16, 1.000000000000000000, -0.000000000000000000 ) ) ;
#294 = ORIENTED_EDGE ( 'NONE', *, *, #269, .T. ) ;
#295 = UNCERTAINTY_MEASURE_WITH_UNIT (LENGTH_MEASURE( 1.000000000000000082E-05 ), #67, 'distance_accuracy_value', 'NONE');
#296 = DIRECTION ( 'NONE',  ( -1.113315271952139481E-16, -1.000000000000000000, 0.000000000000000000 ) ) ;
#297 = FILL_AREA_STYLE_COLOUR ( '', #69 ) ;
#298 = CARTESIAN_POINT ( 'NONE',  ( -0.5000000000000000000, 1.250000000000000000, 0.000000000000000000 ) ) ;
#299 = ORIENTED_EDGE ( 'NONE', *, *, #83, .T. ) ;
#300 = AXIS2_PLACEMENT_3D ( 'NONE', #41, #199, #131 ) ;
#301 = DIRECTION ( 'NONE',  ( -1.000000000000000000, 0.000000000000000000, 0.000000000000000000 ) ) ;
#302 = DIRECTION ( 'NONE',  ( 1.113315271952139481E-16, 1.000000000000000000, -0.000000000000000000 ) ) ;
#303 = ORIENTED_EDGE ( 'NONE', *, *, #55, .T. ) ;
#304 = PRODUCT_DEFINITION_FORMATION_WITH_SPECIFIED_SOURCE ( 'ANY', '', #23, .NOT_KNOWN. ) ;
#305 =( NAMED_UNIT ( * ) SI_UNIT ( $, .STERADIAN. ) SOLID_ANGLE_UNIT ( ) );
#306 =( NAMED_UNIT ( * ) PLANE_ANGLE_UNIT ( ) SI_UNIT ( $, .RADIAN. ) );
#307 = DIRECTION ( 'NONE',  ( 1.000000000000000000, 0.000000000000000000, 0.000000000000000000 ) ) ;
#308 = SURFACE_SIDE_STYLE ('',( #203 ) ) ;
#309 = AXIS2_PLACEMENT_3D ( 'NONE', #202, #60, #196 ) ;
ENDSEC;
END-ISO-10303-21;
