ISO-10303-21;
HEADER;
FILE_DESCRIPTION (( 'STEP AP214' ),
    '1' );
FILE_NAME ('83296.STEP',
    '2023-06-30T23:00:51',
    ( '' ),
    ( '' ),
    'SwSTEP 2.0',
    'SolidWorks 2023',
    '' );
FILE_SCHEMA (( 'AUTOMOTIVE_DESIGN' ));
ENDSEC;

DATA;
#1 =( NAMED_UNIT ( * ) SI_UNIT ( $, .STERADIAN. ) SOLID_ANGLE_UNIT ( ) );
#2 = PRODUCT ( '83296', '83296', '', ( #275 ) ) ;
#3 =( CONVERSION_BASED_UNIT ( 'INCH', #255 ) LENGTH_UNIT ( ) NAMED_UNIT ( #216 ) );
#4 = PRODUCT_DEFINITION_CONTEXT ( 'detailed design', #260, 'design' ) ;
#5 = VERTEX_POINT ( 'NONE', #178 ) ;
#6 = CIRCLE ( 'NONE', #258, 0.2500000000000000000 ) ;
#7 = LENGTH_MEASURE_WITH_UNIT ( LENGTH_MEASURE( 0.02539999999999999897 ), #190 );
#8 = APPLICATION_CONTEXT ( 'automotive_design' ) ;
#9 =( CONVERSION_BASED_UNIT ( 'INCH', #238 ) LENGTH_UNIT ( ) NAMED_UNIT ( #336 ) );
#10 = EDGE_CURVE ( 'NONE', #57, #283, #120, .T. ) ;
#11 =( NAMED_UNIT ( * ) PLANE_ANGLE_UNIT ( ) SI_UNIT ( $, .RADIAN. ) );
#12 = AXIS2_PLACEMENT_3D ( 'NONE', #298, #166, #241 ) ;
#13 = CARTESIAN_POINT ( 'NONE',  ( 0.2500000000000000000, 0.2500000000000000000, 0.000000000000000000 ) ) ;
#14 = DIRECTION ( 'NONE',  ( -0.000000000000000000, -1.000000000000000000, -0.000000000000000000 ) ) ;
#15 = CARTESIAN_POINT ( 'NONE',  ( 0.000000000000000000, 1.000000000000000000, 0.000000000000000000 ) ) ;
#16 =( NAMED_UNIT ( * ) SI_UNIT ( $, .STERADIAN. ) SOLID_ANGLE_UNIT ( ) );
#17 = CIRCLE ( 'NONE', #329, 0.2499999999999997224 ) ;
#18 = CIRCLE ( 'NONE', #106, 0.2500000000000000000 ) ;
#19 = CARTESIAN_POINT ( 'NONE',  ( -6.123233995736772199E-17, 3.000000000000000444, 0.000000000000000000 ) ) ;
#20 = EDGE_CURVE ( 'NONE', #5, #30, #17, .T. ) ;
#21 =( LENGTH_UNIT ( ) NAMED_UNIT ( * ) SI_UNIT ( $, .METRE. ) );
#22 = DIRECTION ( 'NONE',  ( -1.000000000000000000, 0.000000000000000000, 0.000000000000000000 ) ) ;
#23 = SURFACE_SIDE_STYLE ('',( #361 ) ) ;
#24 = DIRECTION ( 'NONE',  ( -1.224646799147353700E-16, 1.000000000000000000, -0.000000000000000000 ) ) ;
#25 = CIRCLE ( 'NONE', #325, 0.2499999999999998890 ) ;
#26 = DIMENSIONAL_EXPONENTS ( 1.000000000000000000, 0.000000000000000000, 0.000000000000000000, 0.000000000000000000, 0.000000000000000000, 0.000000000000000000, 0.000000000000000000 ) ;
#27 = LINE ( 'NONE', #234, #113 ) ;
#28 = PRODUCT_DEFINITION ( 'UNKNOWN', '', #372, #4 ) ;
#29 = FACE_OUTER_BOUND ( 'NONE', #225, .T. ) ;
#30 = VERTEX_POINT ( 'NONE', #294 ) ;
#31 = SURFACE_SIDE_STYLE ('',( #310 ) ) ;
#32 = VERTEX_POINT ( 'NONE', #128 ) ;
#33 = COLOUR_RGB ( '',1.000000000000000000, 0.000000000000000000, 0.000000000000000000 ) ;
#34 = DIRECTION ( 'NONE',  ( 0.000000000000000000, 0.000000000000000000, 1.000000000000000000 ) ) ;
#35 = SPHERICAL_SURFACE ( 'NONE', #179, 0.2500000000000000000 ) ;
#36 = EDGE_LOOP ( 'NONE', ( #141, #261, #68, #171 ) ) ;
#37 = ORIENTED_EDGE ( 'NONE', *, *, #91, .F. ) ;
#38 = CARTESIAN_POINT ( 'NONE',  ( 0.000000000000000000, 1.000000000000000000, 0.000000000000000000 ) ) ;
#39 = ORIENTED_EDGE ( 'NONE', *, *, #277, .F. ) ;
#40 = COLOUR_RGB ( '',0.7921568627450980005, 0.8196078431372548767, 0.9333333333333333481 ) ;
#41 = FILL_AREA_STYLE_COLOUR ( '', #232 ) ;
#42 = AXIS2_PLACEMENT_3D ( 'NONE', #19, #352, #239 ) ;
#43 = STYLED_ITEM ( 'NONE', ( #338 ), #172 ) ;
#44 = DIRECTION ( 'NONE',  ( -1.000000000000000000, 0.000000000000000000, 0.000000000000000000 ) ) ;
#45 = VERTEX_POINT ( 'NONE', #13 ) ;
#46 = SURFACE_STYLE_USAGE ( .BOTH. , #100 ) ;
#47 = DIRECTION ( 'NONE',  ( -0.000000000000000000, -1.000000000000000000, -0.000000000000000000 ) ) ;
#48 = MECHANICAL_DESIGN_GEOMETRIC_PRESENTATION_REPRESENTATION (  '', ( #219 ), #81 ) ;
#49 = COLOUR_RGB ( '',1.000000000000000000, 0.000000000000000000, 0.000000000000000000 ) ;
#50 = DIRECTION ( 'NONE',  ( -0.000000000000000000, -1.000000000000000000, -0.000000000000000000 ) ) ;
#51 = UNCERTAINTY_MEASURE_WITH_UNIT (LENGTH_MEASURE( 1.000000000000000082E-05 ), #3, 'distance_accuracy_value', 'NONE');
#52 = DIRECTION ( 'NONE',  ( -1.000000000000000000, 0.000000000000000000, 0.000000000000000000 ) ) ;
#53 = PRESENTATION_STYLE_ASSIGNMENT (( #245 ) ) ;
#54 = SURFACE_SIDE_STYLE ('',( #221 ) ) ;
#55 = DIRECTION ( 'NONE',  ( -1.000000000000000000, 0.000000000000000000, 0.000000000000000000 ) ) ;
#56 = EDGE_CURVE ( 'NONE', #82, #32, #208, .T. ) ;
#57 = VERTEX_POINT ( 'NONE', #122 ) ;
#58 = EDGE_CURVE ( 'NONE', #45, #57, #200, .T. ) ;
#59 = ORIENTED_EDGE ( 'NONE', *, *, #10, .T. ) ;
#60 = SPHERICAL_SURFACE ( 'NONE', #98, 0.2500000000000000000 ) ;
#61 = PRESENTATION_LAYER_ASSIGNMENT (  '', '', ( #219 ) ) ;
#62 = DIRECTION ( 'NONE',  ( 1.000000000000000000, 1.224646799147353700E-16, 0.000000000000000000 ) ) ;
#63 = EDGE_LOOP ( 'NONE', ( #292, #282 ) ) ;
#64 = CARTESIAN_POINT ( 'NONE',  ( -3.061616997868383018E-17, 0.2500000000000000000, 0.000000000000000000 ) ) ;
#65 = LENGTH_MEASURE_WITH_UNIT ( LENGTH_MEASURE( 0.02539999999999999897 ), #205 );
#66 = PRESENTATION_STYLE_ASSIGNMENT (( #46 ) ) ;
#67 = DIRECTION ( 'NONE',  ( -1.224646799147353700E-16, 1.000000000000000000, -0.000000000000000000 ) ) ;
#68 = ORIENTED_EDGE ( 'NONE', *, *, #56, .F. ) ;
#69 = COLOUR_RGB ( '',1.000000000000000000, 0.000000000000000000, 0.000000000000000000 ) ;
#70 = CARTESIAN_POINT ( 'NONE',  ( -6.123233995736772199E-17, 3.000000000000000444, 0.000000000000000000 ) ) ;
#71 = CARTESIAN_POINT ( 'NONE',  ( -3.061616997868383018E-17, 0.2500000000000000000, 0.000000000000000000 ) ) ;
#72 = CARTESIAN_POINT ( 'NONE',  ( 0.000000000000000000, 0.2500000000000000000, 0.000000000000000000 ) ) ;
#73 = CARTESIAN_POINT ( 'NONE',  ( -3.061616997868383018E-17, 0.2500000000000000000, 0.000000000000000000 ) ) ;
#74 = AXIS2_PLACEMENT_3D ( 'NONE', #218, #50, #297 ) ;
#75 = FACE_OUTER_BOUND ( 'NONE', #318, .T. ) ;
#76 = DIMENSIONAL_EXPONENTS ( 1.000000000000000000, 0.000000000000000000, 0.000000000000000000, 0.000000000000000000, 0.000000000000000000, 0.000000000000000000, 0.000000000000000000 ) ;
#77 = DIRECTION ( 'NONE',  ( 1.000000000000000000, 0.000000000000000000, 0.000000000000000000 ) ) ;
#78 = MECHANICAL_DESIGN_GEOMETRIC_PRESENTATION_REPRESENTATION (  '', ( #43 ), #296 ) ;
#79 = EDGE_CURVE ( 'NONE', #32, #82, #227, .T. ) ;
#80 = DIRECTION ( 'NONE',  ( 1.224646799147353700E-16, -1.000000000000000000, 0.000000000000000000 ) ) ;
#81 =( GEOMETRIC_REPRESENTATION_CONTEXT ( 3 ) GLOBAL_UNCERTAINTY_ASSIGNED_CONTEXT ( ( #270 ) ) GLOBAL_UNIT_ASSIGNED_CONTEXT ( ( #320, #324, #267 ) ) REPRESENTATION_CONTEXT ( 'NONE', 'WORKASPACE' ) );
#82 = VERTEX_POINT ( 'NONE', #358 ) ;
#83 =( GEOMETRIC_REPRESENTATION_CONTEXT ( 3 ) GLOBAL_UNCERTAINTY_ASSIGNED_CONTEXT ( ( #129 ) ) GLOBAL_UNIT_ASSIGNED_CONTEXT ( ( #9, #11, #118 ) ) REPRESENTATION_CONTEXT ( 'NONE', 'WORKASPACE' ) );
#84 = COLOUR_RGB ( '',1.000000000000000000, 0.000000000000000000, 0.000000000000000000 ) ;
#85 = FACE_OUTER_BOUND ( 'NONE', #117, .T. ) ;
#86 =( NAMED_UNIT ( * ) PLANE_ANGLE_UNIT ( ) SI_UNIT ( $, .RADIAN. ) );
#87 = ORIENTED_EDGE ( 'NONE', *, *, #20, .F. ) ;
#88 =( GEOMETRIC_REPRESENTATION_CONTEXT ( 3 ) GLOBAL_UNCERTAINTY_ASSIGNED_CONTEXT ( ( #265 ) ) GLOBAL_UNIT_ASSIGNED_CONTEXT ( ( #251, #274, #306 ) ) REPRESENTATION_CONTEXT ( 'NONE', 'WORKASPACE' ) );
#89 = AXIS2_PLACEMENT_3D ( 'NONE', #224, #344, #226 ) ;
#90 = LENGTH_MEASURE_WITH_UNIT ( LENGTH_MEASURE( 0.02539999999999999897 ), #150 );
#91 = EDGE_CURVE ( 'NONE', #30, #5, #167, .T. ) ;
#92 = PRESENTATION_STYLE_ASSIGNMENT (( #357 ) ) ;
#93 = ORIENTED_EDGE ( 'NONE', *, *, #58, .F. ) ;
#94 = DIRECTION ( 'NONE',  ( -0.000000000000000000, -1.000000000000000000, -0.000000000000000000 ) ) ;
#95 = CARTESIAN_POINT ( 'NONE',  ( -1.530808498934191509E-17, 0.000000000000000000, 0.000000000000000000 ) ) ;
#96 = ADVANCED_BREP_SHAPE_REPRESENTATION ( '83296', ( #162, #152, #155 ), #237 ) ;
#97 = DIRECTION ( 'NONE',  ( 0.000000000000000000, 0.000000000000000000, 1.000000000000000000 ) ) ;
#98 = AXIS2_PLACEMENT_3D ( 'NONE', #284, #34, #315 ) ;
#99 = ORIENTED_EDGE ( 'NONE', *, *, #79, .T. ) ;
#100 = SURFACE_SIDE_STYLE ('',( #264 ) ) ;
#101 = DIRECTION ( 'NONE',  ( -1.224646799147353700E-16, 1.000000000000000000, -0.000000000000000000 ) ) ;
#102 = DIMENSIONAL_EXPONENTS ( 1.000000000000000000, 0.000000000000000000, 0.000000000000000000, 0.000000000000000000, 0.000000000000000000, 0.000000000000000000, 0.000000000000000000 ) ;
#103 = CARTESIAN_POINT ( 'NONE',  ( 1.836970198721030181E-16, 1.000000000000000000, 0.000000000000000000 ) ) ;
#104 = PRODUCT_DEFINITION_SHAPE ( 'NONE', 'NONE',  #28 ) ;
#105 = MECHANICAL_DESIGN_GEOMETRIC_PRESENTATION_REPRESENTATION (  '', ( #347 ), #253 ) ;
#106 = AXIS2_PLACEMENT_3D ( 'NONE', #71, #269, #266 ) ;
#107 = DIRECTION ( 'NONE',  ( -0.000000000000000000, -1.000000000000000000, -0.000000000000000000 ) ) ;
#108 = FILL_AREA_STYLE ('',( #217 ) ) ;
#109 = LENGTH_MEASURE_WITH_UNIT ( LENGTH_MEASURE( 0.02539999999999999897 ), #157 );
#110 =( NAMED_UNIT ( * ) PLANE_ANGLE_UNIT ( ) SI_UNIT ( $, .RADIAN. ) );
#111 = AXIS2_PLACEMENT_3D ( 'NONE', #330, #160, #327 ) ;
#112 = DIRECTION ( 'NONE',  ( -1.224646799147353700E-16, 1.000000000000000000, -0.000000000000000000 ) ) ;
#113 = VECTOR ( 'NONE', #175, 39.37007874015748143 ) ;
#114 = FACE_OUTER_BOUND ( 'NONE', #233, .T. ) ;
#115 = ORIENTED_EDGE ( 'NONE', *, *, #277, .T. ) ;
#116 = FILL_AREA_STYLE ('',( #142 ) ) ;
#117 = EDGE_LOOP ( 'NONE', ( #256, #99 ) ) ;
#118 =( NAMED_UNIT ( * ) SI_UNIT ( $, .STERADIAN. ) SOLID_ANGLE_UNIT ( ) );
#119 = EDGE_LOOP ( 'NONE', ( #173, #115, #93, #149, #350 ) ) ;
#120 = CIRCLE ( 'NONE', #355, 0.2500000000000000000 ) ;
#121 = VECTOR ( 'NONE', #187, 39.37007874015748143 ) ;
#122 = CARTESIAN_POINT ( 'NONE',  ( 3.061616997868383018E-17, 0.2500000000000000000, 0.2500000000000000000 ) ) ;
#123 = CLOSED_SHELL ( 'NONE', ( #198, #304, #172, #156, #204 ) ) ;
#124 = MECHANICAL_DESIGN_GEOMETRIC_PRESENTATION_REPRESENTATION (  '', ( #146 ), #365 ) ;
#125 = DIMENSIONAL_EXPONENTS ( 1.000000000000000000, 0.000000000000000000, 0.000000000000000000, 0.000000000000000000, 0.000000000000000000, 0.000000000000000000, 0.000000000000000000 ) ;
#126 = PRODUCT_RELATED_PRODUCT_CATEGORY ( 'part', '', ( #2 ) ) ;
#127 =( NAMED_UNIT ( * ) PLANE_ANGLE_UNIT ( ) SI_UNIT ( $, .RADIAN. ) );
#128 = CARTESIAN_POINT ( 'NONE',  ( 0.2499999999999999167, 3.000000000000000444, 3.061616997868382402E-17 ) ) ;
#129 = UNCERTAINTY_MEASURE_WITH_UNIT (LENGTH_MEASURE( 1.000000000000000082E-05 ), #9, 'distance_accuracy_value', 'NONE');
#130 = FILL_AREA_STYLE ('',( #158 ) ) ;
#131 = MECHANICAL_DESIGN_GEOMETRIC_PRESENTATION_REPRESENTATION (  '', ( #289 ), #88 ) ;
#132 = STYLED_ITEM ( 'NONE', ( #319 ), #204 ) ;
#133 =( NAMED_UNIT ( * ) SI_UNIT ( $, .STERADIAN. ) SOLID_ANGLE_UNIT ( ) );
#134 = FACE_OUTER_BOUND ( 'NONE', #63, .T. ) ;
#135 = DIMENSIONAL_EXPONENTS ( 1.000000000000000000, 0.000000000000000000, 0.000000000000000000, 0.000000000000000000, 0.000000000000000000, 0.000000000000000000, 0.000000000000000000 ) ;
#136 = LENGTH_MEASURE_WITH_UNIT ( LENGTH_MEASURE( 0.02539999999999999897 ), #21 );
#137 = CARTESIAN_POINT ( 'NONE',  ( -6.123233995736772199E-17, 3.000000000000000444, 0.000000000000000000 ) ) ;
#138 = FILL_AREA_STYLE_COLOUR ( '', #84 ) ;
#139 = VECTOR ( 'NONE', #236, 39.37007874015748143 ) ;
#140 =( CONVERSION_BASED_UNIT ( 'INCH', #7 ) LENGTH_UNIT ( ) NAMED_UNIT ( #26 ) );
#141 = ORIENTED_EDGE ( 'NONE', *, *, #91, .T. ) ;
#142 = FILL_AREA_STYLE_COLOUR ( '', #49 ) ;
#143 = VERTEX_POINT ( 'NONE', #211 ) ;
#144 = CYLINDRICAL_SURFACE ( 'NONE', #74, 0.2499999999999999167 ) ;
#145 =( LENGTH_UNIT ( ) NAMED_UNIT ( * ) SI_UNIT ( $, .METRE. ) );
#146 = STYLED_ITEM ( 'NONE', ( #66 ), #304 ) ;
#147 = VERTEX_POINT ( 'NONE', #95 ) ;
#148 = EDGE_CURVE ( 'NONE', #30, #82, #206, .T. ) ;
#149 = ORIENTED_EDGE ( 'NONE', *, *, #317, .F. ) ;
#150 =( LENGTH_UNIT ( ) NAMED_UNIT ( * ) SI_UNIT ( $, .METRE. ) );
#151 = ORIENTED_EDGE ( 'NONE', *, *, #308, .F. ) ;
#152 = MANIFOLD_SOLID_BREP ( 'Revolve - Tool Body (Straight Shanked)', #371 ) ;
#153 = FACE_OUTER_BOUND ( 'NONE', #196, .T. ) ;
#154 = DIRECTION ( 'NONE',  ( 0.000000000000000000, 0.000000000000000000, -1.000000000000000000 ) ) ;
#155 = AXIS2_PLACEMENT_3D ( 'NONE', #243, #360, #77 ) ;
#156 = ADVANCED_FACE ( 'NONE', ( #153 ), #191, .T. ) ;
#157 =( LENGTH_UNIT ( ) NAMED_UNIT ( * ) SI_UNIT ( $, .METRE. ) );
#158 = FILL_AREA_STYLE_COLOUR ( '', #33 ) ;
#159 = FACE_OUTER_BOUND ( 'NONE', #36, .T. ) ;
#160 = DIRECTION ( 'NONE',  ( -0.000000000000000000, -1.000000000000000000, -0.000000000000000000 ) ) ;
#161 = ADVANCED_FACE ( 'NONE', ( #159 ), #301, .T. ) ;
#162 = MANIFOLD_SOLID_BREP ( 'Revolve - Cutting Edge', #123 ) ;
#163 = SURFACE_STYLE_FILL_AREA ( #130 ) ;
#164 = CARTESIAN_POINT ( 'NONE',  ( 0.000000000000000000, 0.000000000000000000, -0.2499999999999999167 ) ) ;
#165 = SURFACE_SIDE_STYLE ('',( #163 ) ) ;
#166 = DIRECTION ( 'NONE',  ( -0.000000000000000000, -1.000000000000000000, -0.000000000000000000 ) ) ;
#167 = CIRCLE ( 'NONE', #246, 0.2499999999999997224 ) ;
#168 = MECHANICAL_DESIGN_GEOMETRIC_PRESENTATION_REPRESENTATION (  '', ( #132 ), #83 ) ;
#169 = CYLINDRICAL_SURFACE ( 'NONE', #214, 0.2499999999999998612 ) ;
#170 = ORIENTED_EDGE ( 'NONE', *, *, #252, .T. ) ;
#171 = ORIENTED_EDGE ( 'NONE', *, *, #148, .F. ) ;
#172 = ADVANCED_FACE ( 'NONE', ( #134 ), #250, .T. ) ;
#173 = ORIENTED_EDGE ( 'NONE', *, *, #285, .T. ) ;
#174 = ORIENTED_EDGE ( 'NONE', *, *, #373, .F. ) ;
#175 = DIRECTION ( 'NONE',  ( -1.224646799147353700E-16, 1.000000000000000000, -0.000000000000000000 ) ) ;
#176 = ORIENTED_EDGE ( 'NONE', *, *, #79, .F. ) ;
#177 = ADVANCED_FACE ( 'NONE', ( #85 ), #280, .F. ) ;
#178 = CARTESIAN_POINT ( 'NONE',  ( 0.2499999999999999167, 1.000000000000000000, 3.061616997868382402E-17 ) ) ;
#179 = AXIS2_PLACEMENT_3D ( 'NONE', #64, #97, #287 ) ;
#180 = ORIENTED_EDGE ( 'NONE', *, *, #373, .T. ) ;
#181 = CARTESIAN_POINT ( 'NONE',  ( 3.061616997868382402E-17, 0.000000000000000000, 0.2499999999999999167 ) ) ;
#182 =( NAMED_UNIT ( * ) PLANE_ANGLE_UNIT ( ) SI_UNIT ( $, .RADIAN. ) );
#183 = DIRECTION ( 'NONE',  ( -1.224646799147353700E-16, 1.000000000000000000, -0.000000000000000000 ) ) ;
#184 = DIRECTION ( 'NONE',  ( 0.000000000000000000, 0.000000000000000000, -1.000000000000000000 ) ) ;
#185 = ADVANCED_FACE ( 'NONE', ( #194 ), #169, .T. ) ;
#186 = PRESENTATION_LAYER_ASSIGNMENT (  '', '', ( #347 ) ) ;
#187 = DIRECTION ( 'NONE',  ( -0.000000000000000000, -1.000000000000000000, -0.000000000000000000 ) ) ;
#188 = CIRCLE ( 'NONE', #302, 0.2500000000000000000 ) ;
#189 = UNCERTAINTY_MEASURE_WITH_UNIT (LENGTH_MEASURE( 1.000000000000000082E-05 ), #334, 'distance_accuracy_value', 'NONE');
#190 =( LENGTH_UNIT ( ) NAMED_UNIT ( * ) SI_UNIT ( $, .METRE. ) );
#191 = CYLINDRICAL_SURFACE ( 'NONE', #12, 0.2499999999999999167 ) ;
#192 = APPLICATION_PROTOCOL_DEFINITION ( 'draft international standard', 'automotive_design', 1998, #8 ) ;
#193 = MECHANICAL_DESIGN_GEOMETRIC_PRESENTATION_REPRESENTATION (  '', ( #279 ), #202 ) ;
#194 = FACE_OUTER_BOUND ( 'NONE', #263, .T. ) ;
#195 = PRESENTATION_LAYER_ASSIGNMENT (  '', '', ( #146 ) ) ;
#196 = EDGE_LOOP ( 'NONE', ( #39, #170, #345, #151, #311 ) ) ;
#197 = VERTEX_POINT ( 'NONE', #314 ) ;
#198 = ADVANCED_FACE ( 'NONE', ( #29 ), #60, .T. ) ;
#199 = CARTESIAN_POINT ( 'NONE',  ( -6.123233995736772199E-17, 3.000000000000000444, 0.000000000000000000 ) ) ;
#200 = CIRCLE ( 'NONE', #257, 0.2500000000000000000 ) ;
#201 = ORIENTED_EDGE ( 'NONE', *, *, #222, .F. ) ;
#202 =( GEOMETRIC_REPRESENTATION_CONTEXT ( 3 ) GLOBAL_UNCERTAINTY_ASSIGNED_CONTEXT ( ( #51 ) ) GLOBAL_UNIT_ASSIGNED_CONTEXT ( ( #3, #307, #312 ) ) REPRESENTATION_CONTEXT ( 'NONE', 'WORKASPACE' ) );
#203 = SURFACE_STYLE_USAGE ( .BOTH. , #262 ) ;
#204 = ADVANCED_FACE ( 'NONE', ( #114 ), #35, .T. ) ;
#205 =( LENGTH_UNIT ( ) NAMED_UNIT ( * ) SI_UNIT ( $, .METRE. ) );
#206 = LINE ( 'NONE', #322, #231 ) ;
#207 = DIRECTION ( 'NONE',  ( -0.000000000000000000, -1.000000000000000000, -0.000000000000000000 ) ) ;
#208 = CIRCLE ( 'NONE', #364, 0.2499999999999999722 ) ;
#209 = AXIS2_PLACEMENT_3D ( 'NONE', #103, #303, #332 ) ;
#210 = SURFACE_STYLE_FILL_AREA ( #254 ) ;
#211 = CARTESIAN_POINT ( 'NONE',  ( 0.000000000000000000, 1.000000000000000000, -0.2499999999999998890 ) ) ;
#212 = APPLICATION_PROTOCOL_DEFINITION ( 'draft international standard', 'automotive_design', 1998, #260 ) ;
#213 = AXIS2_PLACEMENT_3D ( 'NONE', #137, #24, #55 ) ;
#214 = AXIS2_PLACEMENT_3D ( 'NONE', #199, #112, #281 ) ;
#215 = SURFACE_STYLE_USAGE ( .BOTH. , #165 ) ;
#216 = DIMENSIONAL_EXPONENTS ( 1.000000000000000000, 0.000000000000000000, 0.000000000000000000, 0.000000000000000000, 0.000000000000000000, 0.000000000000000000, 0.000000000000000000 ) ;
#217 = FILL_AREA_STYLE_COLOUR ( '', #40 ) ;
#218 = CARTESIAN_POINT ( 'NONE',  ( 0.000000000000000000, 0.000000000000000000, 0.000000000000000000 ) ) ;
#219 = STYLED_ITEM ( 'NONE', ( #92 ), #152 ) ;
#220 = PRESENTATION_LAYER_ASSIGNMENT (  '', '', ( #279 ) ) ;
#221 = SURFACE_STYLE_FILL_AREA ( #368 ) ;
#222 = EDGE_CURVE ( 'NONE', #5, #32, #27, .T. ) ;
#223 = SURFACE_STYLE_USAGE ( .BOTH. , #31 ) ;
#224 = CARTESIAN_POINT ( 'NONE',  ( 0.000000000000000000, 1.000000000000000000, 0.000000000000000000 ) ) ;
#225 = EDGE_LOOP ( 'NONE', ( #59, #343, #174, #313 ) ) ;
#226 = DIRECTION ( 'NONE',  ( 0.000000000000000000, -0.000000000000000000, 1.000000000000000000 ) ) ;
#227 = CIRCLE ( 'NONE', #42, 0.2499999999999999722 ) ;
#228 = ORIENTED_EDGE ( 'NONE', *, *, #20, .T. ) ;
#229 = ORIENTED_EDGE ( 'NONE', *, *, #308, .T. ) ;
#230 = FILL_AREA_STYLE ('',( #41 ) ) ;
#231 = VECTOR ( 'NONE', #67, 39.37007874015748143 ) ;
#232 = COLOUR_RGB ( '',1.000000000000000000, 0.000000000000000000, 0.000000000000000000 ) ;
#233 = EDGE_LOOP ( 'NONE', ( #356, #229, #341, #180 ) ) ;
#234 = CARTESIAN_POINT ( 'NONE',  ( 0.2499999999999998057, 3.000000000000000444, 3.061616997868381785E-17 ) ) ;
#235 =( CONVERSION_BASED_UNIT ( 'INCH', #90 ) LENGTH_UNIT ( ) NAMED_UNIT ( #76 ) );
#236 = DIRECTION ( 'NONE',  ( -0.000000000000000000, -1.000000000000000000, -0.000000000000000000 ) ) ;
#237 =( GEOMETRIC_REPRESENTATION_CONTEXT ( 3 ) GLOBAL_UNCERTAINTY_ASSIGNED_CONTEXT ( ( #333 ) ) GLOBAL_UNIT_ASSIGNED_CONTEXT ( ( #335, #127, #369 ) ) REPRESENTATION_CONTEXT ( 'NONE', 'WORKASPACE' ) );
#238 = LENGTH_MEASURE_WITH_UNIT ( LENGTH_MEASURE( 0.02539999999999999897 ), #145 );
#239 = DIRECTION ( 'NONE',  ( -1.000000000000000000, 0.000000000000000000, 0.000000000000000000 ) ) ;
#240 = PLANE ( 'NONE',  #209 ) ;
#241 = DIRECTION ( 'NONE',  ( 0.000000000000000000, 0.000000000000000000, -1.000000000000000000 ) ) ;
#242 = CARTESIAN_POINT ( 'NONE',  ( 0.000000000000000000, 0.2500000000000000000, 0.000000000000000000 ) ) ;
#243 = CARTESIAN_POINT ( 'NONE',  ( 0.000000000000000000, 0.000000000000000000, 0.000000000000000000 ) ) ;
#244 = EDGE_CURVE ( 'NONE', #283, #147, #18, .T. ) ;
#245 = SURFACE_STYLE_USAGE ( .BOTH. , #23 ) ;
#246 = AXIS2_PLACEMENT_3D ( 'NONE', #362, #101, #44 ) ;
#247 = AXIS2_PLACEMENT_3D ( 'NONE', #340, #80, #62 ) ;
#248 = LENGTH_MEASURE_WITH_UNIT ( LENGTH_MEASURE( 0.02539999999999999897 ), #305 );
#249 = CARTESIAN_POINT ( 'NONE',  ( 0.000000000000000000, 0.2500000000000000000, 0.000000000000000000 ) ) ;
#250 = PLANE ( 'NONE',  #89 ) ;
#251 =( CONVERSION_BASED_UNIT ( 'INCH', #109 ) LENGTH_UNIT ( ) NAMED_UNIT ( #125 ) );
#252 = EDGE_CURVE ( 'NONE', #197, #143, #25, .T. ) ;
#253 =( GEOMETRIC_REPRESENTATION_CONTEXT ( 3 ) GLOBAL_UNCERTAINTY_ASSIGNED_CONTEXT ( ( #189 ) ) GLOBAL_UNIT_ASSIGNED_CONTEXT ( ( #334, #110, #133 ) ) REPRESENTATION_CONTEXT ( 'NONE', 'WORKASPACE' ) );
#254 = FILL_AREA_STYLE ('',( #138 ) ) ;
#255 = LENGTH_MEASURE_WITH_UNIT ( LENGTH_MEASURE( 0.02539999999999999897 ), #278 );
#256 = ORIENTED_EDGE ( 'NONE', *, *, #56, .T. ) ;
#257 = AXIS2_PLACEMENT_3D ( 'NONE', #242, #47, #154 ) ;
#258 = AXIS2_PLACEMENT_3D ( 'NONE', #249, #107, #184 ) ;
#259 = ORIENTED_EDGE ( 'NONE', *, *, #148, .T. ) ;
#260 = APPLICATION_CONTEXT ( 'automotive_design' ) ;
#261 = ORIENTED_EDGE ( 'NONE', *, *, #222, .T. ) ;
#262 = SURFACE_SIDE_STYLE ('',( #210 ) ) ;
#263 = EDGE_LOOP ( 'NONE', ( #201, #228, #259, #176 ) ) ;
#264 = SURFACE_STYLE_FILL_AREA ( #230 ) ;
#265 = UNCERTAINTY_MEASURE_WITH_UNIT (LENGTH_MEASURE( 1.000000000000000082E-05 ), #251, 'distance_accuracy_value', 'NONE');
#266 = DIRECTION ( 'NONE',  ( 1.000000000000000000, 0.000000000000000000, -1.224646799147353207E-16 ) ) ;
#267 =( NAMED_UNIT ( * ) SI_UNIT ( $, .STERADIAN. ) SOLID_ANGLE_UNIT ( ) );
#268 = DIRECTION ( 'NONE',  ( -1.224646799147353700E-16, 1.000000000000000000, -0.000000000000000000 ) ) ;
#269 = DIRECTION ( 'NONE',  ( 1.224646799147353207E-16, -0.000000000000000000, 1.000000000000000000 ) ) ;
#270 = UNCERTAINTY_MEASURE_WITH_UNIT (LENGTH_MEASURE( 1.000000000000000082E-05 ), #320, 'distance_accuracy_value', 'NONE');
#271 = PRESENTATION_LAYER_ASSIGNMENT (  '', '', ( #132 ) ) ;
#272 = LINE ( 'NONE', #164, #121 ) ;
#273 = UNCERTAINTY_MEASURE_WITH_UNIT (LENGTH_MEASURE( 1.000000000000000082E-05 ), #235, 'distance_accuracy_value', 'NONE');
#274 =( NAMED_UNIT ( * ) PLANE_ANGLE_UNIT ( ) SI_UNIT ( $, .RADIAN. ) );
#275 = PRODUCT_CONTEXT ( 'NONE', #8, 'mechanical' ) ;
#276 = SURFACE_STYLE_USAGE ( .BOTH. , #54 ) ;
#277 = EDGE_CURVE ( 'NONE', #197, #57, #353, .T. ) ;
#278 =( LENGTH_UNIT ( ) NAMED_UNIT ( * ) SI_UNIT ( $, .METRE. ) );
#279 = STYLED_ITEM ( 'NONE', ( #339 ), #198 ) ;
#280 = PLANE ( 'NONE',  #247 ) ;
#281 = DIRECTION ( 'NONE',  ( -1.000000000000000000, 0.000000000000000000, 0.000000000000000000 ) ) ;
#282 = ORIENTED_EDGE ( 'NONE', *, *, #252, .F. ) ;
#283 = VERTEX_POINT ( 'NONE', #354 ) ;
#284 = CARTESIAN_POINT ( 'NONE',  ( -3.061616997868383018E-17, 0.2500000000000000000, 0.000000000000000000 ) ) ;
#285 = EDGE_CURVE ( 'NONE', #143, #197, #309, .T. ) ;
#286 = VERTEX_POINT ( 'NONE', #293 ) ;
#287 = DIRECTION ( 'NONE',  ( 1.000000000000000000, 0.000000000000000000, 0.000000000000000000 ) ) ;
#288 = DIRECTION ( 'NONE',  ( -1.000000000000000000, 0.000000000000000000, 0.000000000000000000 ) ) ;
#289 = STYLED_ITEM ( 'NONE', ( #331 ), #156 ) ;
#290 = DIRECTION ( 'NONE',  ( 0.000000000000000000, 0.000000000000000000, -1.000000000000000000 ) ) ;
#291 = PRESENTATION_LAYER_ASSIGNMENT (  '', '', ( #43 ) ) ;
#292 = ORIENTED_EDGE ( 'NONE', *, *, #285, .F. ) ;
#293 = CARTESIAN_POINT ( 'NONE',  ( 0.000000000000000000, 0.2500000000000000000, -0.2500000000000000000 ) ) ;
#294 = CARTESIAN_POINT ( 'NONE',  ( -0.2499999999999995559, 1.000000000000000000, 0.000000000000000000 ) ) ;
#295 = DIRECTION ( 'NONE',  ( 0.000000000000000000, 0.000000000000000000, -1.000000000000000000 ) ) ;
#296 =( GEOMETRIC_REPRESENTATION_CONTEXT ( 3 ) GLOBAL_UNCERTAINTY_ASSIGNED_CONTEXT ( ( #328 ) ) GLOBAL_UNIT_ASSIGNED_CONTEXT ( ( #140, #86, #1 ) ) REPRESENTATION_CONTEXT ( 'NONE', 'WORKASPACE' ) );
#297 = DIRECTION ( 'NONE',  ( 0.000000000000000000, 0.000000000000000000, -1.000000000000000000 ) ) ;
#298 = CARTESIAN_POINT ( 'NONE',  ( 0.000000000000000000, 0.000000000000000000, 0.000000000000000000 ) ) ;
#299 = FILL_AREA_STYLE ('',( #363 ) ) ;
#300 = DIMENSIONAL_EXPONENTS ( 1.000000000000000000, 0.000000000000000000, 0.000000000000000000, 0.000000000000000000, 0.000000000000000000, 0.000000000000000000, 0.000000000000000000 ) ;
#301 = CYLINDRICAL_SURFACE ( 'NONE', #213, 0.2499999999999998612 ) ;
#302 = AXIS2_PLACEMENT_3D ( 'NONE', #73, #295, #52 ) ;
#303 = DIRECTION ( 'NONE',  ( -1.224646799147353700E-16, 1.000000000000000000, 0.000000000000000000 ) ) ;
#304 = ADVANCED_FACE ( 'NONE', ( #321 ), #144, .T. ) ;
#305 =( LENGTH_UNIT ( ) NAMED_UNIT ( * ) SI_UNIT ( $, .METRE. ) );
#306 =( NAMED_UNIT ( * ) SI_UNIT ( $, .STERADIAN. ) SOLID_ANGLE_UNIT ( ) );
#307 =( NAMED_UNIT ( * ) PLANE_ANGLE_UNIT ( ) SI_UNIT ( $, .RADIAN. ) );
#308 = EDGE_CURVE ( 'NONE', #283, #286, #342, .T. ) ;
#309 = CIRCLE ( 'NONE', #348, 0.2499999999999998890 ) ;
#310 = SURFACE_STYLE_FILL_AREA ( #116 ) ;
#311 = ORIENTED_EDGE ( 'NONE', *, *, #10, .F. ) ;
#312 =( NAMED_UNIT ( * ) SI_UNIT ( $, .STERADIAN. ) SOLID_ANGLE_UNIT ( ) );
#313 = ORIENTED_EDGE ( 'NONE', *, *, #58, .T. ) ;
#314 = CARTESIAN_POINT ( 'NONE',  ( 3.061616997868381785E-17, 1.000000000000000000, 0.2499999999999998890 ) ) ;
#315 = DIRECTION ( 'NONE',  ( 1.000000000000000000, 0.000000000000000000, 0.000000000000000000 ) ) ;
#316 = COLOUR_RGB ( '',0.7921568627450980005, 0.8196078431372548767, 0.9333333333333333481 ) ;
#317 = EDGE_CURVE ( 'NONE', #286, #45, #6, .T. ) ;
#318 = EDGE_LOOP ( 'NONE', ( #37, #87 ) ) ;
#319 = PRESENTATION_STYLE_ASSIGNMENT (( #203 ) ) ;
#320 =( CONVERSION_BASED_UNIT ( 'INCH', #65 ) LENGTH_UNIT ( ) NAMED_UNIT ( #300 ) );
#321 = FACE_OUTER_BOUND ( 'NONE', #119, .T. ) ;
#322 = CARTESIAN_POINT ( 'NONE',  ( -0.2499999999999999167, 3.000000000000000444, 0.000000000000000000 ) ) ;
#323 = ADVANCED_FACE ( 'NONE', ( #75 ), #240, .F. ) ;
#324 =( NAMED_UNIT ( * ) PLANE_ANGLE_UNIT ( ) SI_UNIT ( $, .RADIAN. ) );
#325 = AXIS2_PLACEMENT_3D ( 'NONE', #38, #14, #351 ) ;
#326 = CARTESIAN_POINT ( 'NONE',  ( 1.836970198721030427E-16, 1.000000000000000000, 0.000000000000000000 ) ) ;
#327 = DIRECTION ( 'NONE',  ( 0.000000000000000000, 0.000000000000000000, -1.000000000000000000 ) ) ;
#328 = UNCERTAINTY_MEASURE_WITH_UNIT (LENGTH_MEASURE( 1.000000000000000082E-05 ), #140, 'distance_accuracy_value', 'NONE');
#329 = AXIS2_PLACEMENT_3D ( 'NONE', #326, #183, #22 ) ;
#330 = CARTESIAN_POINT ( 'NONE',  ( 0.000000000000000000, 0.2500000000000000000, 0.000000000000000000 ) ) ;
#331 = PRESENTATION_STYLE_ASSIGNMENT (( #215 ) ) ;
#332 = DIRECTION ( 'NONE',  ( -1.000000000000000000, -1.224646799147353700E-16, 0.000000000000000000 ) ) ;
#333 = UNCERTAINTY_MEASURE_WITH_UNIT (LENGTH_MEASURE( 1.000000000000000082E-05 ), #335, 'distance_accuracy_value', 'NONE');
#334 =( CONVERSION_BASED_UNIT ( 'INCH', #248 ) LENGTH_UNIT ( ) NAMED_UNIT ( #102 ) );
#335 =( CONVERSION_BASED_UNIT ( 'INCH', #136 ) LENGTH_UNIT ( ) NAMED_UNIT ( #135 ) );
#336 = DIMENSIONAL_EXPONENTS ( 1.000000000000000000, 0.000000000000000000, 0.000000000000000000, 0.000000000000000000, 0.000000000000000000, 0.000000000000000000, 0.000000000000000000 ) ;
#337 = PRESENTATION_LAYER_ASSIGNMENT (  '', '', ( #289 ) ) ;
#338 = PRESENTATION_STYLE_ASSIGNMENT (( #276 ) ) ;
#339 = PRESENTATION_STYLE_ASSIGNMENT (( #223 ) ) ;
#340 = CARTESIAN_POINT ( 'NONE',  ( 0.2499999999999998890, 3.000000000000000444, 0.000000000000000000 ) ) ;
#341 = ORIENTED_EDGE ( 'NONE', *, *, #317, .T. ) ;
#342 = CIRCLE ( 'NONE', #111, 0.2500000000000000000 ) ;
#343 = ORIENTED_EDGE ( 'NONE', *, *, #244, .T. ) ;
#344 = DIRECTION ( 'NONE',  ( 0.000000000000000000, 1.000000000000000000, 0.000000000000000000 ) ) ;
#345 = ORIENTED_EDGE ( 'NONE', *, *, #359, .T. ) ;
#346 = DIRECTION ( 'NONE',  ( 0.000000000000000000, 0.000000000000000000, -1.000000000000000000 ) ) ;
#347 = STYLED_ITEM ( 'NONE', ( #53 ), #162 ) ;
#348 = AXIS2_PLACEMENT_3D ( 'NONE', #15, #94, #346 ) ;
#349 = SURFACE_SIDE_STYLE ('',( #367 ) ) ;
#350 = ORIENTED_EDGE ( 'NONE', *, *, #359, .F. ) ;
#351 = DIRECTION ( 'NONE',  ( 0.000000000000000000, 0.000000000000000000, -1.000000000000000000 ) ) ;
#352 = DIRECTION ( 'NONE',  ( -1.224646799147353700E-16, 1.000000000000000000, -0.000000000000000000 ) ) ;
#353 = LINE ( 'NONE', #181, #139 ) ;
#354 = CARTESIAN_POINT ( 'NONE',  ( -0.2500000000000000000, 0.2500000000000000000, 3.061616997868382402E-17 ) ) ;
#355 = AXIS2_PLACEMENT_3D ( 'NONE', #72, #207, #290 ) ;
#356 = ORIENTED_EDGE ( 'NONE', *, *, #244, .F. ) ;
#357 = SURFACE_STYLE_USAGE ( .BOTH. , #349 ) ;
#358 = CARTESIAN_POINT ( 'NONE',  ( -0.2500000000000000555, 3.000000000000000444, 0.000000000000000000 ) ) ;
#359 = EDGE_CURVE ( 'NONE', #143, #286, #272, .T. ) ;
#360 = DIRECTION ( 'NONE',  ( 0.000000000000000000, 0.000000000000000000, 1.000000000000000000 ) ) ;
#361 = SURFACE_STYLE_FILL_AREA ( #108 ) ;
#362 = CARTESIAN_POINT ( 'NONE',  ( 1.836970198721030427E-16, 1.000000000000000000, 0.000000000000000000 ) ) ;
#363 = FILL_AREA_STYLE_COLOUR ( '', #316 ) ;
#364 = AXIS2_PLACEMENT_3D ( 'NONE', #70, #268, #288 ) ;
#365 =( GEOMETRIC_REPRESENTATION_CONTEXT ( 3 ) GLOBAL_UNCERTAINTY_ASSIGNED_CONTEXT ( ( #273 ) ) GLOBAL_UNIT_ASSIGNED_CONTEXT ( ( #235, #182, #16 ) ) REPRESENTATION_CONTEXT ( 'NONE', 'WORKASPACE' ) );
#366 = SHAPE_DEFINITION_REPRESENTATION ( #104, #96 ) ;
#367 = SURFACE_STYLE_FILL_AREA ( #299 ) ;
#368 = FILL_AREA_STYLE ('',( #370 ) ) ;
#369 =( NAMED_UNIT ( * ) SI_UNIT ( $, .STERADIAN. ) SOLID_ANGLE_UNIT ( ) );
#370 = FILL_AREA_STYLE_COLOUR ( '', #69 ) ;
#371 = CLOSED_SHELL ( 'NONE', ( #161, #323, #185, #177 ) ) ;
#372 = PRODUCT_DEFINITION_FORMATION_WITH_SPECIFIED_SOURCE ( 'ANY', '', #2, .NOT_KNOWN. ) ;
#373 = EDGE_CURVE ( 'NONE', #45, #147, #188, .T. ) ;
ENDSEC;
END-ISO-10303-21;
