ISO-10303-21;
HEADER;
FILE_DESCRIPTION (( 'STEP AP214' ),
    '1' );
FILE_NAME ('83280.STEP',
    '2023-06-30T22:53:02',
    ( '' ),
    ( '' ),
    'SwSTEP 2.0',
    'SolidWorks 2023',
    '' );
FILE_SCHEMA (( 'AUTOMOTIVE_DESIGN' ));
ENDSEC;

DATA;
#1 = VERTEX_POINT ( 'NONE', #138 ) ;
#2 = DIMENSIONAL_EXPONENTS ( 1.000000000000000000, 0.000000000000000000, 0.000000000000000000, 0.000000000000000000, 0.000000000000000000, 0.000000000000000000, 0.000000000000000000 ) ;
#3 = LENGTH_MEASURE_WITH_UNIT ( LENGTH_MEASURE( 0.02539999999999999897 ), #141 );
#4 = EDGE_CURVE ( 'NONE', #218, #155, #111, .T. ) ;
#5 = PRESENTATION_LAYER_ASSIGNMENT (  '', '', ( #27 ) ) ;
#6 = DIRECTION ( 'NONE',  ( 1.000000000000000000, 0.000000000000000000, 0.000000000000000000 ) ) ;
#7 = ORIENTED_EDGE ( 'NONE', *, *, #41, .F. ) ;
#8 = LINE ( 'NONE', #326, #205 ) ;
#9 = CARTESIAN_POINT ( 'NONE',  ( 1.148106374200642938E-17, 0.6250000000000000000, 0.09374999999999994449 ) ) ;
#10 = FILL_AREA_STYLE_COLOUR ( '', #28 ) ;
#11 = EDGE_CURVE ( 'NONE', #133, #185, #84, .T. ) ;
#12 = CARTESIAN_POINT ( 'NONE',  ( 1.148106374200643247E-17, 0.09375000000000001388, 0.09374999999999997224 ) ) ;
#13 = CARTESIAN_POINT ( 'NONE',  ( 0.000000000000000000, 0.09375000000000001388, 0.000000000000000000 ) ) ;
#14 = SPHERICAL_SURFACE ( 'NONE', #86, 0.09374999999999998612 ) ;
#15 = COLOUR_RGB ( '',1.000000000000000000, 0.000000000000000000, 0.000000000000000000 ) ;
#16 =( LENGTH_UNIT ( ) NAMED_UNIT ( * ) SI_UNIT ( $, .METRE. ) );
#17 = DIRECTION ( 'NONE',  ( 0.000000000000000000, 0.000000000000000000, 1.000000000000000000 ) ) ;
#18 = EDGE_CURVE ( 'NONE', #250, #313, #247, .T. ) ;
#19 =( GEOMETRIC_REPRESENTATION_CONTEXT ( 3 ) GLOBAL_UNCERTAINTY_ASSIGNED_CONTEXT ( ( #278 ) ) GLOBAL_UNIT_ASSIGNED_CONTEXT ( ( #179, #42, #39 ) ) REPRESENTATION_CONTEXT ( 'NONE', 'WORKASPACE' ) );
#20 = PRODUCT_DEFINITION_SHAPE ( 'NONE', 'NONE',  #238 ) ;
#21 = CARTESIAN_POINT ( 'NONE',  ( -0.09374999999999995837, 2.500000000000000000, 0.000000000000000000 ) ) ;
#22 = EDGE_CURVE ( 'NONE', #136, #218, #226, .T. ) ;
#23 =( GEOMETRIC_REPRESENTATION_CONTEXT ( 3 ) GLOBAL_UNCERTAINTY_ASSIGNED_CONTEXT ( ( #311 ) ) GLOBAL_UNIT_ASSIGNED_CONTEXT ( ( #262, #328, #258 ) ) REPRESENTATION_CONTEXT ( 'NONE', 'WORKASPACE' ) );
#24 = DIRECTION ( 'NONE',  ( -1.224646799147353207E-16, 1.000000000000000000, -0.000000000000000000 ) ) ;
#25 = EDGE_LOOP ( 'NONE', ( #286, #103 ) ) ;
#26 = ORIENTED_EDGE ( 'NONE', *, *, #73, .F. ) ;
#27 = STYLED_ITEM ( 'NONE', ( #158 ), #217 ) ;
#28 = COLOUR_RGB ( '',1.000000000000000000, 0.000000000000000000, 0.000000000000000000 ) ;
#29 = CARTESIAN_POINT ( 'NONE',  ( 0.000000000000000000, 0.09375000000000001388, 0.000000000000000000 ) ) ;
#30 = SURFACE_STYLE_USAGE ( .BOTH. , #231 ) ;
#31 = ORIENTED_EDGE ( 'NONE', *, *, #197, .T. ) ;
#32 = PLANE ( 'NONE',  #80 ) ;
#33 = LENGTH_MEASURE_WITH_UNIT ( LENGTH_MEASURE( 0.02539999999999999897 ), #169 );
#34 = ORIENTED_EDGE ( 'NONE', *, *, #294, .T. ) ;
#35 = FILL_AREA_STYLE ('',( #173 ) ) ;
#36 = DIRECTION ( 'NONE',  ( 0.000000000000000000, 0.000000000000000000, 1.000000000000000000 ) ) ;
#37 = DIRECTION ( 'NONE',  ( 0.000000000000000000, 0.000000000000000000, -1.000000000000000000 ) ) ;
#38 = PRESENTATION_LAYER_ASSIGNMENT (  '', '', ( #233 ) ) ;
#39 =( NAMED_UNIT ( * ) SI_UNIT ( $, .STERADIAN. ) SOLID_ANGLE_UNIT ( ) );
#40 =( CONVERSION_BASED_UNIT ( 'INCH', #362 ) LENGTH_UNIT ( ) NAMED_UNIT ( #192 ) );
#41 = EDGE_CURVE ( 'NONE', #155, #193, #91, .T. ) ;
#42 =( NAMED_UNIT ( * ) PLANE_ANGLE_UNIT ( ) SI_UNIT ( $, .RADIAN. ) );
#43 = DIRECTION ( 'NONE',  ( -1.224646799147353207E-16, 1.000000000000000000, -0.000000000000000000 ) ) ;
#44 = UNCERTAINTY_MEASURE_WITH_UNIT (LENGTH_MEASURE( 1.000000000000000082E-05 ), #78, 'distance_accuracy_value', 'NONE');
#45 = MECHANICAL_DESIGN_GEOMETRIC_PRESENTATION_REPRESENTATION (  '', ( #233 ), #275 ) ;
#46 = LENGTH_MEASURE_WITH_UNIT ( LENGTH_MEASURE( 0.02539999999999999897 ), #344 );
#47 = DIRECTION ( 'NONE',  ( 0.000000000000000000, 0.000000000000000000, -1.000000000000000000 ) ) ;
#48 = ORIENTED_EDGE ( 'NONE', *, *, #358, .F. ) ;
#49 = EDGE_CURVE ( 'NONE', #133, #1, #184, .T. ) ;
#50 = ORIENTED_EDGE ( 'NONE', *, *, #76, .T. ) ;
#51 = ORIENTED_EDGE ( 'NONE', *, *, #22, .F. ) ;
#52 = STYLED_ITEM ( 'NONE', ( #309 ), #182 ) ;
#53 = DIMENSIONAL_EXPONENTS ( 1.000000000000000000, 0.000000000000000000, 0.000000000000000000, 0.000000000000000000, 0.000000000000000000, 0.000000000000000000, 0.000000000000000000 ) ;
#54 = ADVANCED_FACE ( 'NONE', ( #105 ), #227, .T. ) ;
#55 = FACE_OUTER_BOUND ( 'NONE', #25, .T. ) ;
#56 = ADVANCED_FACE ( 'NONE', ( #55 ), #32, .F. ) ;
#57 = AXIS2_PLACEMENT_3D ( 'NONE', #207, #212, #127 ) ;
#58 =( GEOMETRIC_REPRESENTATION_CONTEXT ( 3 ) GLOBAL_UNCERTAINTY_ASSIGNED_CONTEXT ( ( #198 ) ) GLOBAL_UNIT_ASSIGNED_CONTEXT ( ( #239, #170, #354 ) ) REPRESENTATION_CONTEXT ( 'NONE', 'WORKASPACE' ) );
#59 = APPLICATION_PROTOCOL_DEFINITION ( 'draft international standard', 'automotive_design', 1998, #203 ) ;
#60 = ORIENTED_EDGE ( 'NONE', *, *, #372, .F. ) ;
#61 = DIRECTION ( 'NONE',  ( -1.224646799147353207E-16, 1.000000000000000000, -0.000000000000000000 ) ) ;
#62 = CARTESIAN_POINT ( 'NONE',  ( -6.123233995736766036E-17, 2.500000000000000000, 0.000000000000000000 ) ) ;
#63 =( LENGTH_UNIT ( ) NAMED_UNIT ( * ) SI_UNIT ( $, .METRE. ) );
#64 = DIRECTION ( 'NONE',  ( -0.000000000000000000, -1.000000000000000000, -0.000000000000000000 ) ) ;
#65 = EDGE_CURVE ( 'NONE', #215, #1, #219, .T. ) ;
#66 =( GEOMETRIC_REPRESENTATION_CONTEXT ( 3 ) GLOBAL_UNCERTAINTY_ASSIGNED_CONTEXT ( ( #325 ) ) GLOBAL_UNIT_ASSIGNED_CONTEXT ( ( #300, #157, #216 ) ) REPRESENTATION_CONTEXT ( 'NONE', 'WORKASPACE' ) );
#67 = CARTESIAN_POINT ( 'NONE',  ( -1.148106374200643401E-17, 0.09374999999999998612, 0.000000000000000000 ) ) ;
#68 = DIRECTION ( 'NONE',  ( 1.000000000000000000, 1.224646799147353207E-16, 0.000000000000000000 ) ) ;
#69 = STYLED_ITEM ( 'NONE', ( #112 ), #315 ) ;
#70 =( GEOMETRIC_REPRESENTATION_CONTEXT ( 3 ) GLOBAL_UNCERTAINTY_ASSIGNED_CONTEXT ( ( #329 ) ) GLOBAL_UNIT_ASSIGNED_CONTEXT ( ( #113, #202, #303 ) ) REPRESENTATION_CONTEXT ( 'NONE', 'WORKASPACE' ) );
#71 = ORIENTED_EDGE ( 'NONE', *, *, #49, .T. ) ;
#72 = SURFACE_SIDE_STYLE ('',( #342 ) ) ;
#73 = EDGE_CURVE ( 'NONE', #185, #215, #8, .T. ) ;
#74 = ORIENTED_EDGE ( 'NONE', *, *, #18, .T. ) ;
#75 = VECTOR ( 'NONE', #64, 39.37007874015748143 ) ;
#76 = EDGE_CURVE ( 'NONE', #99, #250, #143, .T. ) ;
#77 = ORIENTED_EDGE ( 'NONE', *, *, #65, .F. ) ;
#78 =( CONVERSION_BASED_UNIT ( 'INCH', #46 ) LENGTH_UNIT ( ) NAMED_UNIT ( #162 ) );
#79 = CARTESIAN_POINT ( 'NONE',  ( 1.683889348827610506E-16, 0.6250000000000000000, 0.000000000000000000 ) ) ;
#80 = AXIS2_PLACEMENT_3D ( 'NONE', #79, #121, #293 ) ;
#81 =( NAMED_UNIT ( * ) PLANE_ANGLE_UNIT ( ) SI_UNIT ( $, .RADIAN. ) );
#82 = SURFACE_STYLE_FILL_AREA ( #322 ) ;
#83 = FILL_AREA_STYLE ('',( #147 ) ) ;
#84 = CIRCLE ( 'NONE', #355, 0.09374999999999979183 ) ;
#85 = CIRCLE ( 'NONE', #351, 0.09374999999999997224 ) ;
#86 = AXIS2_PLACEMENT_3D ( 'NONE', #273, #17, #126 ) ;
#87 = CARTESIAN_POINT ( 'NONE',  ( 0.000000000000000000, 0.09375000000000001388, -0.09374999999999997224 ) ) ;
#88 = CARTESIAN_POINT ( 'NONE',  ( -0.09374999999999998612, 0.09375000000000001388, 1.148106374200643247E-17 ) ) ;
#89 = DIRECTION ( 'NONE',  ( -1.000000000000000000, 0.000000000000000000, 0.000000000000000000 ) ) ;
#90 = FACE_OUTER_BOUND ( 'NONE', #104, .T. ) ;
#91 = CIRCLE ( 'NONE', #108, 0.09374999999999997224 ) ;
#92 = MECHANICAL_DESIGN_GEOMETRIC_PRESENTATION_REPRESENTATION (  '', ( #27 ), #19 ) ;
#93 = DIRECTION ( 'NONE',  ( -0.000000000000000000, -1.000000000000000000, -0.000000000000000000 ) ) ;
#94 = FACE_OUTER_BOUND ( 'NONE', #95, .T. ) ;
#95 = EDGE_LOOP ( 'NONE', ( #283, #285 ) ) ;
#96 =( NAMED_UNIT ( * ) PLANE_ANGLE_UNIT ( ) SI_UNIT ( $, .RADIAN. ) );
#97 = FILL_AREA_STYLE_COLOUR ( '', #174 ) ;
#98 = STYLED_ITEM ( 'NONE', ( #360 ), #318 ) ;
#99 = VERTEX_POINT ( 'NONE', #12 ) ;
#100 = CARTESIAN_POINT ( 'NONE',  ( -1.148106374200643401E-17, 0.09374999999999998612, 0.000000000000000000 ) ) ;
#101 = DIRECTION ( 'NONE',  ( 0.000000000000000000, 0.000000000000000000, -1.000000000000000000 ) ) ;
#102 = DIRECTION ( 'NONE',  ( 0.000000000000000000, 0.000000000000000000, -1.000000000000000000 ) ) ;
#103 = ORIENTED_EDGE ( 'NONE', *, *, #115, .F. ) ;
#104 = EDGE_LOOP ( 'NONE', ( #349, #321, #137, #34 ) ) ;
#105 = FACE_OUTER_BOUND ( 'NONE', #228, .T. ) ;
#106 = ORIENTED_EDGE ( 'NONE', *, *, #22, .T. ) ;
#107 = PRESENTATION_LAYER_ASSIGNMENT (  '', '', ( #288 ) ) ;
#108 = AXIS2_PLACEMENT_3D ( 'NONE', #279, #159, #102 ) ;
#109 = CIRCLE ( 'NONE', #156, 0.09374999999999997224 ) ;
#110 = ADVANCED_FACE ( 'NONE', ( #290 ), #241, .T. ) ;
#111 = LINE ( 'NONE', #229, #164 ) ;
#112 = PRESENTATION_STYLE_ASSIGNMENT (( #30 ) ) ;
#113 =( CONVERSION_BASED_UNIT ( 'INCH', #3 ) LENGTH_UNIT ( ) NAMED_UNIT ( #2 ) );
#114 = SURFACE_STYLE_USAGE ( .BOTH. , #119 ) ;
#115 = EDGE_CURVE ( 'NONE', #185, #133, #196, .T. ) ;
#116 = MECHANICAL_DESIGN_GEOMETRIC_PRESENTATION_REPRESENTATION (  '', ( #288 ), #190 ) ;
#117 = PRESENTATION_LAYER_ASSIGNMENT (  '', '', ( #327 ) ) ;
#118 = DIRECTION ( 'NONE',  ( -0.000000000000000000, -1.000000000000000000, -0.000000000000000000 ) ) ;
#119 = SURFACE_SIDE_STYLE ('',( #296 ) ) ;
#120 = SURFACE_STYLE_FILL_AREA ( #361 ) ;
#121 = DIRECTION ( 'NONE',  ( -1.224646799147353207E-16, 1.000000000000000000, 0.000000000000000000 ) ) ;
#122 = CLOSED_SHELL ( 'NONE', ( #287, #56, #110, #272 ) ) ;
#123 = FILL_AREA_STYLE ('',( #154 ) ) ;
#124 = DIRECTION ( 'NONE',  ( 0.000000000000000000, 0.000000000000000000, -1.000000000000000000 ) ) ;
#125 = DIRECTION ( 'NONE',  ( -1.000000000000000000, 0.000000000000000000, 0.000000000000000000 ) ) ;
#126 = DIRECTION ( 'NONE',  ( 1.000000000000000000, 0.000000000000000000, 0.000000000000000000 ) ) ;
#127 = DIRECTION ( 'NONE',  ( -1.000000000000000000, 0.000000000000000000, 0.000000000000000000 ) ) ;
#128 = ADVANCED_FACE ( 'NONE', ( #336 ), #356, .T. ) ;
#129 = PRESENTATION_LAYER_ASSIGNMENT (  '', '', ( #69 ) ) ;
#130 = COLOUR_RGB ( '',0.7921568627450980005, 0.8196078431372548767, 0.9333333333333333481 ) ;
#131 = CARTESIAN_POINT ( 'NONE',  ( 0.09374999999999997224, 0.09375000000000001388, 0.000000000000000000 ) ) ;
#132 = SURFACE_STYLE_USAGE ( .BOTH. , #348 ) ;
#133 = VERTEX_POINT ( 'NONE', #199 ) ;
#134 = DIRECTION ( 'NONE',  ( -0.000000000000000000, -1.000000000000000000, -0.000000000000000000 ) ) ;
#135 = AXIS2_PLACEMENT_3D ( 'NONE', #153, #43, #277 ) ;
#136 = VERTEX_POINT ( 'NONE', #9 ) ;
#137 = ORIENTED_EDGE ( 'NONE', *, *, #41, .T. ) ;
#138 = CARTESIAN_POINT ( 'NONE',  ( -0.09375000000000006939, 2.500000000000000000, 0.000000000000000000 ) ) ;
#139 = DIMENSIONAL_EXPONENTS ( 1.000000000000000000, 0.000000000000000000, 0.000000000000000000, 0.000000000000000000, 0.000000000000000000, 0.000000000000000000, 0.000000000000000000 ) ;
#140 = PRESENTATION_STYLE_ASSIGNMENT (( #114 ) ) ;
#141 =( LENGTH_UNIT ( ) NAMED_UNIT ( * ) SI_UNIT ( $, .METRE. ) );
#142 = CARTESIAN_POINT ( 'NONE',  ( 0.000000000000000000, 0.6250000000000000000, 0.000000000000000000 ) ) ;
#143 = CIRCLE ( 'NONE', #317, 0.09374999999999997224 ) ;
#144 = ORIENTED_EDGE ( 'NONE', *, *, #76, .F. ) ;
#145 = APPLICATION_CONTEXT ( 'automotive_design' ) ;
#146 = CARTESIAN_POINT ( 'NONE',  ( -6.123233995736766036E-17, 2.500000000000000000, 0.000000000000000000 ) ) ;
#147 = FILL_AREA_STYLE_COLOUR ( '', #130 ) ;
#148 = SURFACE_STYLE_FILL_AREA ( #35 ) ;
#149 = APPLICATION_PROTOCOL_DEFINITION ( 'draft international standard', 'automotive_design', 1998, #145 ) ;
#150 = SURFACE_SIDE_STYLE ('',( #120 ) ) ;
#151 = COLOUR_RGB ( '',0.7921568627450980005, 0.8196078431372548767, 0.9333333333333333481 ) ;
#152 = PRODUCT_DEFINITION_FORMATION_WITH_SPECIFIED_SOURCE ( 'ANY', '', #245, .NOT_KNOWN. ) ;
#153 = CARTESIAN_POINT ( 'NONE',  ( -6.123233995736766036E-17, 2.500000000000000000, 0.000000000000000000 ) ) ;
#154 = FILL_AREA_STYLE_COLOUR ( '', #151 ) ;
#155 = VERTEX_POINT ( 'NONE', #87 ) ;
#156 = AXIS2_PLACEMENT_3D ( 'NONE', #13, #304, #37 ) ;
#157 =( NAMED_UNIT ( * ) PLANE_ANGLE_UNIT ( ) SI_UNIT ( $, .RADIAN. ) );
#158 = PRESENTATION_STYLE_ASSIGNMENT (( #343 ) ) ;
#159 = DIRECTION ( 'NONE',  ( -0.000000000000000000, -1.000000000000000000, -0.000000000000000000 ) ) ;
#160 = COLOUR_RGB ( '',1.000000000000000000, 0.000000000000000000, 0.000000000000000000 ) ;
#161 = DIRECTION ( 'NONE',  ( 1.224646799147353207E-16, -0.000000000000000000, 1.000000000000000000 ) ) ;
#162 = DIMENSIONAL_EXPONENTS ( 1.000000000000000000, 0.000000000000000000, 0.000000000000000000, 0.000000000000000000, 0.000000000000000000, 0.000000000000000000, 0.000000000000000000 ) ;
#163 = ORIENTED_EDGE ( 'NONE', *, *, #372, .T. ) ;
#164 = VECTOR ( 'NONE', #134, 39.37007874015748143 ) ;
#165 = MECHANICAL_DESIGN_GEOMETRIC_PRESENTATION_REPRESENTATION (  '', ( #69 ), #70 ) ;
#166 = DIRECTION ( 'NONE',  ( 0.000000000000000000, 0.000000000000000000, -1.000000000000000000 ) ) ;
#167 =( CONVERSION_BASED_UNIT ( 'INCH', #330 ) LENGTH_UNIT ( ) NAMED_UNIT ( #373 ) );
#168 = UNCERTAINTY_MEASURE_WITH_UNIT (LENGTH_MEASURE( 1.000000000000000082E-05 ), #167, 'distance_accuracy_value', 'NONE');
#169 =( LENGTH_UNIT ( ) NAMED_UNIT ( * ) SI_UNIT ( $, .METRE. ) );
#170 =( NAMED_UNIT ( * ) PLANE_ANGLE_UNIT ( ) SI_UNIT ( $, .RADIAN. ) );
#171 = LENGTH_MEASURE_WITH_UNIT ( LENGTH_MEASURE( 0.02539999999999999897 ), #176 );
#172 = DIRECTION ( 'NONE',  ( 0.000000000000000000, 0.000000000000000000, -1.000000000000000000 ) ) ;
#173 = FILL_AREA_STYLE_COLOUR ( '', #160 ) ;
#174 = COLOUR_RGB ( '',1.000000000000000000, 0.000000000000000000, 0.000000000000000000 ) ;
#175 = CIRCLE ( 'NONE', #334, 0.09375000000000001388 ) ;
#176 =( LENGTH_UNIT ( ) NAMED_UNIT ( * ) SI_UNIT ( $, .METRE. ) );
#177 = DIRECTION ( 'NONE',  ( -1.000000000000000000, 0.000000000000000000, 0.000000000000000000 ) ) ;
#178 = SURFACE_SIDE_STYLE ('',( #363 ) ) ;
#179 =( CONVERSION_BASED_UNIT ( 'INCH', #364 ) LENGTH_UNIT ( ) NAMED_UNIT ( #323 ) );
#180 = CARTESIAN_POINT ( 'NONE',  ( 0.000000000000000000, 0.6250000000000000000, 0.000000000000000000 ) ) ;
#181 = DIRECTION ( 'NONE',  ( -0.000000000000000000, -1.000000000000000000, -0.000000000000000000 ) ) ;
#182 = MANIFOLD_SOLID_BREP ( 'Revolve - Tool Body (Straight Shanked)', #122 ) ;
#183 = ORIENTED_EDGE ( 'NONE', *, *, #73, .T. ) ;
#184 = LINE ( 'NONE', #21, #357 ) ;
#185 = VERTEX_POINT ( 'NONE', #249 ) ;
#186 = PRODUCT_RELATED_PRODUCT_CATEGORY ( 'part', '', ( #245 ) ) ;
#187 = ORIENTED_EDGE ( 'NONE', *, *, #204, .F. ) ;
#188 = DIRECTION ( 'NONE',  ( -0.000000000000000000, -1.000000000000000000, -0.000000000000000000 ) ) ;
#189 = PRESENTATION_STYLE_ASSIGNMENT (( #132 ) ) ;
#190 =( GEOMETRIC_REPRESENTATION_CONTEXT ( 3 ) GLOBAL_UNCERTAINTY_ASSIGNED_CONTEXT ( ( #44 ) ) GLOBAL_UNIT_ASSIGNED_CONTEXT ( ( #78, #295, #331 ) ) REPRESENTATION_CONTEXT ( 'NONE', 'WORKASPACE' ) );
#191 = MECHANICAL_DESIGN_GEOMETRIC_PRESENTATION_REPRESENTATION (  '', ( #98 ), #58 ) ;
#192 = DIMENSIONAL_EXPONENTS ( 1.000000000000000000, 0.000000000000000000, 0.000000000000000000, 0.000000000000000000, 0.000000000000000000, 0.000000000000000000, 0.000000000000000000 ) ;
#193 = VERTEX_POINT ( 'NONE', #131 ) ;
#194 = DIRECTION ( 'NONE',  ( -1.224646799147353207E-16, 1.000000000000000000, -0.000000000000000000 ) ) ;
#195 = DIRECTION ( 'NONE',  ( -1.224646799147353207E-16, 1.000000000000000000, -0.000000000000000000 ) ) ;
#196 = CIRCLE ( 'NONE', #57, 0.09374999999999979183 ) ;
#197 = EDGE_CURVE ( 'NONE', #218, #136, #240, .T. ) ;
#198 = UNCERTAINTY_MEASURE_WITH_UNIT (LENGTH_MEASURE( 1.000000000000000082E-05 ), #239, 'distance_accuracy_value', 'NONE');
#199 = CARTESIAN_POINT ( 'NONE',  ( -0.09374999999999961142, 0.6250000000000000000, 0.000000000000000000 ) ) ;
#200 = DIRECTION ( 'NONE',  ( 0.000000000000000000, -0.000000000000000000, 1.000000000000000000 ) ) ;
#201 = CARTESIAN_POINT ( 'NONE',  ( 0.000000000000000000, 0.000000000000000000, 0.000000000000000000 ) ) ;
#202 =( NAMED_UNIT ( * ) PLANE_ANGLE_UNIT ( ) SI_UNIT ( $, .RADIAN. ) );
#203 = APPLICATION_CONTEXT ( 'automotive_design' ) ;
#204 = EDGE_CURVE ( 'NONE', #250, #155, #85, .T. ) ;
#205 = VECTOR ( 'NONE', #194, 39.37007874015748143 ) ;
#206 = PRESENTATION_LAYER_ASSIGNMENT (  '', '', ( #98 ) ) ;
#207 = CARTESIAN_POINT ( 'NONE',  ( 1.683889348827610752E-16, 0.6250000000000000000, 0.000000000000000000 ) ) ;
#208 = CARTESIAN_POINT ( 'NONE',  ( -6.123233995736766036E-17, 2.500000000000000000, 0.000000000000000000 ) ) ;
#209 = ORIENTED_EDGE ( 'NONE', *, *, #11, .T. ) ;
#210 = DIRECTION ( 'NONE',  ( 0.000000000000000000, 0.000000000000000000, 1.000000000000000000 ) ) ;
#211 = PRESENTATION_LAYER_ASSIGNMENT (  '', '', ( #52 ) ) ;
#212 = DIRECTION ( 'NONE',  ( -1.224646799147353207E-16, 1.000000000000000000, -0.000000000000000000 ) ) ;
#213 = CARTESIAN_POINT ( 'NONE',  ( 1.148106374200643092E-17, 0.000000000000000000, 0.09374999999999995837 ) ) ;
#214 = CARTESIAN_POINT ( 'NONE',  ( 0.000000000000000000, 0.000000000000000000, 0.000000000000000000 ) ) ;
#215 = VERTEX_POINT ( 'NONE', #347 ) ;
#216 =( NAMED_UNIT ( * ) SI_UNIT ( $, .STERADIAN. ) SOLID_ANGLE_UNIT ( ) );
#217 = ADVANCED_FACE ( 'NONE', ( #222 ), #367, .T. ) ;
#218 = VERTEX_POINT ( 'NONE', #232 ) ;
#219 = CIRCLE ( 'NONE', #268, 0.09375000000000001388 ) ;
#220 = EDGE_LOOP ( 'NONE', ( #50, #74, #224, #163 ) ) ;
#221 = EDGE_CURVE ( 'NONE', #136, #99, #359, .T. ) ;
#222 = FACE_OUTER_BOUND ( 'NONE', #280, .T. ) ;
#223 = FILL_AREA_STYLE_COLOUR ( '', #15 ) ;
#224 = ORIENTED_EDGE ( 'NONE', *, *, #294, .F. ) ;
#225 = ORIENTED_EDGE ( 'NONE', *, *, #197, .F. ) ;
#226 = CIRCLE ( 'NONE', #337, 0.09374999999999994449 ) ;
#227 = PLANE ( 'NONE',  #230 ) ;
#228 = EDGE_LOOP ( 'NONE', ( #225, #51 ) ) ;
#229 = CARTESIAN_POINT ( 'NONE',  ( 0.000000000000000000, 0.000000000000000000, -0.09374999999999995837 ) ) ;
#230 = AXIS2_PLACEMENT_3D ( 'NONE', #255, #353, #200 ) ;
#231 = SURFACE_SIDE_STYLE ('',( #82 ) ) ;
#232 = CARTESIAN_POINT ( 'NONE',  ( 0.000000000000000000, 0.6250000000000000000, -0.09374999999999994449 ) ) ;
#233 = STYLED_ITEM ( 'NONE', ( #271 ), #128 ) ;
#234 = SPHERICAL_SURFACE ( 'NONE', #298, 0.09374999999999998612 ) ;
#235 = SURFACE_STYLE_USAGE ( .BOTH. , #267 ) ;
#236 = SURFACE_STYLE_USAGE ( .BOTH. , #178 ) ;
#237 = CARTESIAN_POINT ( 'NONE',  ( -5.740531871003217003E-18, 0.000000000000000000, 0.000000000000000000 ) ) ;
#238 = PRODUCT_DEFINITION ( 'UNKNOWN', '', #152, #320 ) ;
#239 =( CONVERSION_BASED_UNIT ( 'INCH', #307 ) LENGTH_UNIT ( ) NAMED_UNIT ( #289 ) );
#240 = CIRCLE ( 'NONE', #306, 0.09374999999999994449 ) ;
#241 = CYLINDRICAL_SURFACE ( 'NONE', #135, 0.09374999999999988898 ) ;
#242 = DIRECTION ( 'NONE',  ( 1.000000000000000000, 0.000000000000000000, -1.224646799147353207E-16 ) ) ;
#243 = FILL_AREA_STYLE ('',( #97 ) ) ;
#244 = DIRECTION ( 'NONE',  ( -0.000000000000000000, -1.000000000000000000, -0.000000000000000000 ) ) ;
#245 = PRODUCT ( '83280', '83280', '', ( #335 ) ) ;
#246 = ORIENTED_EDGE ( 'NONE', *, *, #49, .F. ) ;
#247 = CIRCLE ( 'NONE', #350, 0.09374999999999998612 ) ;
#248 = CARTESIAN_POINT ( 'NONE',  ( 1.683889348827610752E-16, 0.6250000000000000000, 0.000000000000000000 ) ) ;
#249 = CARTESIAN_POINT ( 'NONE',  ( 0.09374999999999995837, 0.6250000000000000000, 1.148106374200643092E-17 ) ) ;
#250 = VERTEX_POINT ( 'NONE', #88 ) ;
#251 = EDGE_LOOP ( 'NONE', ( #366, #106, #260, #187, #144 ) ) ;
#252 = CARTESIAN_POINT ( 'NONE',  ( 0.000000000000000000, 0.000000000000000000, 0.000000000000000000 ) ) ;
#253 = AXIS2_PLACEMENT_3D ( 'NONE', #338, #339, #68 ) ;
#254 = SURFACE_STYLE_FILL_AREA ( #312 ) ;
#255 = CARTESIAN_POINT ( 'NONE',  ( 0.000000000000000000, 0.6250000000000000000, 0.000000000000000000 ) ) ;
#256 = SHAPE_DEFINITION_REPRESENTATION ( #20, #292 ) ;
#257 =( NAMED_UNIT ( * ) SI_UNIT ( $, .STERADIAN. ) SOLID_ANGLE_UNIT ( ) );
#258 =( NAMED_UNIT ( * ) SI_UNIT ( $, .STERADIAN. ) SOLID_ANGLE_UNIT ( ) );
#259 = AXIS2_PLACEMENT_3D ( 'NONE', #208, #61, #125 ) ;
#260 = ORIENTED_EDGE ( 'NONE', *, *, #4, .T. ) ;
#261 = DIRECTION ( 'NONE',  ( -1.000000000000000000, 0.000000000000000000, 0.000000000000000000 ) ) ;
#262 =( CONVERSION_BASED_UNIT ( 'INCH', #33 ) LENGTH_UNIT ( ) NAMED_UNIT ( #139 ) );
#263 = SURFACE_STYLE_USAGE ( .BOTH. , #150 ) ;
#264 = DIRECTION ( 'NONE',  ( 0.000000000000000000, 0.000000000000000000, -1.000000000000000000 ) ) ;
#265 = DIRECTION ( 'NONE',  ( -1.224646799147353207E-16, 1.000000000000000000, -0.000000000000000000 ) ) ;
#266 = CARTESIAN_POINT ( 'NONE',  ( -1.148106374200643401E-17, 0.09374999999999998612, 0.000000000000000000 ) ) ;
#267 = SURFACE_SIDE_STYLE ('',( #148 ) ) ;
#268 = AXIS2_PLACEMENT_3D ( 'NONE', #146, #195, #261 ) ;
#269 =( GEOMETRIC_REPRESENTATION_CONTEXT ( 3 ) GLOBAL_UNCERTAINTY_ASSIGNED_CONTEXT ( ( #168 ) ) GLOBAL_UNIT_ASSIGNED_CONTEXT ( ( #167, #81, #257 ) ) REPRESENTATION_CONTEXT ( 'NONE', 'WORKASPACE' ) );
#270 = DIRECTION ( 'NONE',  ( 1.000000000000000000, 0.000000000000000000, 0.000000000000000000 ) ) ;
#271 = PRESENTATION_STYLE_ASSIGNMENT (( #235 ) ) ;
#272 = ADVANCED_FACE ( 'NONE', ( #94 ), #365, .F. ) ;
#273 = CARTESIAN_POINT ( 'NONE',  ( -1.148106374200643401E-17, 0.09374999999999998612, 0.000000000000000000 ) ) ;
#274 =( LENGTH_UNIT ( ) NAMED_UNIT ( * ) SI_UNIT ( $, .METRE. ) );
#275 =( GEOMETRIC_REPRESENTATION_CONTEXT ( 3 ) GLOBAL_UNCERTAINTY_ASSIGNED_CONTEXT ( ( #371 ) ) GLOBAL_UNIT_ASSIGNED_CONTEXT ( ( #40, #96, #340 ) ) REPRESENTATION_CONTEXT ( 'NONE', 'WORKASPACE' ) );
#276 = COLOUR_RGB ( '',1.000000000000000000, 0.000000000000000000, 0.000000000000000000 ) ;
#277 = DIRECTION ( 'NONE',  ( -1.000000000000000000, 0.000000000000000000, 0.000000000000000000 ) ) ;
#278 = UNCERTAINTY_MEASURE_WITH_UNIT (LENGTH_MEASURE( 1.000000000000000082E-05 ), #179, 'distance_accuracy_value', 'NONE');
#279 = CARTESIAN_POINT ( 'NONE',  ( 0.000000000000000000, 0.09375000000000001388, 0.000000000000000000 ) ) ;
#280 = EDGE_LOOP ( 'NONE', ( #31, #319, #60, #7, #314 ) ) ;
#281 = AXIS2_PLACEMENT_3D ( 'NONE', #214, #93, #124 ) ;
#282 = DIRECTION ( 'NONE',  ( 0.000000000000000000, 0.000000000000000000, -1.000000000000000000 ) ) ;
#283 = ORIENTED_EDGE ( 'NONE', *, *, #358, .T. ) ;
#284 = DIRECTION ( 'NONE',  ( -0.000000000000000000, -1.000000000000000000, -0.000000000000000000 ) ) ;
#285 = ORIENTED_EDGE ( 'NONE', *, *, #65, .T. ) ;
#286 = ORIENTED_EDGE ( 'NONE', *, *, #11, .F. ) ;
#287 = ADVANCED_FACE ( 'NONE', ( #305 ), #301, .T. ) ;
#288 = STYLED_ITEM ( 'NONE', ( #189 ), #54 ) ;
#289 = DIMENSIONAL_EXPONENTS ( 1.000000000000000000, 0.000000000000000000, 0.000000000000000000, 0.000000000000000000, 0.000000000000000000, 0.000000000000000000, 0.000000000000000000 ) ;
#290 = FACE_OUTER_BOUND ( 'NONE', #316, .T. ) ;
#291 = AXIS2_PLACEMENT_3D ( 'NONE', #201, #36, #6 ) ;
#292 = ADVANCED_BREP_SHAPE_REPRESENTATION ( '83280', ( #332, #182, #291 ), #23 ) ;
#293 = DIRECTION ( 'NONE',  ( -1.000000000000000000, -1.224646799147353207E-16, 0.000000000000000000 ) ) ;
#294 = EDGE_CURVE ( 'NONE', #193, #313, #297, .T. ) ;
#295 =( NAMED_UNIT ( * ) PLANE_ANGLE_UNIT ( ) SI_UNIT ( $, .RADIAN. ) );
#296 = SURFACE_STYLE_FILL_AREA ( #83 ) ;
#297 = CIRCLE ( 'NONE', #341, 0.09374999999999998612 ) ;
#298 = AXIS2_PLACEMENT_3D ( 'NONE', #266, #210, #270 ) ;
#299 = FACE_OUTER_BOUND ( 'NONE', #220, .T. ) ;
#300 =( CONVERSION_BASED_UNIT ( 'INCH', #171 ) LENGTH_UNIT ( ) NAMED_UNIT ( #53 ) );
#301 = CYLINDRICAL_SURFACE ( 'NONE', #259, 0.09374999999999988898 ) ;
#302 =( LENGTH_UNIT ( ) NAMED_UNIT ( * ) SI_UNIT ( $, .METRE. ) );
#303 =( NAMED_UNIT ( * ) SI_UNIT ( $, .STERADIAN. ) SOLID_ANGLE_UNIT ( ) );
#304 = DIRECTION ( 'NONE',  ( -0.000000000000000000, -1.000000000000000000, -0.000000000000000000 ) ) ;
#305 = FACE_OUTER_BOUND ( 'NONE', #368, .T. ) ;
#306 = AXIS2_PLACEMENT_3D ( 'NONE', #142, #244, #282 ) ;
#307 = LENGTH_MEASURE_WITH_UNIT ( LENGTH_MEASURE( 0.02539999999999999897 ), #16 );
#308 = FILL_AREA_STYLE_COLOUR ( '', #276 ) ;
#309 = PRESENTATION_STYLE_ASSIGNMENT (( #236 ) ) ;
#310 = CARTESIAN_POINT ( 'NONE',  ( 0.000000000000000000, 0.09375000000000001388, 0.000000000000000000 ) ) ;
#311 = UNCERTAINTY_MEASURE_WITH_UNIT (LENGTH_MEASURE( 1.000000000000000082E-05 ), #262, 'distance_accuracy_value', 'NONE');
#312 = FILL_AREA_STYLE ('',( #223 ) ) ;
#313 = VERTEX_POINT ( 'NONE', #237 ) ;
#314 = ORIENTED_EDGE ( 'NONE', *, *, #4, .F. ) ;
#315 = ADVANCED_FACE ( 'NONE', ( #90 ), #234, .T. ) ;
#316 = EDGE_LOOP ( 'NONE', ( #26, #345, #71, #77 ) ) ;
#317 = AXIS2_PLACEMENT_3D ( 'NONE', #29, #118, #264 ) ;
#318 = ADVANCED_FACE ( 'NONE', ( #299 ), #14, .T. ) ;
#319 = ORIENTED_EDGE ( 'NONE', *, *, #221, .T. ) ;
#320 = PRODUCT_DEFINITION_CONTEXT ( 'detailed design', #203, 'design' ) ;
#321 = ORIENTED_EDGE ( 'NONE', *, *, #204, .T. ) ;
#322 = FILL_AREA_STYLE ('',( #308 ) ) ;
#323 = DIMENSIONAL_EXPONENTS ( 1.000000000000000000, 0.000000000000000000, 0.000000000000000000, 0.000000000000000000, 0.000000000000000000, 0.000000000000000000, 0.000000000000000000 ) ;
#324 = CLOSED_SHELL ( 'NONE', ( #318, #217, #54, #128, #315 ) ) ;
#325 = UNCERTAINTY_MEASURE_WITH_UNIT (LENGTH_MEASURE( 1.000000000000000082E-05 ), #300, 'distance_accuracy_value', 'NONE');
#326 = CARTESIAN_POINT ( 'NONE',  ( 0.09374999999999981959, 2.500000000000000000, 1.148106374200642322E-17 ) ) ;
#327 = STYLED_ITEM ( 'NONE', ( #140 ), #332 ) ;
#328 =( NAMED_UNIT ( * ) PLANE_ANGLE_UNIT ( ) SI_UNIT ( $, .RADIAN. ) );
#329 = UNCERTAINTY_MEASURE_WITH_UNIT (LENGTH_MEASURE( 1.000000000000000082E-05 ), #113, 'distance_accuracy_value', 'NONE');
#330 = LENGTH_MEASURE_WITH_UNIT ( LENGTH_MEASURE( 0.02539999999999999897 ), #302 );
#331 =( NAMED_UNIT ( * ) SI_UNIT ( $, .STERADIAN. ) SOLID_ANGLE_UNIT ( ) );
#332 = MANIFOLD_SOLID_BREP ( 'Revolve - Cutting Edge', #324 ) ;
#333 = AXIS2_PLACEMENT_3D ( 'NONE', #252, #181, #166 ) ;
#334 = AXIS2_PLACEMENT_3D ( 'NONE', #62, #265, #89 ) ;
#335 = PRODUCT_CONTEXT ( 'NONE', #145, 'mechanical' ) ;
#336 = FACE_OUTER_BOUND ( 'NONE', #251, .T. ) ;
#337 = AXIS2_PLACEMENT_3D ( 'NONE', #180, #188, #47 ) ;
#338 = CARTESIAN_POINT ( 'NONE',  ( 0.09374999999999994449, 2.500000000000000000, 0.000000000000000000 ) ) ;
#339 = DIRECTION ( 'NONE',  ( 1.224646799147353207E-16, -1.000000000000000000, 0.000000000000000000 ) ) ;
#340 =( NAMED_UNIT ( * ) SI_UNIT ( $, .STERADIAN. ) SOLID_ANGLE_UNIT ( ) );
#341 = AXIS2_PLACEMENT_3D ( 'NONE', #67, #172, #177 ) ;
#342 = SURFACE_STYLE_FILL_AREA ( #243 ) ;
#343 = SURFACE_STYLE_USAGE ( .BOTH. , #72 ) ;
#344 =( LENGTH_UNIT ( ) NAMED_UNIT ( * ) SI_UNIT ( $, .METRE. ) );
#345 = ORIENTED_EDGE ( 'NONE', *, *, #115, .T. ) ;
#346 = DIRECTION ( 'NONE',  ( -1.224646799147353207E-16, 1.000000000000000000, -0.000000000000000000 ) ) ;
#347 = CARTESIAN_POINT ( 'NONE',  ( 0.09374999999999991673, 2.500000000000000000, 1.148106374200642938E-17 ) ) ;
#348 = SURFACE_SIDE_STYLE ('',( #254 ) ) ;
#349 = ORIENTED_EDGE ( 'NONE', *, *, #18, .F. ) ;
#350 = AXIS2_PLACEMENT_3D ( 'NONE', #100, #161, #242 ) ;
#351 = AXIS2_PLACEMENT_3D ( 'NONE', #310, #284, #101 ) ;
#352 = MECHANICAL_DESIGN_GEOMETRIC_PRESENTATION_REPRESENTATION (  '', ( #327 ), #269 ) ;
#353 = DIRECTION ( 'NONE',  ( 0.000000000000000000, 1.000000000000000000, 0.000000000000000000 ) ) ;
#354 =( NAMED_UNIT ( * ) SI_UNIT ( $, .STERADIAN. ) SOLID_ANGLE_UNIT ( ) );
#355 = AXIS2_PLACEMENT_3D ( 'NONE', #248, #346, #370 ) ;
#356 = CYLINDRICAL_SURFACE ( 'NONE', #333, 0.09374999999999995837 ) ;
#357 = VECTOR ( 'NONE', #24, 39.37007874015748143 ) ;
#358 = EDGE_CURVE ( 'NONE', #1, #215, #175, .T. ) ;
#359 = LINE ( 'NONE', #213, #75 ) ;
#360 = PRESENTATION_STYLE_ASSIGNMENT (( #263 ) ) ;
#361 = FILL_AREA_STYLE ('',( #10 ) ) ;
#362 = LENGTH_MEASURE_WITH_UNIT ( LENGTH_MEASURE( 0.02539999999999999897 ), #63 );
#363 = SURFACE_STYLE_FILL_AREA ( #123 ) ;
#364 = LENGTH_MEASURE_WITH_UNIT ( LENGTH_MEASURE( 0.02539999999999999897 ), #274 );
#365 = PLANE ( 'NONE',  #253 ) ;
#366 = ORIENTED_EDGE ( 'NONE', *, *, #221, .F. ) ;
#367 = CYLINDRICAL_SURFACE ( 'NONE', #281, 0.09374999999999995837 ) ;
#368 = EDGE_LOOP ( 'NONE', ( #209, #183, #48, #246 ) ) ;
#369 = MECHANICAL_DESIGN_GEOMETRIC_PRESENTATION_REPRESENTATION (  '', ( #52 ), #66 ) ;
#370 = DIRECTION ( 'NONE',  ( -1.000000000000000000, 0.000000000000000000, 0.000000000000000000 ) ) ;
#371 = UNCERTAINTY_MEASURE_WITH_UNIT (LENGTH_MEASURE( 1.000000000000000082E-05 ), #40, 'distance_accuracy_value', 'NONE');
#372 = EDGE_CURVE ( 'NONE', #193, #99, #109, .T. ) ;
#373 = DIMENSIONAL_EXPONENTS ( 1.000000000000000000, 0.000000000000000000, 0.000000000000000000, 0.000000000000000000, 0.000000000000000000, 0.000000000000000000, 0.000000000000000000 ) ;
ENDSEC;
END-ISO-10303-21;
