ISO-10303-21;
HEADER;
FILE_DESCRIPTION (( 'STEP AP214' ),
    '1' );
FILE_NAME ('Micro_SEM-187-02.STEP',
    '2021-09-02T02:03:36',
    ( '' ),
    ( '' ),
    'SwSTEP 2.0',
    'SolidWorks 2020',
    '' );
FILE_SCHEMA (( 'AUTOMOTIVE_DESIGN' ));
ENDSEC;

DATA;
#1 = DIRECTION ( 'NONE',  ( 1.224646799147353454E-16, 0.0000000000000000000, 1.000000000000000000 ) ) ;
#2 = LINE ( 'NONE', #94, #112 ) ;
#3 = ORIENTED_EDGE ( 'NONE', *, *, #126, .F. ) ;
#4 = FACE_OUTER_BOUND ( 'NONE', #79, .T. ) ;
#5 = VERTEX_POINT ( 'NONE', #290 ) ;
#6 = PRODUCT_CONTEXT ( 'NONE', #132, 'mechanical' ) ;
#7 = AXIS2_PLACEMENT_3D ( 'NONE', #231, #252, #207 ) ;
#8 = ORIENTED_EDGE ( 'NONE', *, *, #232, .F. ) ;
#9 = FILL_AREA_STYLE_COLOUR ( '', #293 ) ;
#10 = DIRECTION ( 'NONE',  ( -0.0000000000000000000, -0.0000000000000000000, -1.000000000000000000 ) ) ;
#11 = EDGE_LOOP ( 'NONE', ( #288, #29, #263, #97 ) ) ;
#12 = LINE ( 'NONE', #84, #266 ) ;
#13 = PLANE ( 'NONE',  #106 ) ;
#14 = DIRECTION ( 'NONE',  ( -1.224646799147353454E-16, -0.0000000000000000000, -1.000000000000000000 ) ) ;
#15 = EDGE_CURVE ( 'NONE', #163, #244, #225, .T. ) ;
#16 = DIRECTION ( 'NONE',  ( -1.000000000000000000, 0.0000000000000000000, 0.0000000000000000000 ) ) ;
#17 = AXIS2_PLACEMENT_3D ( 'NONE', #38, #14, #109 ) ;
#18 = AXIS2_PLACEMENT_3D ( 'NONE', #92, #65, #42 ) ;
#19 = FACE_OUTER_BOUND ( 'NONE', #105, .T. ) ;
#20 = CARTESIAN_POINT ( 'NONE',  ( 0.07875000000000061118, 1.056257864264595965E-17, 1.500000000000000222 ) ) ;
#21 = DIRECTION ( 'NONE',  ( -0.0000000000000000000, -0.0000000000000000000, -1.000000000000000000 ) ) ;
#22 = CONICAL_SURFACE ( 'NONE', #191, 0.09365624999999999645, 0.1745329251994340303 ) ;
#23 = LINE ( 'NONE', #117, #214 ) ;
#24 = CARTESIAN_POINT ( 'NONE',  ( 0.0000000000000000000, 0.0000000000000000000, 1.500000000000000222 ) ) ;
#25 = FACE_OUTER_BOUND ( 'NONE', #51, .T. ) ;
#26 =( LENGTH_UNIT ( ) NAMED_UNIT ( * ) SI_UNIT ( $, .METRE. ) );
#27 = ORIENTED_EDGE ( 'NONE', *, *, #100, .T. ) ;
#28 = EDGE_CURVE ( 'NONE', #163, #5, #246, .T. ) ;
#29 = ORIENTED_EDGE ( 'NONE', *, *, #15, .F. ) ;
#30 = DIRECTION ( 'NONE',  ( -1.000000000000000000, 0.0000000000000000000, 0.0000000000000000000 ) ) ;
#31 = AXIS2_PLACEMENT_3D ( 'NONE', #138, #228, #16 ) ;
#32 = AXIS2_PLACEMENT_3D ( 'NONE', #259, #47, #257 ) ;
#33 = ORIENTED_EDGE ( 'NONE', *, *, #63, .T. ) ;
#34 = VERTEX_POINT ( 'NONE', #208 ) ;
#35 = DIRECTION ( 'NONE',  ( 0.0000000000000000000, 0.0000000000000000000, 1.000000000000000000 ) ) ;
#36 = VECTOR ( 'NONE', #227, 39.37007874015748143 ) ;
#37 = AXIS2_PLACEMENT_3D ( 'NONE', #151, #283, #30 ) ;
#38 = CARTESIAN_POINT ( 'NONE',  ( 1.404618771449246621E-33, 0.0000000000000000000, 1.146958267826443260E-17 ) ) ;
#39 = FACE_OUTER_BOUND ( 'NONE', #74, .T. ) ;
#40 = CARTESIAN_POINT ( 'NONE',  ( 0.09365624999999999645, 1.146958267826442798E-17, -1.146958267826443260E-17 ) ) ;
#41 = STYLED_ITEM ( 'NONE', ( #101 ), #215 ) ;
#42 = DIRECTION ( 'NONE',  ( 1.000000000000000000, 0.0000000000000000000, 0.0000000000000000000 ) ) ;
#43 = DIRECTION ( 'NONE',  ( -0.0000000000000000000, -0.0000000000000000000, -1.000000000000000000 ) ) ;
#44 = CARTESIAN_POINT ( 'NONE',  ( 1.404618771449246621E-33, 0.0000000000000000000, 1.146958267826443260E-17 ) ) ;
#45 = CYLINDRICAL_SURFACE ( 'NONE', #189, 0.09375000000000001388 ) ;
#46 = DIRECTION ( 'NONE',  ( -1.000000000000000000, 0.0000000000000000000, 1.224646799147353454E-16 ) ) ;
#47 = DIRECTION ( 'NONE',  ( 0.0000000000000000000, 0.0000000000000000000, 1.000000000000000000 ) ) ;
#48 = ORIENTED_EDGE ( 'NONE', *, *, #258, .T. ) ;
#49 =( LENGTH_UNIT ( ) NAMED_UNIT ( * ) SI_UNIT ( $, .METRE. ) );
#50 = ORIENTED_EDGE ( 'NONE', *, *, #126, .T. ) ;
#51 = EDGE_LOOP ( 'NONE', ( #243, #199, #124, #75 ) ) ;
#52 =( CONVERSION_BASED_UNIT ( 'INCH', #196 ) LENGTH_UNIT ( ) NAMED_UNIT ( #161 ) );
#53 = AXIS2_PLACEMENT_3D ( 'NONE', #158, #35, #184 ) ;
#54 = EDGE_LOOP ( 'NONE', ( #99, #294, #241, #8 ) ) ;
#55 = EDGE_CURVE ( 'NONE', #130, #195, #254, .T. ) ;
#56 = DIRECTION ( 'NONE',  ( -0.1736481776669313026, 2.126576849575784549E-17, 0.9848077530122077983 ) ) ;
#57 = DIRECTION ( 'NONE',  ( 0.0000000000000000000, 0.0000000000000000000, 1.000000000000000000 ) ) ;
#58 = AXIS2_PLACEMENT_3D ( 'NONE', #273, #59, #110 ) ;
#59 = DIRECTION ( 'NONE',  ( 0.0000000000000000000, 0.0000000000000000000, -1.000000000000000000 ) ) ;
#60 = CARTESIAN_POINT ( 'NONE',  ( 0.09375000000000004163, 1.148106374200644017E-17, 0.3755316826705892841 ) ) ;
#61 = PRODUCT_DEFINITION_CONTEXT ( 'detailed design', #125, 'design' ) ;
#62 = CYLINDRICAL_SURFACE ( 'NONE', #7, 0.09365624999999999645 ) ;
#63 = EDGE_CURVE ( 'NONE', #244, #163, #111, .T. ) ;
#64 =( GEOMETRIC_REPRESENTATION_CONTEXT ( 3 ) GLOBAL_UNCERTAINTY_ASSIGNED_CONTEXT ( ( #250 ) ) GLOBAL_UNIT_ASSIGNED_CONTEXT ( ( #52, #221, #96 ) ) REPRESENTATION_CONTEXT ( 'NONE', 'WORKASPACE' ) );
#65 = DIRECTION ( 'NONE',  ( 0.0000000000000000000, 0.0000000000000000000, -1.000000000000000000 ) ) ;
#66 = FILL_AREA_STYLE_COLOUR ( '', #164 ) ;
#67 = EDGE_CURVE ( 'NONE', #244, #148, #181, .T. ) ;
#68 = DIRECTION ( 'NONE',  ( 0.1736481776669315247, 0.0000000000000000000, 0.9848077530122077983 ) ) ;
#69 = FACE_OUTER_BOUND ( 'NONE', #217, .T. ) ;
#70 =( CONVERSION_BASED_UNIT ( 'INCH', #171 ) LENGTH_UNIT ( ) NAMED_UNIT ( #86 ) );
#71 = AXIS2_PLACEMENT_3D ( 'NONE', #88, #270, #292 ) ;
#72 = SURFACE_SIDE_STYLE ('',( #218 ) ) ;
#73 = PRODUCT_DEFINITION_SHAPE ( 'NONE', 'NONE',  #238 ) ;
#74 = EDGE_LOOP ( 'NONE', ( #48, #281, #3, #264 ) ) ;
#75 = ORIENTED_EDGE ( 'NONE', *, *, #123, .F. ) ;
#76 = VERTEX_POINT ( 'NONE', #60 ) ;
#77 = SHAPE_DEFINITION_REPRESENTATION ( #73, #215 ) ;
#78 = VECTOR ( 'NONE', #87, 39.37007874015748143 ) ;
#79 = EDGE_LOOP ( 'NONE', ( #127, #180, #27, #173 ) ) ;
#80 = PRESENTATION_LAYER_ASSIGNMENT (  '', '', ( #41 ) ) ;
#81 = ORIENTED_EDGE ( 'NONE', *, *, #100, .F. ) ;
#82 = DIRECTION ( 'NONE',  ( -1.224646799147353454E-16, -0.0000000000000000000, -1.000000000000000000 ) ) ;
#83 = ADVANCED_FACE ( 'NONE', ( #139 ), #62, .T. ) ;
#84 = CARTESIAN_POINT ( 'NONE',  ( -0.09365624999999994094, 1.146958267826442798E-17, 0.3750000000000000555 ) ) ;
#85 = AXIS2_PLACEMENT_3D ( 'NONE', #156, #185, #247 ) ;
#86 = DIMENSIONAL_EXPONENTS ( 1.000000000000000000, 0.0000000000000000000, 0.0000000000000000000, 0.0000000000000000000, 0.0000000000000000000, 0.0000000000000000000, 0.0000000000000000000 ) ;
#87 = DIRECTION ( 'NONE',  ( -1.224646799147353454E-16, -0.0000000000000000000, -1.000000000000000000 ) ) ;
#88 = CARTESIAN_POINT ( 'NONE',  ( 4.598936731609567916E-17, 0.0000000000000000000, 0.3755316826705892841 ) ) ;
#89 = CARTESIAN_POINT ( 'NONE',  ( 0.0000000000000000000, 0.0000000000000000000, 0.0000000000000000000 ) ) ;
#90 = AXIS2_PLACEMENT_3D ( 'NONE', #114, #82, #107 ) ;
#91 =( CONVERSION_BASED_UNIT ( 'INCH', #299 ) LENGTH_UNIT ( ) NAMED_UNIT ( #165 ) );
#92 = CARTESIAN_POINT ( 'NONE',  ( 0.0000000000000000000, 0.0000000000000000000, 1.485000000000000986 ) ) ;
#93 = CARTESIAN_POINT ( 'NONE',  ( 4.592425496802576068E-17, 0.0000000000000000000, 0.3750000000000000555 ) ) ;
#94 = CARTESIAN_POINT ( 'NONE',  ( 0.07875000000000061118, 9.644093543285480678E-18, 1.500000000000000222 ) ) ;
#95 = ORIENTED_EDGE ( 'NONE', *, *, #103, .F. ) ;
#96 =( NAMED_UNIT ( * ) SI_UNIT ( $, .STERADIAN. ) SOLID_ANGLE_UNIT ( ) );
#97 = ORIENTED_EDGE ( 'NONE', *, *, #123, .T. ) ;
#98 =( GEOMETRIC_REPRESENTATION_CONTEXT ( 3 ) GLOBAL_UNCERTAINTY_ASSIGNED_CONTEXT ( ( #187 ) ) GLOBAL_UNIT_ASSIGNED_CONTEXT ( ( #70, #286, #149 ) ) REPRESENTATION_CONTEXT ( 'NONE', 'WORKASPACE' ) );
#99 = ORIENTED_EDGE ( 'NONE', *, *, #28, .F. ) ;
#100 = EDGE_CURVE ( 'NONE', #133, #195, #226, .T. ) ;
#101 = PRESENTATION_STYLE_ASSIGNMENT (( #216 ) ) ;
#102 = ORIENTED_EDGE ( 'NONE', *, *, #67, .F. ) ;
#103 = EDGE_CURVE ( 'NONE', #148, #5, #135, .T. ) ;
#104 = APPLICATION_PROTOCOL_DEFINITION ( 'draft international standard', 'automotive_design', 1998, #125 ) ;
#105 = EDGE_LOOP ( 'NONE', ( #223, #287 ) ) ;
#106 = AXIS2_PLACEMENT_3D ( 'NONE', #296, #57, #204 ) ;
#107 = DIRECTION ( 'NONE',  ( -1.000000000000000000, 0.0000000000000000000, 0.0000000000000000000 ) ) ;
#108 = DIRECTION ( 'NONE',  ( -0.7071067811865531239, 0.0000000000000000000, -0.7071067811865419106 ) ) ;
#109 = DIRECTION ( 'NONE',  ( -1.000000000000000000, 0.0000000000000000000, 1.224646799147353454E-16 ) ) ;
#110 = DIRECTION ( 'NONE',  ( 1.000000000000000000, 0.0000000000000000000, 0.0000000000000000000 ) ) ;
#111 = CIRCLE ( 'NONE', #90, 0.09365624999999999645 ) ;
#112 = VECTOR ( 'NONE', #236, 39.37007874015748143 ) ;
#113 = EDGE_CURVE ( 'NONE', #133, #265, #239, .T. ) ;
#114 = CARTESIAN_POINT ( 'NONE',  ( 4.592425496802576068E-17, 0.0000000000000000000, 0.3750000000000000555 ) ) ;
#115 = ADVANCED_FACE ( 'NONE', ( #203 ), #206, .T. ) ;
#116 = SURFACE_SIDE_STYLE ('',( #190 ) ) ;
#117 = CARTESIAN_POINT ( 'NONE',  ( -0.09375000000000001388, 0.0000000000000000000, 1.500000000000000222 ) ) ;
#118 = ADVANCED_FACE ( 'NONE', ( #19 ), #13, .F. ) ;
#119 = CIRCLE ( 'NONE', #220, 0.09375000000000001388 ) ;
#120 = DIRECTION ( 'NONE',  ( -1.224646799147353454E-16, -0.0000000000000000000, -1.000000000000000000 ) ) ;
#121 = PRODUCT_RELATED_PRODUCT_CATEGORY ( 'part', '', ( #154 ) ) ;
#122 =( LENGTH_UNIT ( ) NAMED_UNIT ( * ) SI_UNIT ( $, .METRE. ) );
#123 = EDGE_CURVE ( 'NONE', #76, #34, #260, .T. ) ;
#124 = ORIENTED_EDGE ( 'NONE', *, *, #179, .T. ) ;
#125 = APPLICATION_CONTEXT ( 'automotive_design' ) ;
#126 = EDGE_CURVE ( 'NONE', #34, #76, #119, .T. ) ;
#127 = ORIENTED_EDGE ( 'NONE', *, *, #234, .F. ) ;
#128 = PRODUCT_DEFINITION_FORMATION_WITH_SPECIFIED_SOURCE ( 'ANY', '', #154, .NOT_KNOWN. ) ;
#129 = APPLICATION_PROTOCOL_DEFINITION ( 'draft international standard', 'automotive_design', 1998, #132 ) ;
#130 = VERTEX_POINT ( 'NONE', #134 ) ;
#131 = CARTESIAN_POINT ( 'NONE',  ( 0.09375000000000001388, 1.148106374200643401E-17, 1.500000000000000222 ) ) ;
#132 = APPLICATION_CONTEXT ( 'automotive_design' ) ;
#133 = VERTEX_POINT ( 'NONE', #274 ) ;
#134 = CARTESIAN_POINT ( 'NONE',  ( 0.09375000000000001388, 1.148106374200643401E-17, 1.485000000000000986 ) ) ;
#135 = CIRCLE ( 'NONE', #17, 0.09365624999999999645 ) ;
#136 = CARTESIAN_POINT ( 'NONE',  ( 4.592425496802576068E-17, 0.0000000000000000000, 0.3750000000000000555 ) ) ;
#137 = DIRECTION ( 'NONE',  ( -1.224646799147353454E-16, -0.0000000000000000000, -1.000000000000000000 ) ) ;
#138 = CARTESIAN_POINT ( 'NONE',  ( 0.0000000000000000000, 0.0000000000000000000, 1.500000000000000222 ) ) ;
#139 = FACE_OUTER_BOUND ( 'NONE', #152, .T. ) ;
#140 = AXIS2_PLACEMENT_3D ( 'NONE', #205, #162, #248 ) ;
#141 = FACE_OUTER_BOUND ( 'NONE', #11, .T. ) ;
#142 = FILL_AREA_STYLE ('',( #66 ) ) ;
#143 = EDGE_CURVE ( 'NONE', #244, #34, #12, .T. ) ;
#144 = FACE_OUTER_BOUND ( 'NONE', #222, .T. ) ;
#145 = CARTESIAN_POINT ( 'NONE',  ( 0.0000000000000000000, 0.0000000000000000000, 1.500000000000000222 ) ) ;
#146 = CARTESIAN_POINT ( 'NONE',  ( 0.09365625000000003808, 0.0000000000000000000, 0.3750000000000000555 ) ) ;
#147 = EDGE_CURVE ( 'NONE', #265, #133, #177, .T. ) ;
#148 = VERTEX_POINT ( 'NONE', #160 ) ;
#149 =( NAMED_UNIT ( * ) SI_UNIT ( $, .STERADIAN. ) SOLID_ANGLE_UNIT ( ) );
#150 = ORIENTED_EDGE ( 'NONE', *, *, #63, .F. ) ;
#151 = CARTESIAN_POINT ( 'NONE',  ( 0.0000000000000000000, 0.0000000000000000000, 1.500000000000000222 ) ) ;
#152 = EDGE_LOOP ( 'NONE', ( #33, #284, #95, #102 ) ) ;
#153 = CIRCLE ( 'NONE', #18, 0.09375000000000001388 ) ;
#154 = PRODUCT ( 'Micro_SEM-187-02', 'Micro_SEM-187-02', '', ( #6 ) ) ;
#155 = ORIENTED_EDGE ( 'NONE', *, *, #258, .F. ) ;
#156 = CARTESIAN_POINT ( 'NONE',  ( 0.0000000000000000000, 0.0000000000000000000, 1.500000000000000222 ) ) ;
#157 = ADVANCED_FACE ( 'NONE', ( #39 ), #272, .T. ) ;
#158 = CARTESIAN_POINT ( 'NONE',  ( 0.0000000000000000000, 0.0000000000000000000, 1.500000000000000222 ) ) ;
#159 = ADVANCED_FACE ( 'NONE', ( #25 ), #45, .T. ) ;
#160 = CARTESIAN_POINT ( 'NONE',  ( -0.09365624999999999645, 0.0000000000000000000, 2.293916535652886521E-17 ) ) ;
#161 = DIMENSIONAL_EXPONENTS ( 1.000000000000000000, 0.0000000000000000000, 0.0000000000000000000, 0.0000000000000000000, 0.0000000000000000000, 0.0000000000000000000, 0.0000000000000000000 ) ;
#162 = DIRECTION ( 'NONE',  ( 0.0000000000000000000, 0.0000000000000000000, -1.000000000000000000 ) ) ;
#163 = VERTEX_POINT ( 'NONE', #280 ) ;
#164 = COLOUR_RGB ( '',0.7921568627450980005, 0.8196078431372548767, 0.9333333333333333481 ) ;
#165 = DIMENSIONAL_EXPONENTS ( 1.000000000000000000, 0.0000000000000000000, 0.0000000000000000000, 0.0000000000000000000, 0.0000000000000000000, 0.0000000000000000000, 0.0000000000000000000 ) ;
#166 = DIRECTION ( 'NONE',  ( -1.000000000000000000, 0.0000000000000000000, 0.0000000000000000000 ) ) ;
#167 =( NAMED_UNIT ( * ) SI_UNIT ( $, .STERADIAN. ) SOLID_ANGLE_UNIT ( ) );
#168 = DIRECTION ( 'NONE',  ( -1.224646799147353454E-16, -0.0000000000000000000, -1.000000000000000000 ) ) ;
#169 = DIRECTION ( 'NONE',  ( 1.224646799147353454E-16, 0.0000000000000000000, 1.000000000000000000 ) ) ;
#170 = CARTESIAN_POINT ( 'NONE',  ( -0.09365624999999994094, 1.147532321013543253E-17, 0.3750000000000000555 ) ) ;
#171 = LENGTH_MEASURE_WITH_UNIT ( LENGTH_MEASURE( 0.02539999999999999897 ), #49 );
#172 = CLOSED_SHELL ( 'NONE', ( #83, #278, #115, #157, #159, #213, #295, #202, #285, #118 ) ) ;
#173 = ORIENTED_EDGE ( 'NONE', *, *, #55, .F. ) ;
#174 = FILL_AREA_STYLE ('',( #9 ) ) ;
#175 = ORIENTED_EDGE ( 'NONE', *, *, #143, .T. ) ;
#176 = ORIENTED_EDGE ( 'NONE', *, *, #182, .F. ) ;
#177 = CIRCLE ( 'NONE', #85, 0.07875000000000061118 ) ;
#178 = CONICAL_SURFACE ( 'NONE', #201, 0.09365624999999999645, 0.1745329251994340303 ) ;
#179 = EDGE_CURVE ( 'NONE', #195, #34, #23, .T. ) ;
#180 = ORIENTED_EDGE ( 'NONE', *, *, #113, .F. ) ;
#181 = LINE ( 'NONE', #245, #78 ) ;
#182 = EDGE_CURVE ( 'NONE', #163, #76, #297, .T. ) ;
#183 = MANIFOLD_SOLID_BREP ( 'Cut-Revolve1', #172 ) ;
#184 = DIRECTION ( 'NONE',  ( 1.000000000000000000, 0.0000000000000000000, 0.0000000000000000000 ) ) ;
#185 = DIRECTION ( 'NONE',  ( 0.0000000000000000000, 0.0000000000000000000, 1.000000000000000000 ) ) ;
#186 = DIRECTION ( 'NONE',  ( 1.000000000000000000, 0.0000000000000000000, 0.0000000000000000000 ) ) ;
#187 = UNCERTAINTY_MEASURE_WITH_UNIT (LENGTH_MEASURE( 1.000000000000000082E-05 ), #70, 'distance_accuracy_value', 'NONE');
#188 = CARTESIAN_POINT ( 'NONE',  ( 4.598936731609567916E-17, 0.0000000000000000000, 0.3755316826705892841 ) ) ;
#189 = AXIS2_PLACEMENT_3D ( 'NONE', #145, #43, #166 ) ;
#190 = SURFACE_STYLE_FILL_AREA ( #142 ) ;
#191 = AXIS2_PLACEMENT_3D ( 'NONE', #93, #169, #193 ) ;
#192 = FACE_OUTER_BOUND ( 'NONE', #54, .T. ) ;
#193 = DIRECTION ( 'NONE',  ( 1.000000000000000000, 0.0000000000000000000, 0.0000000000000000000 ) ) ;
#194 = EDGE_LOOP ( 'NONE', ( #197, #261, #155, #81 ) ) ;
#195 = VERTEX_POINT ( 'NONE', #276 ) ;
#196 = LENGTH_MEASURE_WITH_UNIT ( LENGTH_MEASURE( 0.02539999999999999897 ), #26 );
#197 = ORIENTED_EDGE ( 'NONE', *, *, #147, .F. ) ;
#198 = LINE ( 'NONE', #131, #262 ) ;
#199 = ORIENTED_EDGE ( 'NONE', *, *, #55, .T. ) ;
#200 = STYLED_ITEM ( 'NONE', ( #210 ), #183 ) ;
#201 = AXIS2_PLACEMENT_3D ( 'NONE', #212, #1, #209 ) ;
#202 = ADVANCED_FACE ( 'NONE', ( #141 ), #22, .T. ) ;
#203 = FACE_OUTER_BOUND ( 'NONE', #194, .T. ) ;
#204 = DIRECTION ( 'NONE',  ( 1.000000000000000000, 0.0000000000000000000, -0.0000000000000000000 ) ) ;
#205 = CARTESIAN_POINT ( 'NONE',  ( 0.0000000000000000000, 0.0000000000000000000, 1.500000000000000222 ) ) ;
#206 = CONICAL_SURFACE ( 'NONE', #140, 0.07875000000000061118, 0.7853981633974562726 ) ;
#207 = DIRECTION ( 'NONE',  ( -1.000000000000000000, 0.0000000000000000000, 1.224646799147353454E-16 ) ) ;
#208 = CARTESIAN_POINT ( 'NONE',  ( -0.09374999999999995837, 0.0000000000000000000, 0.3755316826705892841 ) ) ;
#209 = DIRECTION ( 'NONE',  ( 1.000000000000000000, 0.0000000000000000000, 0.0000000000000000000 ) ) ;
#210 = PRESENTATION_STYLE_ASSIGNMENT (( #235 ) ) ;
#211 = AXIS2_PLACEMENT_3D ( 'NONE', #44, #120, #46 ) ;
#212 = CARTESIAN_POINT ( 'NONE',  ( 4.592425496802576068E-17, 0.0000000000000000000, 0.3750000000000000555 ) ) ;
#213 = ADVANCED_FACE ( 'NONE', ( #69 ), #256, .T. ) ;
#214 = VECTOR ( 'NONE', #21, 39.37007874015748143 ) ;
#215 = ADVANCED_BREP_SHAPE_REPRESENTATION ( 'Micro_SEM-187-02', ( #183, #32 ), #64 ) ;
#216 = SURFACE_STYLE_USAGE ( .BOTH. , #72 ) ;
#217 = EDGE_LOOP ( 'NONE', ( #268, #219 ) ) ;
#218 = SURFACE_STYLE_FILL_AREA ( #174 ) ;
#219 = ORIENTED_EDGE ( 'NONE', *, *, #147, .T. ) ;
#220 = AXIS2_PLACEMENT_3D ( 'NONE', #188, #289, #186 ) ;
#221 =( NAMED_UNIT ( * ) PLANE_ANGLE_UNIT ( ) SI_UNIT ( $, .RADIAN. ) );
#222 = EDGE_LOOP ( 'NONE', ( #150, #175, #50, #176 ) ) ;
#223 = ORIENTED_EDGE ( 'NONE', *, *, #103, .T. ) ;
#224 = DIRECTION ( 'NONE',  ( -1.000000000000000000, 0.0000000000000000000, 0.0000000000000000000 ) ) ;
#225 = CIRCLE ( 'NONE', #275, 0.09365624999999999645 ) ;
#226 = LINE ( 'NONE', #269, #298 ) ;
#227 = DIRECTION ( 'NONE',  ( -1.224646799147353454E-16, -0.0000000000000000000, -1.000000000000000000 ) ) ;
#228 = DIRECTION ( 'NONE',  ( -0.0000000000000000000, -0.0000000000000000000, -1.000000000000000000 ) ) ;
#229 = UNCERTAINTY_MEASURE_WITH_UNIT (LENGTH_MEASURE( 1.000000000000000082E-05 ), #91, 'distance_accuracy_value', 'NONE');
#230 = PRESENTATION_LAYER_ASSIGNMENT (  '', '', ( #200 ) ) ;
#231 = CARTESIAN_POINT ( 'NONE',  ( 0.0000000000000000000, 0.0000000000000000000, 0.0000000000000000000 ) ) ;
#232 = EDGE_CURVE ( 'NONE', #5, #148, #240, .T. ) ;
#233 = DIRECTION ( 'NONE',  ( 0.0000000000000000000, 0.0000000000000000000, 1.000000000000000000 ) ) ;
#234 = EDGE_CURVE ( 'NONE', #265, #130, #2, .T. ) ;
#235 = SURFACE_STYLE_USAGE ( .BOTH. , #116 ) ;
#236 = DIRECTION ( 'NONE',  ( 0.7071067811865531239, 8.659560562355003116E-17, -0.7071067811865419106 ) ) ;
#237 = AXIS2_PLACEMENT_3D ( 'NONE', #89, #168, #255 ) ;
#238 = PRODUCT_DEFINITION ( 'UNKNOWN', '', #128, #61 ) ;
#239 = CIRCLE ( 'NONE', #53, 0.07875000000000061118 ) ;
#240 = CIRCLE ( 'NONE', #211, 0.09365624999999999645 ) ;
#241 = ORIENTED_EDGE ( 'NONE', *, *, #67, .T. ) ;
#242 = AXIS2_PLACEMENT_3D ( 'NONE', #24, #233, #253 ) ;
#243 = ORIENTED_EDGE ( 'NONE', *, *, #291, .F. ) ;
#244 = VERTEX_POINT ( 'NONE', #170 ) ;
#245 = CARTESIAN_POINT ( 'NONE',  ( -0.09365624999999999645, 0.0000000000000000000, 1.146958267826443260E-17 ) ) ;
#246 = LINE ( 'NONE', #40, #36 ) ;
#247 = DIRECTION ( 'NONE',  ( 1.000000000000000000, 0.0000000000000000000, 0.0000000000000000000 ) ) ;
#248 = DIRECTION ( 'NONE',  ( -1.000000000000000000, 0.0000000000000000000, 0.0000000000000000000 ) ) ;
#249 = VECTOR ( 'NONE', #68, 39.37007874015748143 ) ;
#250 = UNCERTAINTY_MEASURE_WITH_UNIT (LENGTH_MEASURE( 1.000000000000000082E-05 ), #52, 'distance_accuracy_value', 'NONE');
#251 = MECHANICAL_DESIGN_GEOMETRIC_PRESENTATION_REPRESENTATION (  '', ( #41 ), #98 ) ;
#252 = DIRECTION ( 'NONE',  ( -1.224646799147353454E-16, -0.0000000000000000000, -1.000000000000000000 ) ) ;
#253 = DIRECTION ( 'NONE',  ( 1.000000000000000000, 0.0000000000000000000, -0.0000000000000000000 ) ) ;
#254 = CIRCLE ( 'NONE', #58, 0.09375000000000001388 ) ;
#255 = DIRECTION ( 'NONE',  ( -1.000000000000000000, 0.0000000000000000000, 1.224646799147353454E-16 ) ) ;
#256 = PLANE ( 'NONE',  #242 ) ;
#257 = DIRECTION ( 'NONE',  ( 1.000000000000000000, 0.0000000000000000000, 0.0000000000000000000 ) ) ;
#258 = EDGE_CURVE ( 'NONE', #195, #130, #153, .T. ) ;
#259 = CARTESIAN_POINT ( 'NONE',  ( 0.0000000000000000000, 0.0000000000000000000, 0.0000000000000000000 ) ) ;
#260 = CIRCLE ( 'NONE', #71, 0.09375000000000001388 ) ;
#261 = ORIENTED_EDGE ( 'NONE', *, *, #234, .T. ) ;
#262 = VECTOR ( 'NONE', #10, 39.37007874015748143 ) ;
#263 = ORIENTED_EDGE ( 'NONE', *, *, #182, .T. ) ;
#264 = ORIENTED_EDGE ( 'NONE', *, *, #179, .F. ) ;
#265 = VERTEX_POINT ( 'NONE', #20 ) ;
#266 = VECTOR ( 'NONE', #56, 39.37007874015748143 ) ;
#267 = MECHANICAL_DESIGN_GEOMETRIC_PRESENTATION_REPRESENTATION (  '', ( #200 ), #282 ) ;
#268 = ORIENTED_EDGE ( 'NONE', *, *, #113, .T. ) ;
#269 = CARTESIAN_POINT ( 'NONE',  ( -0.07875000000000061118, 0.0000000000000000000, 1.500000000000000222 ) ) ;
#270 = DIRECTION ( 'NONE',  ( -1.224646799147353454E-16, -0.0000000000000000000, -1.000000000000000000 ) ) ;
#271 = CONICAL_SURFACE ( 'NONE', #37, 0.07875000000000061118, 0.7853981633974562726 ) ;
#272 = CYLINDRICAL_SURFACE ( 'NONE', #31, 0.09375000000000001388 ) ;
#273 = CARTESIAN_POINT ( 'NONE',  ( 0.0000000000000000000, 0.0000000000000000000, 1.485000000000000986 ) ) ;
#274 = CARTESIAN_POINT ( 'NONE',  ( -0.07875000000000061118, 0.0000000000000000000, 1.500000000000000222 ) ) ;
#275 = AXIS2_PLACEMENT_3D ( 'NONE', #136, #137, #224 ) ;
#276 = CARTESIAN_POINT ( 'NONE',  ( -0.09375000000000001388, 0.0000000000000000000, 1.485000000000000986 ) ) ;
#277 =( NAMED_UNIT ( * ) PLANE_ANGLE_UNIT ( ) SI_UNIT ( $, .RADIAN. ) );
#278 = ADVANCED_FACE ( 'NONE', ( #144 ), #178, .T. ) ;
#279 = CYLINDRICAL_SURFACE ( 'NONE', #237, 0.09365624999999999645 ) ;
#280 = CARTESIAN_POINT ( 'NONE',  ( 0.09365625000000003808, 0.0000000000000000000, 0.3750000000000000555 ) ) ;
#281 = ORIENTED_EDGE ( 'NONE', *, *, #291, .T. ) ;
#282 =( GEOMETRIC_REPRESENTATION_CONTEXT ( 3 ) GLOBAL_UNCERTAINTY_ASSIGNED_CONTEXT ( ( #229 ) ) GLOBAL_UNIT_ASSIGNED_CONTEXT ( ( #91, #277, #167 ) ) REPRESENTATION_CONTEXT ( 'NONE', 'WORKASPACE' ) );
#283 = DIRECTION ( 'NONE',  ( 0.0000000000000000000, 0.0000000000000000000, -1.000000000000000000 ) ) ;
#284 = ORIENTED_EDGE ( 'NONE', *, *, #28, .T. ) ;
#285 = ADVANCED_FACE ( 'NONE', ( #192 ), #279, .T. ) ;
#286 =( NAMED_UNIT ( * ) PLANE_ANGLE_UNIT ( ) SI_UNIT ( $, .RADIAN. ) );
#287 = ORIENTED_EDGE ( 'NONE', *, *, #232, .T. ) ;
#288 = ORIENTED_EDGE ( 'NONE', *, *, #143, .F. ) ;
#289 = DIRECTION ( 'NONE',  ( -1.224646799147353454E-16, -0.0000000000000000000, -1.000000000000000000 ) ) ;
#290 = CARTESIAN_POINT ( 'NONE',  ( 0.09365624999999999645, 1.146958267826442798E-17, 0.0000000000000000000 ) ) ;
#291 = EDGE_CURVE ( 'NONE', #130, #76, #198, .T. ) ;
#292 = DIRECTION ( 'NONE',  ( 1.000000000000000000, 0.0000000000000000000, 0.0000000000000000000 ) ) ;
#293 = COLOUR_RGB ( '',0.7921568627450980005, 0.8196078431372548767, 0.9333333333333333481 ) ;
#294 = ORIENTED_EDGE ( 'NONE', *, *, #15, .T. ) ;
#295 = ADVANCED_FACE ( 'NONE', ( #4 ), #271, .T. ) ;
#296 = CARTESIAN_POINT ( 'NONE',  ( 0.0000000000000000000, 0.0000000000000000000, 0.0000000000000000000 ) ) ;
#297 = LINE ( 'NONE', #146, #249 ) ;
#298 = VECTOR ( 'NONE', #108, 39.37007874015748143 ) ;
#299 = LENGTH_MEASURE_WITH_UNIT ( LENGTH_MEASURE( 0.02539999999999999897 ), #122 );
ENDSEC;
END-ISO-10303-21;
