ISO-10303-21;
HEADER;
FILE_DESCRIPTION (( 'STEP AP214' ),
    '1' );
FILE_NAME ('59713.STEP',
    '2023-07-24T15:27:43',
    ( '' ),
    ( '' ),
    'SwSTEP 2.0',
    'SolidWorks 2023',
    '' );
FILE_SCHEMA (( 'AUTOMOTIVE_DESIGN' ));
ENDSEC;

DATA;
#1 = SURFACE_SIDE_STYLE ('',( #70 ) ) ;
#2 = CIRCLE ( 'NONE', #211, 1.000000000000000000 ) ;
#3 = DIRECTION ( 'NONE',  ( -1.208874916035850209E-16, 1.000000000000000000, -0.000000000000000000 ) ) ;
#4 = CARTESIAN_POINT ( 'NONE',  ( 5.421010862427522170E-15, 18.00000000000000000, 0.000000000000000000 ) ) ;
#5 = UNCERTAINTY_MEASURE_WITH_UNIT (LENGTH_MEASURE( 1.000000000000000082E-05 ), #48, 'distance_accuracy_value', 'NONE');
#6 = ORIENTED_EDGE ( 'NONE', *, *, #188, .T. ) ;
#7 = ADVANCED_BREP_SHAPE_REPRESENTATION ( '59713', ( #309, #185, #323 ), #191 ) ;
#8 = EDGE_LOOP ( 'NONE', ( #22, #358 ) ) ;
#9 = DIRECTION ( 'NONE',  ( -1.000000000000000000, -1.208874916035850209E-16, 0.000000000000000000 ) ) ;
#10 = UNCERTAINTY_MEASURE_WITH_UNIT (LENGTH_MEASURE( 1.000000000000000082E-05 ), #298, 'distance_accuracy_value', 'NONE');
#11 = ORIENTED_EDGE ( 'NONE', *, *, #147, .F. ) ;
#12 = CARTESIAN_POINT ( 'NONE',  ( 6.000000000000000000, 18.00000000000000355, 7.347880794884119736E-16 ) ) ;
#13 = CARTESIAN_POINT ( 'NONE',  ( 0.000000000000000000, 0.000000000000000000, 0.000000000000000000 ) ) ;
#14 = AXIS2_PLACEMENT_3D ( 'NONE', #158, #210, #72 ) ;
#15 = AXIS2_PLACEMENT_3D ( 'NONE', #49, #17, #20 ) ;
#16 = EDGE_CURVE ( 'NONE', #145, #312, #33, .T. ) ;
#17 = DIRECTION ( 'NONE',  ( 1.000000000000000000, 0.000000000000000000, -1.224646799147353207E-16 ) ) ;
#18 = UNCERTAINTY_MEASURE_WITH_UNIT (LENGTH_MEASURE( 1.000000000000000082E-05 ), #111, 'distance_accuracy_value', 'NONE');
#19 =( NAMED_UNIT ( * ) SI_UNIT ( $, .STERADIAN. ) SOLID_ANGLE_UNIT ( ) );
#20 = DIRECTION ( 'NONE',  ( -1.224646799147352468E-16, 0.000000000000000000, -1.000000000000000000 ) ) ;
#21 = APPLICATION_CONTEXT ( 'automotive_design' ) ;
#22 = ORIENTED_EDGE ( 'NONE', *, *, #188, .F. ) ;
#23 = FILL_AREA_STYLE_COLOUR ( '', #159 ) ;
#24 = AXIS2_PLACEMENT_3D ( 'NONE', #4, #151, #9 ) ;
#25 = COLOUR_RGB ( '',1.000000000000000000, 0.000000000000000000, 0.000000000000000000 ) ;
#26 = SURFACE_STYLE_FILL_AREA ( #270 ) ;
#27 = PRESENTATION_STYLE_ASSIGNMENT (( #109 ) ) ;
#28 = ADVANCED_FACE ( 'NONE', ( #40 ), #319, .F. ) ;
#29 =( NAMED_UNIT ( * ) PLANE_ANGLE_UNIT ( ) SI_UNIT ( $, .RADIAN. ) );
#30 = UNCERTAINTY_MEASURE_WITH_UNIT (LENGTH_MEASURE( 1.000000000000000082E-05 ), #105, 'distance_accuracy_value', 'NONE');
#31 = CARTESIAN_POINT ( 'NONE',  ( -1.469576158976823750E-15, 75.00000000000000000, 0.000000000000000000 ) ) ;
#32 = CYLINDRICAL_SURFACE ( 'NONE', #294, 5.999999999999998224 ) ;
#33 = LINE ( 'NONE', #317, #141 ) ;
#34 = FACE_OUTER_BOUND ( 'NONE', #341, .T. ) ;
#35 = AXIS2_PLACEMENT_3D ( 'NONE', #125, #192, #215 ) ;
#36 = STYLED_ITEM ( 'NONE', ( #254 ), #309 ) ;
#37 = ORIENTED_EDGE ( 'NONE', *, *, #280, .F. ) ;
#38 = ORIENTED_EDGE ( 'NONE', *, *, #160, .F. ) ;
#39 = DIRECTION ( 'NONE',  ( -0.000000000000000000, -1.000000000000000000, -0.000000000000000000 ) ) ;
#40 = FACE_OUTER_BOUND ( 'NONE', #172, .T. ) ;
#41 =( LENGTH_UNIT ( ) NAMED_UNIT ( * ) SI_UNIT ( .MILLI., .METRE. ) );
#42 = PLANE ( 'NONE',  #321 ) ;
#43 = DIRECTION ( 'NONE',  ( 0.000000000000000000, -1.000000000000000000, -0.000000000000000000 ) ) ;
#44 = DIRECTION ( 'NONE',  ( 0.000000000000000000, 0.000000000000000000, -1.000000000000000000 ) ) ;
#45 = SURFACE_STYLE_USAGE ( .BOTH. , #186 ) ;
#46 = ADVANCED_FACE ( 'NONE', ( #153 ), #42, .F. ) ;
#47 = CIRCLE ( 'NONE', #286, 6.000000000000000000 ) ;
#48 =( LENGTH_UNIT ( ) NAMED_UNIT ( * ) SI_UNIT ( .MILLI., .METRE. ) );
#49 = CARTESIAN_POINT ( 'NONE',  ( 6.123233995736766282E-16, 1.000000000000000000, 5.000000000000000000 ) ) ;
#50 =( NAMED_UNIT ( * ) SI_UNIT ( $, .STERADIAN. ) SOLID_ANGLE_UNIT ( ) );
#51 = STYLED_ITEM ( 'NONE', ( #169 ), #235 ) ;
#52 = SURFACE_STYLE_USAGE ( .BOTH. , #303 ) ;
#53 = CARTESIAN_POINT ( 'NONE',  ( 0.000000000000000000, 18.00000000000000000, -6.000000000000000000 ) ) ;
#54 = EDGE_CURVE ( 'NONE', #255, #258, #2, .T. ) ;
#55 = ADVANCED_FACE ( 'NONE', ( #230 ), #60, .T. ) ;
#56 = FILL_AREA_STYLE_COLOUR ( '', #239 ) ;
#57 = MECHANICAL_DESIGN_GEOMETRIC_PRESENTATION_REPRESENTATION (  '', ( #366 ), #91 ) ;
#58 = PRESENTATION_STYLE_ASSIGNMENT (( #52 ) ) ;
#59 = FILL_AREA_STYLE_COLOUR ( '', #143 ) ;
#60 = PLANE ( 'NONE',  #14 ) ;
#61 = SURFACE_SIDE_STYLE ('',( #310 ) ) ;
#62 = APPLICATION_CONTEXT ( 'automotive_design' ) ;
#63 = CIRCLE ( 'NONE', #15, 1.000000000000000000 ) ;
#64 = SURFACE_SIDE_STYLE ('',( #229 ) ) ;
#65 = VECTOR ( 'NONE', #101, 1000.000000000000000 ) ;
#66 = ORIENTED_EDGE ( 'NONE', *, *, #295, .T. ) ;
#67 =( NAMED_UNIT ( * ) SI_UNIT ( $, .STERADIAN. ) SOLID_ANGLE_UNIT ( ) );
#68 = VERTEX_POINT ( 'NONE', #262 ) ;
#69 = EDGE_CURVE ( 'NONE', #258, #331, #77, .T. ) ;
#70 = SURFACE_STYLE_FILL_AREA ( #201 ) ;
#71 = DIRECTION ( 'NONE',  ( 1.208874916035850209E-16, -1.000000000000000000, 0.000000000000000000 ) ) ;
#72 = DIRECTION ( 'NONE',  ( 0.000000000000000000, -0.000000000000000000, 1.000000000000000000 ) ) ;
#73 = CARTESIAN_POINT ( 'NONE',  ( 0.000000000000000000, 1.000000000000000000, 0.000000000000000000 ) ) ;
#74 = DIRECTION ( 'NONE',  ( -1.208874916035850209E-16, 1.000000000000000000, -0.000000000000000000 ) ) ;
#75 = CARTESIAN_POINT ( 'NONE',  ( 7.347880794884118750E-16, 1.000000000000000000, 6.000000000000000000 ) ) ;
#76 = FILL_AREA_STYLE ('',( #99 ) ) ;
#77 = CIRCLE ( 'NONE', #327, 5.000000000000000000 ) ;
#78 =( LENGTH_UNIT ( ) NAMED_UNIT ( * ) SI_UNIT ( .MILLI., .METRE. ) );
#79 = SURFACE_STYLE_USAGE ( .BOTH. , #269 ) ;
#80 = MECHANICAL_DESIGN_GEOMETRIC_PRESENTATION_REPRESENTATION (  '', ( #36 ), #362 ) ;
#81 = EDGE_CURVE ( 'NONE', #68, #364, #330, .T. ) ;
#82 = SURFACE_STYLE_FILL_AREA ( #370 ) ;
#83 =( NAMED_UNIT ( * ) SI_UNIT ( $, .STERADIAN. ) SOLID_ANGLE_UNIT ( ) );
#84 =( GEOMETRIC_REPRESENTATION_CONTEXT ( 3 ) GLOBAL_UNCERTAINTY_ASSIGNED_CONTEXT ( ( #18 ) ) GLOBAL_UNIT_ASSIGNED_CONTEXT ( ( #111, #138, #67 ) ) REPRESENTATION_CONTEXT ( 'NONE', 'WORKASPACE' ) );
#85 = DIRECTION ( 'NONE',  ( 1.000000000000000000, 1.208874916035850209E-16, 0.000000000000000000 ) ) ;
#86 = FILL_AREA_STYLE_COLOUR ( '', #25 ) ;
#87 = ORIENTED_EDGE ( 'NONE', *, *, #249, .T. ) ;
#88 = LINE ( 'NONE', #278, #334 ) ;
#89 = ORIENTED_EDGE ( 'NONE', *, *, #146, .T. ) ;
#90 = CLOSED_SHELL ( 'NONE', ( #189, #130, #354, #213, #235, #55 ) ) ;
#91 =( GEOMETRIC_REPRESENTATION_CONTEXT ( 3 ) GLOBAL_UNCERTAINTY_ASSIGNED_CONTEXT ( ( #10 ) ) GLOBAL_UNIT_ASSIGNED_CONTEXT ( ( #298, #305, #365 ) ) REPRESENTATION_CONTEXT ( 'NONE', 'WORKASPACE' ) );
#92 = ORIENTED_EDGE ( 'NONE', *, *, #369, .T. ) ;
#93 = DIRECTION ( 'NONE',  ( -1.000000000000000000, 0.000000000000000000, 0.000000000000000000 ) ) ;
#94 = CARTESIAN_POINT ( 'NONE',  ( 6.000000000000000000, 75.00000000000000000, 0.000000000000000000 ) ) ;
#95 = DIRECTION ( 'NONE',  ( 0.000000000000000000, 0.000000000000000000, 1.000000000000000000 ) ) ;
#96 = PRESENTATION_LAYER_ASSIGNMENT (  '', '', ( #121 ) ) ;
#97 = CIRCLE ( 'NONE', #206, 6.000000000000001776 ) ;
#98 = CARTESIAN_POINT ( 'NONE',  ( 0.000000000000000000, 0.000000000000000000, -6.000000000000000000 ) ) ;
#99 = FILL_AREA_STYLE_COLOUR ( '', #246 ) ;
#100 = EDGE_LOOP ( 'NONE', ( #124, #178, #232, #37 ) ) ;
#101 = DIRECTION ( 'NONE',  ( -0.000000000000000000, -1.000000000000000000, -0.000000000000000000 ) ) ;
#102 = EDGE_CURVE ( 'NONE', #145, #218, #221, .T. ) ;
#103 =( GEOMETRIC_REPRESENTATION_CONTEXT ( 3 ) GLOBAL_UNCERTAINTY_ASSIGNED_CONTEXT ( ( #357 ) ) GLOBAL_UNIT_ASSIGNED_CONTEXT ( ( #224, #29, #83 ) ) REPRESENTATION_CONTEXT ( 'NONE', 'WORKASPACE' ) );
#104 = AXIS2_PLACEMENT_3D ( 'NONE', #290, #43, #264 ) ;
#105 =( LENGTH_UNIT ( ) NAMED_UNIT ( * ) SI_UNIT ( .MILLI., .METRE. ) );
#106 = ORIENTED_EDGE ( 'NONE', *, *, #369, .F. ) ;
#107 = CYLINDRICAL_SURFACE ( 'NONE', #136, 6.000000000000000000 ) ;
#108 = AXIS2_PLACEMENT_3D ( 'NONE', #199, #231, #336 ) ;
#109 = SURFACE_STYLE_USAGE ( .BOTH. , #110 ) ;
#110 = SURFACE_SIDE_STYLE ('',( #26 ) ) ;
#111 =( LENGTH_UNIT ( ) NAMED_UNIT ( * ) SI_UNIT ( .MILLI., .METRE. ) );
#112 = COLOUR_RGB ( '',1.000000000000000000, 0.000000000000000000, 0.000000000000000000 ) ;
#113 = PRESENTATION_LAYER_ASSIGNMENT (  '', '', ( #51 ) ) ;
#114 = FILL_AREA_STYLE ('',( #59 ) ) ;
#115 = ORIENTED_EDGE ( 'NONE', *, *, #16, .T. ) ;
#116 = CARTESIAN_POINT ( 'NONE',  ( 0.000000000000000000, 0.000000000000000000, -5.000000000000000000 ) ) ;
#117 = EDGE_LOOP ( 'NONE', ( #360, #236, #132, #106 ) ) ;
#118 =( NAMED_UNIT ( * ) PLANE_ANGLE_UNIT ( ) SI_UNIT ( $, .RADIAN. ) );
#119 = EDGE_CURVE ( 'NONE', #312, #331, #63, .T. ) ;
#120 = ORIENTED_EDGE ( 'NONE', *, *, #280, .T. ) ;
#121 = STYLED_ITEM ( 'NONE', ( #131 ), #130 ) ;
#122 = CARTESIAN_POINT ( 'NONE',  ( 0.000000000000000000, 0.000000000000000000, 0.000000000000000000 ) ) ;
#123 = AXIS2_PLACEMENT_3D ( 'NONE', #122, #171, #252 ) ;
#124 = ORIENTED_EDGE ( 'NONE', *, *, #249, .F. ) ;
#125 = CARTESIAN_POINT ( 'NONE',  ( 0.000000000000000000, 1.000000000000000000, 0.000000000000000000 ) ) ;
#126 = PRODUCT_CONTEXT ( 'NONE', #21, 'mechanical' ) ;
#127 =( NAMED_UNIT ( * ) PLANE_ANGLE_UNIT ( ) SI_UNIT ( $, .RADIAN. ) );
#128 =( NAMED_UNIT ( * ) SI_UNIT ( $, .STERADIAN. ) SOLID_ANGLE_UNIT ( ) );
#129 = PRESENTATION_STYLE_ASSIGNMENT (( #45 ) ) ;
#130 = ADVANCED_FACE ( 'NONE', ( #241 ), #134, .T. ) ;
#131 = PRESENTATION_STYLE_ASSIGNMENT (( #237 ) ) ;
#132 = ORIENTED_EDGE ( 'NONE', *, *, #313, .T. ) ;
#133 = SURFACE_STYLE_FILL_AREA ( #247 ) ;
#134 = TOROIDAL_SURFACE ( 'NONE', #344, 5.000000000000000000, 0.9999999999999995559 ) ;
#135 = AXIS2_PLACEMENT_3D ( 'NONE', #155, #349, #353 ) ;
#136 = AXIS2_PLACEMENT_3D ( 'NONE', #272, #335, #333 ) ;
#137 = PRODUCT_DEFINITION_FORMATION_WITH_SPECIFIED_SOURCE ( 'ANY', '', #287, .NOT_KNOWN. ) ;
#138 =( NAMED_UNIT ( * ) PLANE_ANGLE_UNIT ( ) SI_UNIT ( $, .RADIAN. ) );
#139 = CARTESIAN_POINT ( 'NONE',  ( 0.000000000000000000, 1.000000000000000000, -6.000000000000000000 ) ) ;
#140 = ORIENTED_EDGE ( 'NONE', *, *, #146, .F. ) ;
#141 = VECTOR ( 'NONE', #283, 1000.000000000000000 ) ;
#142 = AXIS2_PLACEMENT_3D ( 'NONE', #156, #74, #356 ) ;
#143 = COLOUR_RGB ( '',0.7921568627450980005, 0.8196078431372548767, 0.9333333333333333481 ) ;
#144 = CARTESIAN_POINT ( 'NONE',  ( -1.469576158976823750E-15, 75.00000000000000000, 0.000000000000000000 ) ) ;
#145 = VERTEX_POINT ( 'NONE', #243 ) ;
#146 = EDGE_CURVE ( 'NONE', #68, #343, #351, .T. ) ;
#147 = EDGE_CURVE ( 'NONE', #255, #312, #195, .T. ) ;
#148 =( LENGTH_UNIT ( ) NAMED_UNIT ( * ) SI_UNIT ( .MILLI., .METRE. ) );
#149 = ORIENTED_EDGE ( 'NONE', *, *, #69, .T. ) ;
#150 = FACE_OUTER_BOUND ( 'NONE', #100, .T. ) ;
#151 = DIRECTION ( 'NONE',  ( -1.208874916035850209E-16, 1.000000000000000000, 0.000000000000000000 ) ) ;
#152 = AXIS2_PLACEMENT_3D ( 'NONE', #340, #39, #177 ) ;
#153 = FACE_OUTER_BOUND ( 'NONE', #285, .T. ) ;
#154 = DIRECTION ( 'NONE',  ( -0.000000000000000000, -1.000000000000000000, -0.000000000000000000 ) ) ;
#155 = CARTESIAN_POINT ( 'NONE',  ( 0.000000000000000000, 18.00000000000000000, 0.000000000000000000 ) ) ;
#156 = CARTESIAN_POINT ( 'NONE',  ( 5.421010862427522170E-15, 18.00000000000000355, 0.000000000000000000 ) ) ;
#157 =( NAMED_UNIT ( * ) SI_UNIT ( $, .STERADIAN. ) SOLID_ANGLE_UNIT ( ) );
#158 = CARTESIAN_POINT ( 'NONE',  ( 0.000000000000000000, 18.00000000000000000, 0.000000000000000000 ) ) ;
#159 = COLOUR_RGB ( '',1.000000000000000000, 0.000000000000000000, 0.000000000000000000 ) ;
#160 = EDGE_CURVE ( 'NONE', #331, #258, #222, .T. ) ;
#161 = SURFACE_STYLE_USAGE ( .BOTH. , #61 ) ;
#162 = DIRECTION ( 'NONE',  ( 0.000000000000000000, 0.000000000000000000, -1.000000000000000000 ) ) ;
#163 = STYLED_ITEM ( 'NONE', ( #27 ), #213 ) ;
#164 = DIRECTION ( 'NONE',  ( -1.000000000000000000, 0.000000000000000000, 0.000000000000000000 ) ) ;
#165 = UNCERTAINTY_MEASURE_WITH_UNIT (LENGTH_MEASURE( 1.000000000000000082E-05 ), #182, 'distance_accuracy_value', 'NONE');
#166 =( GEOMETRIC_REPRESENTATION_CONTEXT ( 3 ) GLOBAL_UNCERTAINTY_ASSIGNED_CONTEXT ( ( #203 ) ) GLOBAL_UNIT_ASSIGNED_CONTEXT ( ( #78, #289, #128 ) ) REPRESENTATION_CONTEXT ( 'NONE', 'WORKASPACE' ) );
#167 = EDGE_CURVE ( 'NONE', #343, #68, #174, .T. ) ;
#168 =( NAMED_UNIT ( * ) PLANE_ANGLE_UNIT ( ) SI_UNIT ( $, .RADIAN. ) );
#169 = PRESENTATION_STYLE_ASSIGNMENT (( #342 ) ) ;
#170 = EDGE_LOOP ( 'NONE', ( #149, #233 ) ) ;
#171 = DIRECTION ( 'NONE',  ( -0.000000000000000000, -1.000000000000000000, -0.000000000000000000 ) ) ;
#172 = EDGE_LOOP ( 'NONE', ( #140, #226 ) ) ;
#173 =( GEOMETRIC_REPRESENTATION_CONTEXT ( 3 ) GLOBAL_UNCERTAINTY_ASSIGNED_CONTEXT ( ( #165 ) ) GLOBAL_UNIT_ASSIGNED_CONTEXT ( ( #182, #288, #325 ) ) REPRESENTATION_CONTEXT ( 'NONE', 'WORKASPACE' ) );
#174 = CIRCLE ( 'NONE', #314, 5.999999999999994671 ) ;
#175 = STYLED_ITEM ( 'NONE', ( #129 ), #354 ) ;
#176 = SURFACE_STYLE_USAGE ( .BOTH. , #64 ) ;
#177 = DIRECTION ( 'NONE',  ( 0.000000000000000000, 0.000000000000000000, -1.000000000000000000 ) ) ;
#178 = ORIENTED_EDGE ( 'NONE', *, *, #167, .T. ) ;
#179 = ORIENTED_EDGE ( 'NONE', *, *, #69, .F. ) ;
#180 = CLOSED_SHELL ( 'NONE', ( #281, #28, #248, #46 ) ) ;
#181 = APPLICATION_PROTOCOL_DEFINITION ( 'draft international standard', 'automotive_design', 1998, #21 ) ;
#182 =( LENGTH_UNIT ( ) NAMED_UNIT ( * ) SI_UNIT ( .MILLI., .METRE. ) );
#183 = APPLICATION_PROTOCOL_DEFINITION ( 'draft international standard', 'automotive_design', 1998, #62 ) ;
#184 = DIRECTION ( 'NONE',  ( -0.000000000000000000, -1.000000000000000000, -0.000000000000000000 ) ) ;
#185 = MANIFOLD_SOLID_BREP ( 'Revolve - Tool Body (Straight Shanked)', #180 ) ;
#186 = SURFACE_SIDE_STYLE ('',( #352 ) ) ;
#187 = CARTESIAN_POINT ( 'NONE',  ( 0.000000000000000000, 0.000000000000000000, 0.000000000000000000 ) ) ;
#188 = EDGE_CURVE ( 'NONE', #218, #145, #337, .T. ) ;
#189 = ADVANCED_FACE ( 'NONE', ( #367 ), #107, .T. ) ;
#190 = SURFACE_STYLE_FILL_AREA ( #76 ) ;
#191 =( GEOMETRIC_REPRESENTATION_CONTEXT ( 3 ) GLOBAL_UNCERTAINTY_ASSIGNED_CONTEXT ( ( #250 ) ) GLOBAL_UNIT_ASSIGNED_CONTEXT ( ( #41, #127, #260 ) ) REPRESENTATION_CONTEXT ( 'NONE', 'WORKASPACE' ) );
#192 = DIRECTION ( 'NONE',  ( -0.000000000000000000, -1.000000000000000000, -0.000000000000000000 ) ) ;
#193 = DIRECTION ( 'NONE',  ( -0.000000000000000000, -1.000000000000000000, -0.000000000000000000 ) ) ;
#194 = FILL_AREA_STYLE_COLOUR ( '', #112 ) ;
#195 = CIRCLE ( 'NONE', #35, 6.000000000000000000 ) ;
#196 = AXIS2_PLACEMENT_3D ( 'NONE', #144, #318, #225 ) ;
#197 = CARTESIAN_POINT ( 'NONE',  ( 0.000000000000000000, 18.00000000000000000, 0.000000000000000000 ) ) ;
#198 = MECHANICAL_DESIGN_GEOMETRIC_PRESENTATION_REPRESENTATION (  '', ( #163 ), #103 ) ;
#199 = CARTESIAN_POINT ( 'NONE',  ( -1.469576158976823750E-15, 75.00000000000000000, 0.000000000000000000 ) ) ;
#200 = DIRECTION ( 'NONE',  ( 0.000000000000000000, 0.000000000000000000, 1.000000000000000000 ) ) ;
#201 = FILL_AREA_STYLE ('',( #86 ) ) ;
#202 = FILL_AREA_STYLE ('',( #273 ) ) ;
#203 = UNCERTAINTY_MEASURE_WITH_UNIT (LENGTH_MEASURE( 1.000000000000000082E-05 ), #78, 'distance_accuracy_value', 'NONE');
#204 = VERTEX_POINT ( 'NONE', #302 ) ;
#205 = PRESENTATION_LAYER_ASSIGNMENT (  '', '', ( #366 ) ) ;
#206 = AXIS2_PLACEMENT_3D ( 'NONE', #257, #3, #93 ) ;
#207 = ORIENTED_EDGE ( 'NONE', *, *, #295, .F. ) ;
#208 = ORIENTED_EDGE ( 'NONE', *, *, #54, .F. ) ;
#209 = CARTESIAN_POINT ( 'NONE',  ( -6.000000000000003553, 75.00000000000000000, 0.000000000000000000 ) ) ;
#210 = DIRECTION ( 'NONE',  ( 0.000000000000000000, 1.000000000000000000, 0.000000000000000000 ) ) ;
#211 = AXIS2_PLACEMENT_3D ( 'NONE', #339, #308, #200 ) ;
#212 = FILL_AREA_STYLE_COLOUR ( '', #315 ) ;
#213 = ADVANCED_FACE ( 'NONE', ( #219 ), #306, .T. ) ;
#214 = DIRECTION ( 'NONE',  ( 0.000000000000000000, 0.000000000000000000, -1.000000000000000000 ) ) ;
#215 = DIRECTION ( 'NONE',  ( 0.000000000000000000, 0.000000000000000000, -1.000000000000000000 ) ) ;
#216 =( NAMED_UNIT ( * ) PLANE_ANGLE_UNIT ( ) SI_UNIT ( $, .RADIAN. ) );
#217 = STYLED_ITEM ( 'NONE', ( #58 ), #185 ) ;
#218 = VERTEX_POINT ( 'NONE', #53 ) ;
#219 = FACE_OUTER_BOUND ( 'NONE', #259, .T. ) ;
#220 = DIRECTION ( 'NONE',  ( -1.208874916035850209E-16, 1.000000000000000000, -0.000000000000000000 ) ) ;
#221 = CIRCLE ( 'NONE', #135, 6.000000000000000000 ) ;
#222 = CIRCLE ( 'NONE', #263, 5.000000000000000000 ) ;
#223 = PRODUCT_RELATED_PRODUCT_CATEGORY ( 'part', '', ( #287 ) ) ;
#224 =( LENGTH_UNIT ( ) NAMED_UNIT ( * ) SI_UNIT ( .MILLI., .METRE. ) );
#225 = DIRECTION ( 'NONE',  ( -1.000000000000000000, 0.000000000000000000, 0.000000000000000000 ) ) ;
#226 = ORIENTED_EDGE ( 'NONE', *, *, #167, .F. ) ;
#227 = MECHANICAL_DESIGN_GEOMETRIC_PRESENTATION_REPRESENTATION (  '', ( #217 ), #361 ) ;
#228 =( GEOMETRIC_REPRESENTATION_CONTEXT ( 3 ) GLOBAL_UNCERTAINTY_ASSIGNED_CONTEXT ( ( #5 ) ) GLOBAL_UNIT_ASSIGNED_CONTEXT ( ( #48, #216, #19 ) ) REPRESENTATION_CONTEXT ( 'NONE', 'WORKASPACE' ) );
#229 = SURFACE_STYLE_FILL_AREA ( #114 ) ;
#230 = FACE_OUTER_BOUND ( 'NONE', #8, .T. ) ;
#231 = DIRECTION ( 'NONE',  ( -1.208874916035850209E-16, 1.000000000000000000, -0.000000000000000000 ) ) ;
#232 = ORIENTED_EDGE ( 'NONE', *, *, #81, .T. ) ;
#233 = ORIENTED_EDGE ( 'NONE', *, *, #160, .T. ) ;
#234 = CYLINDRICAL_SURFACE ( 'NONE', #123, 6.000000000000000000 ) ;
#235 = ADVANCED_FACE ( 'NONE', ( #316 ), #234, .T. ) ;
#236 = ORIENTED_EDGE ( 'NONE', *, *, #102, .T. ) ;
#237 = SURFACE_STYLE_USAGE ( .BOTH. , #261 ) ;
#238 = CARTESIAN_POINT ( 'NONE',  ( -6.000000000000000000, 75.00000000000000000, 0.000000000000000000 ) ) ;
#239 = COLOUR_RGB ( '',0.7921568627450980005, 0.8196078431372548767, 0.9333333333333333481 ) ;
#240 = PRESENTATION_LAYER_ASSIGNMENT (  '', '', ( #36 ) ) ;
#241 = FACE_OUTER_BOUND ( 'NONE', #345, .T. ) ;
#242 = PLANE ( 'NONE',  #104 ) ;
#243 = CARTESIAN_POINT ( 'NONE',  ( 7.347880794884119736E-16, 18.00000000000000000, 6.000000000000000000 ) ) ;
#244 = PRODUCT_DEFINITION_SHAPE ( 'NONE', 'NONE',  #355 ) ;
#245 = ORIENTED_EDGE ( 'NONE', *, *, #119, .T. ) ;
#246 = COLOUR_RGB ( '',1.000000000000000000, 0.000000000000000000, 0.000000000000000000 ) ;
#247 = FILL_AREA_STYLE ('',( #23 ) ) ;
#248 = ADVANCED_FACE ( 'NONE', ( #150 ), #32, .T. ) ;
#249 = EDGE_CURVE ( 'NONE', #343, #204, #88, .T. ) ;
#250 = UNCERTAINTY_MEASURE_WITH_UNIT (LENGTH_MEASURE( 1.000000000000000082E-05 ), #41, 'distance_accuracy_value', 'NONE');
#251 = DIRECTION ( 'NONE',  ( -1.208874916035850209E-16, 1.000000000000000000, -0.000000000000000000 ) ) ;
#252 = DIRECTION ( 'NONE',  ( 0.000000000000000000, 0.000000000000000000, -1.000000000000000000 ) ) ;
#253 = ORIENTED_EDGE ( 'NONE', *, *, #119, .F. ) ;
#254 = PRESENTATION_STYLE_ASSIGNMENT (( #176 ) ) ;
#255 = VERTEX_POINT ( 'NONE', #139 ) ;
#256 = ORIENTED_EDGE ( 'NONE', *, *, #313, .F. ) ;
#257 = CARTESIAN_POINT ( 'NONE',  ( -1.469576158976823750E-15, 75.00000000000000000, 0.000000000000000000 ) ) ;
#258 = VERTEX_POINT ( 'NONE', #116 ) ;
#259 = EDGE_LOOP ( 'NONE', ( #253, #92, #279, #38 ) ) ;
#260 =( NAMED_UNIT ( * ) SI_UNIT ( $, .STERADIAN. ) SOLID_ANGLE_UNIT ( ) );
#261 = SURFACE_SIDE_STYLE ('',( #190 ) ) ;
#262 = CARTESIAN_POINT ( 'NONE',  ( -5.999999999999989342, 18.00000000000000355, 0.000000000000000000 ) ) ;
#263 = AXIS2_PLACEMENT_3D ( 'NONE', #187, #296, #326 ) ;
#264 = DIRECTION ( 'NONE',  ( 0.000000000000000000, 0.000000000000000000, -1.000000000000000000 ) ) ;
#265 = CIRCLE ( 'NONE', #108, 6.000000000000001776 ) ;
#266 = DIRECTION ( 'NONE',  ( -1.208874916035850209E-16, 1.000000000000000000, -0.000000000000000000 ) ) ;
#267 = DIRECTION ( 'NONE',  ( -0.000000000000000000, -1.000000000000000000, -0.000000000000000000 ) ) ;
#268 = AXIS2_PLACEMENT_3D ( 'NONE', #197, #193, #162 ) ;
#269 = SURFACE_SIDE_STYLE ('',( #133 ) ) ;
#270 = FILL_AREA_STYLE ('',( #194 ) ) ;
#271 = VECTOR ( 'NONE', #266, 1000.000000000000000 ) ;
#272 = CARTESIAN_POINT ( 'NONE',  ( 0.000000000000000000, 0.000000000000000000, 0.000000000000000000 ) ) ;
#273 = FILL_AREA_STYLE_COLOUR ( '', #292 ) ;
#274 = DIRECTION ( 'NONE',  ( -1.000000000000000000, 0.000000000000000000, 0.000000000000000000 ) ) ;
#275 = EDGE_LOOP ( 'NONE', ( #6, #115, #11, #256 ) ) ;
#276 = MECHANICAL_DESIGN_GEOMETRIC_PRESENTATION_REPRESENTATION (  '', ( #300 ), #173 ) ;
#277 = MECHANICAL_DESIGN_GEOMETRIC_PRESENTATION_REPRESENTATION (  '', ( #175 ), #228 ) ;
#278 = CARTESIAN_POINT ( 'NONE',  ( 5.999999999999996447, 75.00000000000000000, 7.347880794884117764E-16 ) ) ;
#279 = ORIENTED_EDGE ( 'NONE', *, *, #54, .T. ) ;
#280 = EDGE_CURVE ( 'NONE', #204, #364, #97, .T. ) ;
#281 = ADVANCED_FACE ( 'NONE', ( #34 ), #311, .T. ) ;
#282 = DIRECTION ( 'NONE',  ( -1.208874916035850209E-16, 1.000000000000000000, -0.000000000000000000 ) ) ;
#283 = DIRECTION ( 'NONE',  ( -0.000000000000000000, -1.000000000000000000, -0.000000000000000000 ) ) ;
#284 = DIRECTION ( 'NONE',  ( 0.000000000000000000, 0.000000000000000000, -1.000000000000000000 ) ) ;
#285 = EDGE_LOOP ( 'NONE', ( #66, #120 ) ) ;
#286 = AXIS2_PLACEMENT_3D ( 'NONE', #359, #154, #284 ) ;
#287 = PRODUCT ( '59713', '59713', '', ( #126 ) ) ;
#288 =( NAMED_UNIT ( * ) PLANE_ANGLE_UNIT ( ) SI_UNIT ( $, .RADIAN. ) );
#289 =( NAMED_UNIT ( * ) PLANE_ANGLE_UNIT ( ) SI_UNIT ( $, .RADIAN. ) );
#290 = CARTESIAN_POINT ( 'NONE',  ( 0.000000000000000000, 0.000000000000000000, 0.000000000000000000 ) ) ;
#291 = PRESENTATION_STYLE_ASSIGNMENT (( #161 ) ) ;
#292 = COLOUR_RGB ( '',1.000000000000000000, 0.000000000000000000, 0.000000000000000000 ) ;
#293 = CARTESIAN_POINT ( 'NONE',  ( 6.735557395310443009E-16, 0.000000000000000000, 5.000000000000000000 ) ) ;
#294 = AXIS2_PLACEMENT_3D ( 'NONE', #31, #251, #274 ) ;
#295 = EDGE_CURVE ( 'NONE', #364, #204, #265, .T. ) ;
#296 = DIRECTION ( 'NONE',  ( -0.000000000000000000, -1.000000000000000000, -0.000000000000000000 ) ) ;
#297 = PRODUCT_DEFINITION_CONTEXT ( 'detailed design', #62, 'design' ) ;
#298 =( LENGTH_UNIT ( ) NAMED_UNIT ( * ) SI_UNIT ( .MILLI., .METRE. ) );
#299 = ORIENTED_EDGE ( 'NONE', *, *, #81, .F. ) ;
#300 = STYLED_ITEM ( 'NONE', ( #291 ), #55 ) ;
#301 = MECHANICAL_DESIGN_GEOMETRIC_PRESENTATION_REPRESENTATION (  '', ( #121 ), #166 ) ;
#302 = CARTESIAN_POINT ( 'NONE',  ( 6.000000000000000000, 75.00000000000000000, 7.347880794884119736E-16 ) ) ;
#303 = SURFACE_SIDE_STYLE ('',( #82 ) ) ;
#304 = UNCERTAINTY_MEASURE_WITH_UNIT (LENGTH_MEASURE( 1.000000000000000082E-05 ), #148, 'distance_accuracy_value', 'NONE');
#305 =( NAMED_UNIT ( * ) PLANE_ANGLE_UNIT ( ) SI_UNIT ( $, .RADIAN. ) );
#306 = TOROIDAL_SURFACE ( 'NONE', #152, 5.000000000000000000, 0.9999999999999995559 ) ;
#307 = LINE ( 'NONE', #98, #65 ) ;
#308 = DIRECTION ( 'NONE',  ( -1.000000000000000000, 0.000000000000000000, 0.000000000000000000 ) ) ;
#309 = MANIFOLD_SOLID_BREP ( 'Revolve - Cutting Edge', #90 ) ;
#310 = SURFACE_STYLE_FILL_AREA ( #202 ) ;
#311 = CYLINDRICAL_SURFACE ( 'NONE', #196, 5.999999999999998224 ) ;
#312 = VERTEX_POINT ( 'NONE', #75 ) ;
#313 = EDGE_CURVE ( 'NONE', #218, #255, #307, .T. ) ;
#314 = AXIS2_PLACEMENT_3D ( 'NONE', #347, #220, #164 ) ;
#315 = COLOUR_RGB ( '',1.000000000000000000, 0.000000000000000000, 0.000000000000000000 ) ;
#316 = FACE_OUTER_BOUND ( 'NONE', #117, .T. ) ;
#317 = CARTESIAN_POINT ( 'NONE',  ( 7.347880794884119736E-16, 0.000000000000000000, 6.000000000000000000 ) ) ;
#318 = DIRECTION ( 'NONE',  ( -1.208874916035850209E-16, 1.000000000000000000, -0.000000000000000000 ) ) ;
#319 = PLANE ( 'NONE',  #24 ) ;
#320 = DIRECTION ( 'NONE',  ( 1.000000000000000000, 0.000000000000000000, 0.000000000000000000 ) ) ;
#321 = AXIS2_PLACEMENT_3D ( 'NONE', #94, #71, #85 ) ;
#322 = PRESENTATION_LAYER_ASSIGNMENT (  '', '', ( #163 ) ) ;
#323 = AXIS2_PLACEMENT_3D ( 'NONE', #346, #95, #320 ) ;
#324 = FACE_OUTER_BOUND ( 'NONE', #170, .T. ) ;
#325 =( NAMED_UNIT ( * ) SI_UNIT ( $, .STERADIAN. ) SOLID_ANGLE_UNIT ( ) );
#326 = DIRECTION ( 'NONE',  ( 0.000000000000000000, 0.000000000000000000, -1.000000000000000000 ) ) ;
#327 = AXIS2_PLACEMENT_3D ( 'NONE', #13, #267, #44 ) ;
#328 = PRESENTATION_LAYER_ASSIGNMENT (  '', '', ( #175 ) ) ;
#329 = FILL_AREA_STYLE ('',( #212 ) ) ;
#330 = LINE ( 'NONE', #238, #271 ) ;
#331 = VERTEX_POINT ( 'NONE', #293 ) ;
#332 = PRESENTATION_LAYER_ASSIGNMENT (  '', '', ( #217 ) ) ;
#333 = DIRECTION ( 'NONE',  ( 0.000000000000000000, 0.000000000000000000, -1.000000000000000000 ) ) ;
#334 = VECTOR ( 'NONE', #282, 1000.000000000000000 ) ;
#335 = DIRECTION ( 'NONE',  ( -0.000000000000000000, -1.000000000000000000, -0.000000000000000000 ) ) ;
#336 = DIRECTION ( 'NONE',  ( -1.000000000000000000, 0.000000000000000000, 0.000000000000000000 ) ) ;
#337 = CIRCLE ( 'NONE', #268, 6.000000000000000000 ) ;
#338 = ORIENTED_EDGE ( 'NONE', *, *, #147, .T. ) ;
#339 = CARTESIAN_POINT ( 'NONE',  ( 0.000000000000000000, 1.000000000000000000, -5.000000000000000000 ) ) ;
#340 = CARTESIAN_POINT ( 'NONE',  ( 0.000000000000000000, 1.000000000000000000, 0.000000000000000000 ) ) ;
#341 = EDGE_LOOP ( 'NONE', ( #89, #87, #207, #299 ) ) ;
#342 = SURFACE_STYLE_USAGE ( .BOTH. , #1 ) ;
#343 = VERTEX_POINT ( 'NONE', #12 ) ;
#344 = AXIS2_PLACEMENT_3D ( 'NONE', #73, #184, #214 ) ;
#345 = EDGE_LOOP ( 'NONE', ( #338, #245, #179, #208 ) ) ;
#346 = CARTESIAN_POINT ( 'NONE',  ( 0.000000000000000000, 0.000000000000000000, 0.000000000000000000 ) ) ;
#347 = CARTESIAN_POINT ( 'NONE',  ( 5.421010862427522170E-15, 18.00000000000000355, 0.000000000000000000 ) ) ;
#348 = SHAPE_DEFINITION_REPRESENTATION ( #244, #7 ) ;
#349 = DIRECTION ( 'NONE',  ( -0.000000000000000000, -1.000000000000000000, -0.000000000000000000 ) ) ;
#350 = PRESENTATION_LAYER_ASSIGNMENT (  '', '', ( #300 ) ) ;
#351 = CIRCLE ( 'NONE', #142, 5.999999999999994671 ) ;
#352 = SURFACE_STYLE_FILL_AREA ( #329 ) ;
#353 = DIRECTION ( 'NONE',  ( 0.000000000000000000, 0.000000000000000000, -1.000000000000000000 ) ) ;
#354 = ADVANCED_FACE ( 'NONE', ( #324 ), #242, .T. ) ;
#355 = PRODUCT_DEFINITION ( 'UNKNOWN', '', #137, #297 ) ;
#356 = DIRECTION ( 'NONE',  ( -1.000000000000000000, 0.000000000000000000, 0.000000000000000000 ) ) ;
#357 = UNCERTAINTY_MEASURE_WITH_UNIT (LENGTH_MEASURE( 1.000000000000000082E-05 ), #224, 'distance_accuracy_value', 'NONE');
#358 = ORIENTED_EDGE ( 'NONE', *, *, #102, .F. ) ;
#359 = CARTESIAN_POINT ( 'NONE',  ( 0.000000000000000000, 1.000000000000000000, 0.000000000000000000 ) ) ;
#360 = ORIENTED_EDGE ( 'NONE', *, *, #16, .F. ) ;
#361 =( GEOMETRIC_REPRESENTATION_CONTEXT ( 3 ) GLOBAL_UNCERTAINTY_ASSIGNED_CONTEXT ( ( #30 ) ) GLOBAL_UNIT_ASSIGNED_CONTEXT ( ( #105, #168, #50 ) ) REPRESENTATION_CONTEXT ( 'NONE', 'WORKASPACE' ) );
#362 =( GEOMETRIC_REPRESENTATION_CONTEXT ( 3 ) GLOBAL_UNCERTAINTY_ASSIGNED_CONTEXT ( ( #304 ) ) GLOBAL_UNIT_ASSIGNED_CONTEXT ( ( #148, #118, #157 ) ) REPRESENTATION_CONTEXT ( 'NONE', 'WORKASPACE' ) );
#363 = PRESENTATION_STYLE_ASSIGNMENT (( #79 ) ) ;
#364 = VERTEX_POINT ( 'NONE', #209 ) ;
#365 =( NAMED_UNIT ( * ) SI_UNIT ( $, .STERADIAN. ) SOLID_ANGLE_UNIT ( ) );
#366 = STYLED_ITEM ( 'NONE', ( #363 ), #189 ) ;
#367 = FACE_OUTER_BOUND ( 'NONE', #275, .T. ) ;
#368 = MECHANICAL_DESIGN_GEOMETRIC_PRESENTATION_REPRESENTATION (  '', ( #51 ), #84 ) ;
#369 = EDGE_CURVE ( 'NONE', #312, #255, #47, .T. ) ;
#370 = FILL_AREA_STYLE ('',( #56 ) ) ;
ENDSEC;
END-ISO-10303-21;
