ISO-10303-21;
HEADER;
FILE_DESCRIPTION (( 'STEP AP214' ),
    '1' );
FILE_NAME ('00047.STEP',
    '2023-06-22T14:02:27',
    ( '' ),
    ( '' ),
    'SwSTEP 2.0',
    'SolidWorks 2023',
    '' );
FILE_SCHEMA (( 'AUTOMOTIVE_DESIGN' ));
ENDSEC;

DATA;
#1 = DIRECTION ( 'NONE',  ( -0.000000000000000000, -1.000000000000000000, -0.000000000000000000 ) ) ;
#2 = DIRECTION ( 'NONE',  ( 0.000000000000000000, 0.000000000000000000, -1.000000000000000000 ) ) ;
#3 = CARTESIAN_POINT ( 'NONE',  ( -0.06250000000000000000, 0.5000000000000001110, 0.000000000000000000 ) ) ;
#4 = SURFACE_STYLE_USAGE ( .BOTH. , #246 ) ;
#5 = APPLICATION_PROTOCOL_DEFINITION ( 'draft international standard', 'automotive_design', 1998, #145 ) ;
#6 =( LENGTH_UNIT ( ) NAMED_UNIT ( * ) SI_UNIT ( $, .METRE. ) );
#7 = CARTESIAN_POINT ( 'NONE',  ( 0.06250000000000000000, 2.500000000000000000, 7.654042494670963708E-18 ) ) ;
#8 = CARTESIAN_POINT ( 'NONE',  ( 0.06249999999999997224, 2.500000000000000000, 7.654042494670960626E-18 ) ) ;
#9 = CIRCLE ( 'NONE', #75, 0.06250000000000005551 ) ;
#10 = ADVANCED_FACE ( 'NONE', ( #233 ), #306, .T. ) ;
#11 = CARTESIAN_POINT ( 'NONE',  ( 7.654042494670957545E-18, 0.5000000000000000000, 0.06250000000000000000 ) ) ;
#12 = MECHANICAL_DESIGN_GEOMETRIC_PRESENTATION_REPRESENTATION (  '', ( #133 ), #263 ) ;
#13 = AXIS2_PLACEMENT_3D ( 'NONE', #297, #82, #168 ) ;
#14 = LINE ( 'NONE', #8, #141 ) ;
#15 = FILL_AREA_STYLE ('',( #83 ) ) ;
#16 = EDGE_LOOP ( 'NONE', ( #187, #250, #130, #228 ) ) ;
#17 = SURFACE_SIDE_STYLE ('',( #247 ) ) ;
#18 = ORIENTED_EDGE ( 'NONE', *, *, #185, .F. ) ;
#19 = DIRECTION ( 'NONE',  ( -0.000000000000000000, -1.000000000000000000, -0.000000000000000000 ) ) ;
#20 = AXIS2_PLACEMENT_3D ( 'NONE', #189, #241, #104 ) ;
#21 = ORIENTED_EDGE ( 'NONE', *, *, #163, .T. ) ;
#22 = EDGE_CURVE ( 'NONE', #199, #183, #98, .T. ) ;
#23 =( LENGTH_UNIT ( ) NAMED_UNIT ( * ) SI_UNIT ( $, .METRE. ) );
#24 = SURFACE_STYLE_USAGE ( .BOTH. , #280 ) ;
#25 =( LENGTH_UNIT ( ) NAMED_UNIT ( * ) SI_UNIT ( $, .METRE. ) );
#26 = ADVANCED_FACE ( 'NONE', ( #181 ), #138, .T. ) ;
#27 = CLOSED_SHELL ( 'NONE', ( #10, #135, #26, #303 ) ) ;
#28 = MECHANICAL_DESIGN_GEOMETRIC_PRESENTATION_REPRESENTATION (  '', ( #243 ), #216 ) ;
#29 = DIRECTION ( 'NONE',  ( -0.000000000000000000, -1.000000000000000000, -0.000000000000000000 ) ) ;
#30 = UNCERTAINTY_MEASURE_WITH_UNIT (LENGTH_MEASURE( 1.000000000000000082E-05 ), #212, 'distance_accuracy_value', 'NONE');
#31 = CARTESIAN_POINT ( 'NONE',  ( 0.000000000000000000, 0.000000000000000000, 0.000000000000000000 ) ) ;
#32 = DIRECTION ( 'NONE',  ( -0.000000000000000000, -1.000000000000000000, -0.000000000000000000 ) ) ;
#33 = CARTESIAN_POINT ( 'NONE',  ( 0.000000000000000000, 0.5000000000000000000, 0.000000000000000000 ) ) ;
#34 = FILL_AREA_STYLE_COLOUR ( '', #242 ) ;
#35 = DIRECTION ( 'NONE',  ( 1.000000000000000000, 0.000000000000000000, 0.000000000000000000 ) ) ;
#36 = PRESENTATION_STYLE_ASSIGNMENT (( #272 ) ) ;
#37 = MECHANICAL_DESIGN_GEOMETRIC_PRESENTATION_REPRESENTATION (  '', ( #140 ), #277 ) ;
#38 = EDGE_CURVE ( 'NONE', #267, #269, #64, .T. ) ;
#39 = STYLED_ITEM ( 'NONE', ( #118 ), #303 ) ;
#40 = LENGTH_MEASURE_WITH_UNIT ( LENGTH_MEASURE( 0.02539999999999999897 ), #6 );
#41 = DIRECTION ( 'NONE',  ( -1.000000000000000000, 0.000000000000000000, 0.000000000000000000 ) ) ;
#42 = DIMENSIONAL_EXPONENTS ( 1.000000000000000000, 0.000000000000000000, 0.000000000000000000, 0.000000000000000000, 0.000000000000000000, 0.000000000000000000, 0.000000000000000000 ) ;
#43 = CARTESIAN_POINT ( 'NONE',  ( 0.06250000000000000000, 0.5000000000000001110, 7.654042494670963708E-18 ) ) ;
#44 = ORIENTED_EDGE ( 'NONE', *, *, #185, .T. ) ;
#45 = DIRECTION ( 'NONE',  ( -3.061616997868383018E-17, 1.000000000000000000, -0.000000000000000000 ) ) ;
#46 = CIRCLE ( 'NONE', #51, 0.06250000000000000000 ) ;
#47 = ORIENTED_EDGE ( 'NONE', *, *, #102, .T. ) ;
#48 = CARTESIAN_POINT ( 'NONE',  ( 0.000000000000000000, 0.000000000000000000, 0.000000000000000000 ) ) ;
#49 = SURFACE_STYLE_FILL_AREA ( #76 ) ;
#50 = LENGTH_MEASURE_WITH_UNIT ( LENGTH_MEASURE( 0.02539999999999999897 ), #72 );
#51 = AXIS2_PLACEMENT_3D ( 'NONE', #198, #19, #62 ) ;
#52 = CARTESIAN_POINT ( 'NONE',  ( 0.000000000000000000, 0.000000000000000000, -0.06250000000000000000 ) ) ;
#53 = DIRECTION ( 'NONE',  ( -3.061616997868383018E-17, 1.000000000000000000, -0.000000000000000000 ) ) ;
#54 = FACE_OUTER_BOUND ( 'NONE', #167, .T. ) ;
#55 = AXIS2_PLACEMENT_3D ( 'NONE', #150, #287, #146 ) ;
#56 = PRODUCT_DEFINITION_SHAPE ( 'NONE', 'NONE',  #286 ) ;
#57 = AXIS2_PLACEMENT_3D ( 'NONE', #202, #112, #90 ) ;
#58 = ORIENTED_EDGE ( 'NONE', *, *, #124, .F. ) ;
#59 = PLANE ( 'NONE',  #55 ) ;
#60 = DIRECTION ( 'NONE',  ( -3.061616997868383018E-17, 1.000000000000000000, -0.000000000000000000 ) ) ;
#61 = CARTESIAN_POINT ( 'NONE',  ( 0.000000000000000000, 0.5000000000000001110, 0.000000000000000000 ) ) ;
#62 = DIRECTION ( 'NONE',  ( 0.000000000000000000, 0.000000000000000000, -1.000000000000000000 ) ) ;
#63 = ORIENTED_EDGE ( 'NONE', *, *, #191, .T. ) ;
#64 = CIRCLE ( 'NONE', #192, 0.06250000000000000000 ) ;
#65 = EDGE_LOOP ( 'NONE', ( #86, #226 ) ) ;
#66 = LENGTH_MEASURE_WITH_UNIT ( LENGTH_MEASURE( 0.02539999999999999897 ), #176 );
#67 = CARTESIAN_POINT ( 'NONE',  ( -6.123233995736766036E-17, 2.500000000000000000, 0.000000000000000000 ) ) ;
#68 = CIRCLE ( 'NONE', #136, 0.06250000000000000000 ) ;
#69 = AXIS2_PLACEMENT_3D ( 'NONE', #132, #60, #41 ) ;
#70 =( CONVERSION_BASED_UNIT ( 'INCH', #156 ) LENGTH_UNIT ( ) NAMED_UNIT ( #157 ) );
#71 =( NAMED_UNIT ( * ) SI_UNIT ( $, .STERADIAN. ) SOLID_ANGLE_UNIT ( ) );
#72 =( LENGTH_UNIT ( ) NAMED_UNIT ( * ) SI_UNIT ( $, .METRE. ) );
#73 = FILL_AREA_STYLE ('',( #182 ) ) ;
#74 = APPLICATION_PROTOCOL_DEFINITION ( 'draft international standard', 'automotive_design', 1998, #131 ) ;
#75 = AXIS2_PLACEMENT_3D ( 'NONE', #67, #109, #155 ) ;
#76 = FILL_AREA_STYLE ('',( #159 ) ) ;
#77 = SURFACE_STYLE_FILL_AREA ( #73 ) ;
#78 = ADVANCED_FACE ( 'NONE', ( #100 ), #262, .T. ) ;
#79 = EDGE_CURVE ( 'NONE', #183, #267, #284, .T. ) ;
#80 = COLOUR_RGB ( '',1.000000000000000000, 0.000000000000000000, 0.000000000000000000 ) ;
#81 = PRESENTATION_LAYER_ASSIGNMENT (  '', '', ( #39 ) ) ;
#82 = DIRECTION ( 'NONE',  ( -3.061616997868383018E-17, 1.000000000000000000, -0.000000000000000000 ) ) ;
#83 = FILL_AREA_STYLE_COLOUR ( '', #166 ) ;
#84 = ORIENTED_EDGE ( 'NONE', *, *, #191, .F. ) ;
#85 = UNCERTAINTY_MEASURE_WITH_UNIT (LENGTH_MEASURE( 1.000000000000000082E-05 ), #70, 'distance_accuracy_value', 'NONE');
#86 = ORIENTED_EDGE ( 'NONE', *, *, #22, .F. ) ;
#87 =( GEOMETRIC_REPRESENTATION_CONTEXT ( 3 ) GLOBAL_UNCERTAINTY_ASSIGNED_CONTEXT ( ( #85 ) ) GLOBAL_UNIT_ASSIGNED_CONTEXT ( ( #70, #253, #308 ) ) REPRESENTATION_CONTEXT ( 'NONE', 'WORKASPACE' ) );
#88 = ORIENTED_EDGE ( 'NONE', *, *, #79, .T. ) ;
#89 = UNCERTAINTY_MEASURE_WITH_UNIT (LENGTH_MEASURE( 1.000000000000000082E-05 ), #309, 'distance_accuracy_value', 'NONE');
#90 = DIRECTION ( 'NONE',  ( -1.000000000000000000, 0.000000000000000000, 0.000000000000000000 ) ) ;
#91 = SURFACE_STYLE_USAGE ( .BOTH. , #95 ) ;
#92 = AXIS2_PLACEMENT_3D ( 'NONE', #165, #221, #261 ) ;
#93 = SURFACE_STYLE_USAGE ( .BOTH. , #115 ) ;
#94 = MECHANICAL_DESIGN_GEOMETRIC_PRESENTATION_REPRESENTATION (  '', ( #39 ), #160 ) ;
#95 = SURFACE_SIDE_STYLE ('',( #119 ) ) ;
#96 = LINE ( 'NONE', #52, #101 ) ;
#97 = ORIENTED_EDGE ( 'NONE', *, *, #163, .F. ) ;
#98 = CIRCLE ( 'NONE', #215, 0.06250000000000000000 ) ;
#99 = PRODUCT_RELATED_PRODUCT_CATEGORY ( 'part', '', ( #291 ) ) ;
#100 = FACE_OUTER_BOUND ( 'NONE', #270, .T. ) ;
#101 = VECTOR ( 'NONE', #32, 39.37007874015748143 ) ;
#102 = EDGE_CURVE ( 'NONE', #169, #147, #68, .T. ) ;
#103 = ORIENTED_EDGE ( 'NONE', *, *, #124, .T. ) ;
#104 = DIRECTION ( 'NONE',  ( -1.000000000000000000, -3.061616997868383018E-17, 0.000000000000000000 ) ) ;
#105 = DIRECTION ( 'NONE',  ( 0.000000000000000000, 0.000000000000000000, -1.000000000000000000 ) ) ;
#106 = ORIENTED_EDGE ( 'NONE', *, *, #38, .T. ) ;
#107 =( CONVERSION_BASED_UNIT ( 'INCH', #129 ) LENGTH_UNIT ( ) NAMED_UNIT ( #200 ) );
#108 = PRODUCT_DEFINITION_CONTEXT ( 'detailed design', #145, 'design' ) ;
#109 = DIRECTION ( 'NONE',  ( -3.061616997868383018E-17, 1.000000000000000000, -0.000000000000000000 ) ) ;
#110 = EDGE_LOOP ( 'NONE', ( #231, #63 ) ) ;
#111 = PRESENTATION_LAYER_ASSIGNMENT (  '', '', ( #126 ) ) ;
#112 = DIRECTION ( 'NONE',  ( -3.061616997868383018E-17, 1.000000000000000000, -0.000000000000000000 ) ) ;
#113 = DIRECTION ( 'NONE',  ( 3.061616997868383018E-17, -1.000000000000000000, 0.000000000000000000 ) ) ;
#114 = PRESENTATION_LAYER_ASSIGNMENT (  '', '', ( #133 ) ) ;
#115 = SURFACE_SIDE_STYLE ('',( #77 ) ) ;
#116 = PRODUCT_DEFINITION_FORMATION_WITH_SPECIFIED_SOURCE ( 'ANY', '', #291, .NOT_KNOWN. ) ;
#117 =( NAMED_UNIT ( * ) PLANE_ANGLE_UNIT ( ) SI_UNIT ( $, .RADIAN. ) );
#118 = PRESENTATION_STYLE_ASSIGNMENT (( #93 ) ) ;
#119 = SURFACE_STYLE_FILL_AREA ( #278 ) ;
#120 = PRESENTATION_LAYER_ASSIGNMENT (  '', '', ( #258 ) ) ;
#121 = FILL_AREA_STYLE ('',( #34 ) ) ;
#122 = CARTESIAN_POINT ( 'NONE',  ( 7.654042494670957545E-18, 0.000000000000000000, 0.06250000000000000000 ) ) ;
#123 =( GEOMETRIC_REPRESENTATION_CONTEXT ( 3 ) GLOBAL_UNCERTAINTY_ASSIGNED_CONTEXT ( ( #229 ) ) GLOBAL_UNIT_ASSIGNED_CONTEXT ( ( #107, #222, #293 ) ) REPRESENTATION_CONTEXT ( 'NONE', 'WORKASPACE' ) );
#124 = EDGE_CURVE ( 'NONE', #169, #153, #14, .T. ) ;
#125 = ADVANCED_FACE ( 'NONE', ( #54 ), #193, .F. ) ;
#126 = STYLED_ITEM ( 'NONE', ( #227 ), #172 ) ;
#127 = ORIENTED_EDGE ( 'NONE', *, *, #240, .F. ) ;
#128 = FACE_OUTER_BOUND ( 'NONE', #282, .T. ) ;
#129 = LENGTH_MEASURE_WITH_UNIT ( LENGTH_MEASURE( 0.02539999999999999897 ), #170 );
#130 = ORIENTED_EDGE ( 'NONE', *, *, #295, .T. ) ;
#131 = APPLICATION_CONTEXT ( 'automotive_design' ) ;
#132 = CARTESIAN_POINT ( 'NONE',  ( -6.123233995736766036E-17, 2.500000000000000000, 0.000000000000000000 ) ) ;
#133 = STYLED_ITEM ( 'NONE', ( #142 ), #135 ) ;
#134 = ORIENTED_EDGE ( 'NONE', *, *, #22, .T. ) ;
#135 = ADVANCED_FACE ( 'NONE', ( #290 ), #59, .T. ) ;
#136 = AXIS2_PLACEMENT_3D ( 'NONE', #61, #264, #139 ) ;
#137 =( NAMED_UNIT ( * ) PLANE_ANGLE_UNIT ( ) SI_UNIT ( $, .RADIAN. ) );
#138 = CYLINDRICAL_SURFACE ( 'NONE', #252, 0.06250000000000000000 ) ;
#139 = DIRECTION ( 'NONE',  ( -1.000000000000000000, 0.000000000000000000, 0.000000000000000000 ) ) ;
#140 = STYLED_ITEM ( 'NONE', ( #184 ), #10 ) ;
#141 = VECTOR ( 'NONE', #53, 39.37007874015748143 ) ;
#142 = PRESENTATION_STYLE_ASSIGNMENT (( #4 ) ) ;
#143 = SURFACE_STYLE_FILL_AREA ( #121 ) ;
#144 = CIRCLE ( 'NONE', #13, 0.06250000000000000000 ) ;
#145 = APPLICATION_CONTEXT ( 'automotive_design' ) ;
#146 = DIRECTION ( 'NONE',  ( 0.000000000000000000, -0.000000000000000000, 1.000000000000000000 ) ) ;
#147 = VERTEX_POINT ( 'NONE', #3 ) ;
#148 = FILL_AREA_STYLE ('',( #173 ) ) ;
#149 = ORIENTED_EDGE ( 'NONE', *, *, #295, .F. ) ;
#150 = CARTESIAN_POINT ( 'NONE',  ( 0.000000000000000000, 0.5000000000000000000, 0.000000000000000000 ) ) ;
#151 = SURFACE_STYLE_FILL_AREA ( #148 ) ;
#152 = COLOUR_RGB ( '',0.7921568627450980005, 0.8196078431372548767, 0.9333333333333333481 ) ;
#153 = VERTEX_POINT ( 'NONE', #7 ) ;
#154 = DIRECTION ( 'NONE',  ( -0.000000000000000000, -1.000000000000000000, -0.000000000000000000 ) ) ;
#155 = DIRECTION ( 'NONE',  ( -1.000000000000000000, 0.000000000000000000, 0.000000000000000000 ) ) ;
#156 = LENGTH_MEASURE_WITH_UNIT ( LENGTH_MEASURE( 0.02539999999999999897 ), #25 );
#157 = DIMENSIONAL_EXPONENTS ( 1.000000000000000000, 0.000000000000000000, 0.000000000000000000, 0.000000000000000000, 0.000000000000000000, 0.000000000000000000, 0.000000000000000000 ) ;
#158 = PLANE ( 'NONE',  #305 ) ;
#159 = FILL_AREA_STYLE_COLOUR ( '', #304 ) ;
#160 =( GEOMETRIC_REPRESENTATION_CONTEXT ( 3 ) GLOBAL_UNCERTAINTY_ASSIGNED_CONTEXT ( ( #300 ) ) GLOBAL_UNIT_ASSIGNED_CONTEXT ( ( #254, #207, #232 ) ) REPRESENTATION_CONTEXT ( 'NONE', 'WORKASPACE' ) );
#161 = ADVANCED_BREP_SHAPE_REPRESENTATION ( '00047', ( #172, #281, #188 ), #164 ) ;
#162 =( CONVERSION_BASED_UNIT ( 'INCH', #40 ) LENGTH_UNIT ( ) NAMED_UNIT ( #294 ) );
#163 = EDGE_CURVE ( 'NONE', #147, #296, #289, .T. ) ;
#164 =( GEOMETRIC_REPRESENTATION_CONTEXT ( 3 ) GLOBAL_UNCERTAINTY_ASSIGNED_CONTEXT ( ( #30 ) ) GLOBAL_UNIT_ASSIGNED_CONTEXT ( ( #212, #137, #71 ) ) REPRESENTATION_CONTEXT ( 'NONE', 'WORKASPACE' ) );
#165 = CARTESIAN_POINT ( 'NONE',  ( -6.123233995736766036E-17, 2.500000000000000000, 0.000000000000000000 ) ) ;
#166 = COLOUR_RGB ( '',0.7921568627450980005, 0.8196078431372548767, 0.9333333333333333481 ) ;
#167 = EDGE_LOOP ( 'NONE', ( #177, #204 ) ) ;
#168 = DIRECTION ( 'NONE',  ( -1.000000000000000000, 0.000000000000000000, 0.000000000000000000 ) ) ;
#169 = VERTEX_POINT ( 'NONE', #43 ) ;
#170 =( LENGTH_UNIT ( ) NAMED_UNIT ( * ) SI_UNIT ( $, .METRE. ) );
#171 = EDGE_LOOP ( 'NONE', ( #44, #106 ) ) ;
#172 = MANIFOLD_SOLID_BREP ( 'Revolve - Cutting Edge', #27 ) ;
#173 = FILL_AREA_STYLE_COLOUR ( '', #152 ) ;
#174 = COLOUR_RGB ( '',1.000000000000000000, 0.000000000000000000, 0.000000000000000000 ) ;
#175 = CIRCLE ( 'NONE', #69, 0.06250000000000005551 ) ;
#176 =( LENGTH_UNIT ( ) NAMED_UNIT ( * ) SI_UNIT ( $, .METRE. ) );
#177 = ORIENTED_EDGE ( 'NONE', *, *, #218, .F. ) ;
#178 = SURFACE_SIDE_STYLE ('',( #151 ) ) ;
#179 = PRESENTATION_STYLE_ASSIGNMENT (( #91 ) ) ;
#180 =( LENGTH_UNIT ( ) NAMED_UNIT ( * ) SI_UNIT ( $, .METRE. ) );
#181 = FACE_OUTER_BOUND ( 'NONE', #16, .T. ) ;
#182 = FILL_AREA_STYLE_COLOUR ( '', #80 ) ;
#183 = VERTEX_POINT ( 'NONE', #11 ) ;
#184 = PRESENTATION_STYLE_ASSIGNMENT (( #24 ) ) ;
#185 = EDGE_CURVE ( 'NONE', #269, #267, #203, .T. ) ;
#186 = CARTESIAN_POINT ( 'NONE',  ( 0.06250000000000000000, 2.500000000000000000, 0.000000000000000000 ) ) ;
#187 = ORIENTED_EDGE ( 'NONE', *, *, #79, .F. ) ;
#188 = AXIS2_PLACEMENT_3D ( 'NONE', #219, #245, #35 ) ;
#189 = CARTESIAN_POINT ( 'NONE',  ( 2.929218325511440640E-35, 0.5000000000000000000, 0.000000000000000000 ) ) ;
#190 = PRODUCT_CONTEXT ( 'NONE', #131, 'mechanical' ) ;
#191 = EDGE_CURVE ( 'NONE', #153, #296, #9, .T. ) ;
#192 = AXIS2_PLACEMENT_3D ( 'NONE', #220, #224, #217 ) ;
#193 = PLANE ( 'NONE',  #20 ) ;
#194 = ADVANCED_FACE ( 'NONE', ( #128 ), #195, .T. ) ;
#195 = CYLINDRICAL_SURFACE ( 'NONE', #57, 0.06250000000000002776 ) ;
#196 = AXIS2_PLACEMENT_3D ( 'NONE', #237, #257, #235 ) ;
#197 = DIRECTION ( 'NONE',  ( -0.000000000000000000, -1.000000000000000000, -0.000000000000000000 ) ) ;
#198 = CARTESIAN_POINT ( 'NONE',  ( 0.000000000000000000, 0.5000000000000000000, 0.000000000000000000 ) ) ;
#199 = VERTEX_POINT ( 'NONE', #225 ) ;
#200 = DIMENSIONAL_EXPONENTS ( 1.000000000000000000, 0.000000000000000000, 0.000000000000000000, 0.000000000000000000, 0.000000000000000000, 0.000000000000000000, 0.000000000000000000 ) ;
#201 = CARTESIAN_POINT ( 'NONE',  ( -0.06250000000000012490, 2.500000000000000000, 0.000000000000000000 ) ) ;
#202 = CARTESIAN_POINT ( 'NONE',  ( -6.123233995736766036E-17, 2.500000000000000000, 0.000000000000000000 ) ) ;
#203 = CIRCLE ( 'NONE', #273, 0.06250000000000000000 ) ;
#204 = ORIENTED_EDGE ( 'NONE', *, *, #102, .F. ) ;
#205 = UNCERTAINTY_MEASURE_WITH_UNIT (LENGTH_MEASURE( 1.000000000000000082E-05 ), #260, 'distance_accuracy_value', 'NONE');
#206 = CARTESIAN_POINT ( 'NONE',  ( 0.000000000000000000, 0.000000000000000000, 0.000000000000000000 ) ) ;
#207 =( NAMED_UNIT ( * ) PLANE_ANGLE_UNIT ( ) SI_UNIT ( $, .RADIAN. ) );
#208 = DIRECTION ( 'NONE',  ( 0.000000000000000000, 0.000000000000000000, -1.000000000000000000 ) ) ;
#209 = FACE_OUTER_BOUND ( 'NONE', #171, .T. ) ;
#210 = MECHANICAL_DESIGN_GEOMETRIC_PRESENTATION_REPRESENTATION (  '', ( #126 ), #123 ) ;
#211 = CLOSED_SHELL ( 'NONE', ( #194, #125, #78, #307 ) ) ;
#212 =( CONVERSION_BASED_UNIT ( 'INCH', #251 ) LENGTH_UNIT ( ) NAMED_UNIT ( #223 ) );
#213 = FACE_OUTER_BOUND ( 'NONE', #110, .T. ) ;
#214 = PLANE ( 'NONE',  #248 ) ;
#215 = AXIS2_PLACEMENT_3D ( 'NONE', #33, #29, #239 ) ;
#216 =( GEOMETRIC_REPRESENTATION_CONTEXT ( 3 ) GLOBAL_UNCERTAINTY_ASSIGNED_CONTEXT ( ( #89 ) ) GLOBAL_UNIT_ASSIGNED_CONTEXT ( ( #309, #256, #259 ) ) REPRESENTATION_CONTEXT ( 'NONE', 'WORKASPACE' ) );
#217 = DIRECTION ( 'NONE',  ( 0.000000000000000000, 0.000000000000000000, -1.000000000000000000 ) ) ;
#218 = EDGE_CURVE ( 'NONE', #147, #169, #144, .T. ) ;
#219 = CARTESIAN_POINT ( 'NONE',  ( 0.000000000000000000, 0.000000000000000000, 0.000000000000000000 ) ) ;
#220 = CARTESIAN_POINT ( 'NONE',  ( 0.000000000000000000, 0.000000000000000000, 0.000000000000000000 ) ) ;
#221 = DIRECTION ( 'NONE',  ( -3.061616997868383018E-17, 1.000000000000000000, -0.000000000000000000 ) ) ;
#222 =( NAMED_UNIT ( * ) PLANE_ANGLE_UNIT ( ) SI_UNIT ( $, .RADIAN. ) );
#223 = DIMENSIONAL_EXPONENTS ( 1.000000000000000000, 0.000000000000000000, 0.000000000000000000, 0.000000000000000000, 0.000000000000000000, 0.000000000000000000, 0.000000000000000000 ) ;
#224 = DIRECTION ( 'NONE',  ( -0.000000000000000000, -1.000000000000000000, -0.000000000000000000 ) ) ;
#225 = CARTESIAN_POINT ( 'NONE',  ( 0.000000000000000000, 0.5000000000000000000, -0.06250000000000000000 ) ) ;
#226 = ORIENTED_EDGE ( 'NONE', *, *, #249, .F. ) ;
#227 = PRESENTATION_STYLE_ASSIGNMENT (( #268 ) ) ;
#228 = ORIENTED_EDGE ( 'NONE', *, *, #38, .F. ) ;
#229 = UNCERTAINTY_MEASURE_WITH_UNIT (LENGTH_MEASURE( 1.000000000000000082E-05 ), #107, 'distance_accuracy_value', 'NONE');
#230 = CARTESIAN_POINT ( 'NONE',  ( 0.000000000000000000, 0.000000000000000000, -0.06250000000000000000 ) ) ;
#231 = ORIENTED_EDGE ( 'NONE', *, *, #240, .T. ) ;
#232 =( NAMED_UNIT ( * ) SI_UNIT ( $, .STERADIAN. ) SOLID_ANGLE_UNIT ( ) );
#233 = FACE_OUTER_BOUND ( 'NONE', #299, .T. ) ;
#234 = DIMENSIONAL_EXPONENTS ( 1.000000000000000000, 0.000000000000000000, 0.000000000000000000, 0.000000000000000000, 0.000000000000000000, 0.000000000000000000, 0.000000000000000000 ) ;
#235 = DIRECTION ( 'NONE',  ( 0.000000000000000000, 0.000000000000000000, -1.000000000000000000 ) ) ;
#236 = DIRECTION ( 'NONE',  ( 0.000000000000000000, -1.000000000000000000, -0.000000000000000000 ) ) ;
#237 = CARTESIAN_POINT ( 'NONE',  ( 0.000000000000000000, 0.000000000000000000, 0.000000000000000000 ) ) ;
#238 = DIMENSIONAL_EXPONENTS ( 1.000000000000000000, 0.000000000000000000, 0.000000000000000000, 0.000000000000000000, 0.000000000000000000, 0.000000000000000000, 0.000000000000000000 ) ;
#239 = DIRECTION ( 'NONE',  ( 0.000000000000000000, 0.000000000000000000, -1.000000000000000000 ) ) ;
#240 = EDGE_CURVE ( 'NONE', #296, #153, #175, .T. ) ;
#241 = DIRECTION ( 'NONE',  ( -3.061616997868383018E-17, 1.000000000000000000, 0.000000000000000000 ) ) ;
#242 = COLOUR_RGB ( '',1.000000000000000000, 0.000000000000000000, 0.000000000000000000 ) ;
#243 = STYLED_ITEM ( 'NONE', ( #36 ), #281 ) ;
#244 =( NAMED_UNIT ( * ) SI_UNIT ( $, .STERADIAN. ) SOLID_ANGLE_UNIT ( ) );
#245 = DIRECTION ( 'NONE',  ( 0.000000000000000000, 0.000000000000000000, 1.000000000000000000 ) ) ;
#246 = SURFACE_SIDE_STYLE ('',( #143 ) ) ;
#247 = SURFACE_STYLE_FILL_AREA ( #15 ) ;
#248 = AXIS2_PLACEMENT_3D ( 'NONE', #186, #113, #301 ) ;
#249 = EDGE_CURVE ( 'NONE', #183, #199, #46, .T. ) ;
#250 = ORIENTED_EDGE ( 'NONE', *, *, #249, .T. ) ;
#251 = LENGTH_MEASURE_WITH_UNIT ( LENGTH_MEASURE( 0.02539999999999999897 ), #23 );
#252 = AXIS2_PLACEMENT_3D ( 'NONE', #31, #1, #208 ) ;
#253 =( NAMED_UNIT ( * ) PLANE_ANGLE_UNIT ( ) SI_UNIT ( $, .RADIAN. ) );
#254 =( CONVERSION_BASED_UNIT ( 'INCH', #279 ) LENGTH_UNIT ( ) NAMED_UNIT ( #238 ) );
#255 =( NAMED_UNIT ( * ) SI_UNIT ( $, .STERADIAN. ) SOLID_ANGLE_UNIT ( ) );
#256 =( NAMED_UNIT ( * ) PLANE_ANGLE_UNIT ( ) SI_UNIT ( $, .RADIAN. ) );
#257 = DIRECTION ( 'NONE',  ( -0.000000000000000000, -1.000000000000000000, -0.000000000000000000 ) ) ;
#258 = STYLED_ITEM ( 'NONE', ( #179 ), #26 ) ;
#259 =( NAMED_UNIT ( * ) SI_UNIT ( $, .STERADIAN. ) SOLID_ANGLE_UNIT ( ) );
#260 =( CONVERSION_BASED_UNIT ( 'INCH', #50 ) LENGTH_UNIT ( ) NAMED_UNIT ( #42 ) );
#261 = DIRECTION ( 'NONE',  ( -1.000000000000000000, 0.000000000000000000, 0.000000000000000000 ) ) ;
#262 = CYLINDRICAL_SURFACE ( 'NONE', #92, 0.06250000000000002776 ) ;
#263 =( GEOMETRIC_REPRESENTATION_CONTEXT ( 3 ) GLOBAL_UNCERTAINTY_ASSIGNED_CONTEXT ( ( #283 ) ) GLOBAL_UNIT_ASSIGNED_CONTEXT ( ( #162, #265, #244 ) ) REPRESENTATION_CONTEXT ( 'NONE', 'WORKASPACE' ) );
#264 = DIRECTION ( 'NONE',  ( -3.061616997868383018E-17, 1.000000000000000000, -0.000000000000000000 ) ) ;
#265 =( NAMED_UNIT ( * ) PLANE_ANGLE_UNIT ( ) SI_UNIT ( $, .RADIAN. ) );
#266 = MECHANICAL_DESIGN_GEOMETRIC_PRESENTATION_REPRESENTATION (  '', ( #258 ), #87 ) ;
#267 = VERTEX_POINT ( 'NONE', #276 ) ;
#268 = SURFACE_STYLE_USAGE ( .BOTH. , #17 ) ;
#269 = VERTEX_POINT ( 'NONE', #230 ) ;
#270 = EDGE_LOOP ( 'NONE', ( #58, #47, #21, #84 ) ) ;
#271 = PRESENTATION_LAYER_ASSIGNMENT (  '', '', ( #140 ) ) ;
#272 = SURFACE_STYLE_USAGE ( .BOTH. , #178 ) ;
#273 = AXIS2_PLACEMENT_3D ( 'NONE', #206, #154, #105 ) ;
#274 = ORIENTED_EDGE ( 'NONE', *, *, #218, .T. ) ;
#275 = CARTESIAN_POINT ( 'NONE',  ( -0.06250000000000009714, 2.500000000000000000, 0.000000000000000000 ) ) ;
#276 = CARTESIAN_POINT ( 'NONE',  ( 7.654042494670957545E-18, 0.000000000000000000, 0.06250000000000000000 ) ) ;
#277 =( GEOMETRIC_REPRESENTATION_CONTEXT ( 3 ) GLOBAL_UNCERTAINTY_ASSIGNED_CONTEXT ( ( #205 ) ) GLOBAL_UNIT_ASSIGNED_CONTEXT ( ( #260, #117, #255 ) ) REPRESENTATION_CONTEXT ( 'NONE', 'WORKASPACE' ) );
#278 = FILL_AREA_STYLE ('',( #302 ) ) ;
#279 = LENGTH_MEASURE_WITH_UNIT ( LENGTH_MEASURE( 0.02539999999999999897 ), #180 );
#280 = SURFACE_SIDE_STYLE ('',( #49 ) ) ;
#281 = MANIFOLD_SOLID_BREP ( 'Revolve - Tool Body (Straight Shanked)', #211 ) ;
#282 = EDGE_LOOP ( 'NONE', ( #274, #103, #127, #97 ) ) ;
#283 = UNCERTAINTY_MEASURE_WITH_UNIT (LENGTH_MEASURE( 1.000000000000000082E-05 ), #162, 'distance_accuracy_value', 'NONE');
#284 = LINE ( 'NONE', #122, #292 ) ;
#285 = SHAPE_DEFINITION_REPRESENTATION ( #56, #161 ) ;
#286 = PRODUCT_DEFINITION ( 'UNKNOWN', '', #116, #108 ) ;
#287 = DIRECTION ( 'NONE',  ( 0.000000000000000000, 1.000000000000000000, 0.000000000000000000 ) ) ;
#288 = VECTOR ( 'NONE', #45, 39.37007874015748143 ) ;
#289 = LINE ( 'NONE', #275, #288 ) ;
#290 = FACE_OUTER_BOUND ( 'NONE', #65, .T. ) ;
#291 = PRODUCT ( '00047', '00047', '', ( #190 ) ) ;
#292 = VECTOR ( 'NONE', #197, 39.37007874015748143 ) ;
#293 =( NAMED_UNIT ( * ) SI_UNIT ( $, .STERADIAN. ) SOLID_ANGLE_UNIT ( ) );
#294 = DIMENSIONAL_EXPONENTS ( 1.000000000000000000, 0.000000000000000000, 0.000000000000000000, 0.000000000000000000, 0.000000000000000000, 0.000000000000000000, 0.000000000000000000 ) ;
#295 = EDGE_CURVE ( 'NONE', #199, #269, #96, .T. ) ;
#296 = VERTEX_POINT ( 'NONE', #201 ) ;
#297 = CARTESIAN_POINT ( 'NONE',  ( 0.000000000000000000, 0.5000000000000001110, 0.000000000000000000 ) ) ;
#298 = PRESENTATION_LAYER_ASSIGNMENT (  '', '', ( #243 ) ) ;
#299 = EDGE_LOOP ( 'NONE', ( #134, #88, #18, #149 ) ) ;
#300 = UNCERTAINTY_MEASURE_WITH_UNIT (LENGTH_MEASURE( 1.000000000000000082E-05 ), #254, 'distance_accuracy_value', 'NONE');
#301 = DIRECTION ( 'NONE',  ( 1.000000000000000000, 3.061616997868383018E-17, 0.000000000000000000 ) ) ;
#302 = FILL_AREA_STYLE_COLOUR ( '', #174 ) ;
#303 = ADVANCED_FACE ( 'NONE', ( #209 ), #158, .T. ) ;
#304 = COLOUR_RGB ( '',1.000000000000000000, 0.000000000000000000, 0.000000000000000000 ) ;
#305 = AXIS2_PLACEMENT_3D ( 'NONE', #48, #236, #2 ) ;
#306 = CYLINDRICAL_SURFACE ( 'NONE', #196, 0.06250000000000000000 ) ;
#307 = ADVANCED_FACE ( 'NONE', ( #213 ), #214, .F. ) ;
#308 =( NAMED_UNIT ( * ) SI_UNIT ( $, .STERADIAN. ) SOLID_ANGLE_UNIT ( ) );
#309 =( CONVERSION_BASED_UNIT ( 'INCH', #66 ) LENGTH_UNIT ( ) NAMED_UNIT ( #234 ) );
ENDSEC;
END-ISO-10303-21;
