ISO-10303-21;
HEADER;
FILE_DESCRIPTION (( 'STEP AP214' ),
    '1' );
FILE_NAME ('84081.STEP',
    '2023-06-23T11:24:36',
    ( '' ),
    ( '' ),
    'SwSTEP 2.0',
    'SolidWorks 2023',
    '' );
FILE_SCHEMA (( 'AUTOMOTIVE_DESIGN' ));
ENDSEC;

DATA;
#1 = PLANE ( 'NONE',  #157 ) ;
#2 =( LENGTH_UNIT ( ) NAMED_UNIT ( * ) SI_UNIT ( $, .METRE. ) );
#3 = CARTESIAN_POINT ( 'NONE',  ( 0.000000000000000000, 0.000000000000000000, 0.000000000000000000 ) ) ;
#4 = ADVANCED_FACE ( 'NONE', ( #42 ), #178, .T. ) ;
#5 =( CONVERSION_BASED_UNIT ( 'INCH', #253 ) LENGTH_UNIT ( ) NAMED_UNIT ( #118 ) );
#6 = MECHANICAL_DESIGN_GEOMETRIC_PRESENTATION_REPRESENTATION (  '', ( #165 ), #131 ) ;
#7 = AXIS2_PLACEMENT_3D ( 'NONE', #353, #103, #220 ) ;
#8 = DIMENSIONAL_EXPONENTS ( 1.000000000000000000, 0.000000000000000000, 0.000000000000000000, 0.000000000000000000, 0.000000000000000000, 0.000000000000000000, 0.000000000000000000 ) ;
#9 = DIRECTION ( 'NONE',  ( 0.000000000000000000, -0.000000000000000000, 1.000000000000000000 ) ) ;
#10 = SURFACE_STYLE_FILL_AREA ( #34 ) ;
#11 = COLOUR_RGB ( '',0.7921568627450980005, 0.8196078431372548767, 0.9333333333333333481 ) ;
#12 = DIRECTION ( 'NONE',  ( 0.000000000000000000, 0.000000000000000000, -1.000000000000000000 ) ) ;
#13 =( CONVERSION_BASED_UNIT ( 'INCH', #206 ) LENGTH_UNIT ( ) NAMED_UNIT ( #86 ) );
#14 = ORIENTED_EDGE ( 'NONE', *, *, #150, .F. ) ;
#15 = PLANE ( 'NONE',  #197 ) ;
#16 = CARTESIAN_POINT ( 'NONE',  ( -1.038650980237742015E-17, 0.5012863583480339225, 0.000000000000000000 ) ) ;
#17 = VECTOR ( 'NONE', #81, 39.37007874015747433 ) ;
#18 = ORIENTED_EDGE ( 'NONE', *, *, #334, .T. ) ;
#19 = FACE_OUTER_BOUND ( 'NONE', #68, .T. ) ;
#20 = VECTOR ( 'NONE', #281, 39.37007874015748143 ) ;
#21 = FACE_OUTER_BOUND ( 'NONE', #289, .T. ) ;
#22 = MECHANICAL_DESIGN_GEOMETRIC_PRESENTATION_REPRESENTATION (  '', ( #56 ), #63 ) ;
#23 = ADVANCED_FACE ( 'NONE', ( #151 ), #15, .F. ) ;
#24 = AXIS2_PLACEMENT_3D ( 'NONE', #101, #73, #53 ) ;
#25 = FILL_AREA_STYLE_COLOUR ( '', #271 ) ;
#26 = DIRECTION ( 'NONE',  ( -0.000000000000000000, -1.000000000000000000, -0.000000000000000000 ) ) ;
#27 = LINE ( 'NONE', #192, #17 ) ;
#28 = CARTESIAN_POINT ( 'NONE',  ( -0.1250000000000000000, 0.5012863583480339225, 0.000000000000000000 ) ) ;
#29 = AXIS2_PLACEMENT_3D ( 'NONE', #219, #221, #357 ) ;
#30 =( GEOMETRIC_REPRESENTATION_CONTEXT ( 3 ) GLOBAL_UNCERTAINTY_ASSIGNED_CONTEXT ( ( #83 ) ) GLOBAL_UNIT_ASSIGNED_CONTEXT ( ( #5, #336, #212 ) ) REPRESENTATION_CONTEXT ( 'NONE', 'WORKASPACE' ) );
#31 = AXIS2_PLACEMENT_3D ( 'NONE', #148, #92, #117 ) ;
#32 = APPLICATION_CONTEXT ( 'automotive_design' ) ;
#33 =( GEOMETRIC_REPRESENTATION_CONTEXT ( 3 ) GLOBAL_UNCERTAINTY_ASSIGNED_CONTEXT ( ( #76 ) ) GLOBAL_UNIT_ASSIGNED_CONTEXT ( ( #189, #279, #168 ) ) REPRESENTATION_CONTEXT ( 'NONE', 'WORKASPACE' ) );
#34 = FILL_AREA_STYLE ('',( #62 ) ) ;
#35 = EDGE_CURVE ( 'NONE', #106, #240, #66, .T. ) ;
#36 = ADVANCED_FACE ( 'NONE', ( #90 ), #84, .T. ) ;
#37 = FILL_AREA_STYLE_COLOUR ( '', #340 ) ;
#38 = CARTESIAN_POINT ( 'NONE',  ( -1.038650980237742015E-17, 0.5012863583480339225, 0.000000000000000000 ) ) ;
#39 = FILL_AREA_STYLE ('',( #37 ) ) ;
#40 = DIRECTION ( 'NONE',  ( -1.000000000000000000, 0.000000000000000000, 0.000000000000000000 ) ) ;
#41 = PRESENTATION_STYLE_ASSIGNMENT (( #244 ) ) ;
#42 = FACE_OUTER_BOUND ( 'NONE', #341, .T. ) ;
#43 = ORIENTED_EDGE ( 'NONE', *, *, #150, .T. ) ;
#44 = AXIS2_PLACEMENT_3D ( 'NONE', #211, #348, #293 ) ;
#45 = ORIENTED_EDGE ( 'NONE', *, *, #309, .F. ) ;
#46 = DIRECTION ( 'NONE',  ( -2.543927709072191646E-17, 1.000000000000000000, -0.000000000000000000 ) ) ;
#47 = FACE_OUTER_BOUND ( 'NONE', #89, .T. ) ;
#48 = DIRECTION ( 'NONE',  ( 2.543927709072191337E-17, -1.000000000000000000, 0.000000000000000000 ) ) ;
#49 = PRESENTATION_STYLE_ASSIGNMENT (( #275 ) ) ;
#50 = SURFACE_SIDE_STYLE ('',( #330 ) ) ;
#51 = ORIENTED_EDGE ( 'NONE', *, *, #170, .T. ) ;
#52 = VECTOR ( 'NONE', #121, 39.37007874015748143 ) ;
#53 = DIRECTION ( 'NONE',  ( 0.000000000000000000, 0.000000000000000000, -1.000000000000000000 ) ) ;
#54 = VECTOR ( 'NONE', #298, 39.37007874015748143 ) ;
#55 = DIRECTION ( 'NONE',  ( -2.543927709072191337E-17, 1.000000000000000000, -0.000000000000000000 ) ) ;
#56 = STYLED_ITEM ( 'NONE', ( #233 ), #153 ) ;
#57 = DIRECTION ( 'NONE',  ( -1.000000000000000000, 0.000000000000000000, 0.000000000000000000 ) ) ;
#58 = EDGE_CURVE ( 'NONE', #154, #96, #249, .T. ) ;
#59 = PRODUCT_RELATED_PRODUCT_CATEGORY ( 'part', '', ( #265 ) ) ;
#60 = UNCERTAINTY_MEASURE_WITH_UNIT (LENGTH_MEASURE( 1.000000000000000082E-05 ), #263, 'distance_accuracy_value', 'NONE');
#61 = DIRECTION ( 'NONE',  ( -2.543927709072191646E-17, 1.000000000000000000, -0.000000000000000000 ) ) ;
#62 = FILL_AREA_STYLE_COLOUR ( '', #11 ) ;
#63 =( GEOMETRIC_REPRESENTATION_CONTEXT ( 3 ) GLOBAL_UNCERTAINTY_ASSIGNED_CONTEXT ( ( #60 ) ) GLOBAL_UNIT_ASSIGNED_CONTEXT ( ( #263, #204, #323 ) ) REPRESENTATION_CONTEXT ( 'NONE', 'WORKASPACE' ) );
#64 = SURFACE_STYLE_USAGE ( .BOTH. , #313 ) ;
#65 = ORIENTED_EDGE ( 'NONE', *, *, #359, .T. ) ;
#66 = LINE ( 'NONE', #177, #52 ) ;
#67 =( GEOMETRIC_REPRESENTATION_CONTEXT ( 3 ) GLOBAL_UNCERTAINTY_ASSIGNED_CONTEXT ( ( #227 ) ) GLOBAL_UNIT_ASSIGNED_CONTEXT ( ( #302, #77, #141 ) ) REPRESENTATION_CONTEXT ( 'NONE', 'WORKASPACE' ) );
#68 = EDGE_LOOP ( 'NONE', ( #190, #65, #294, #278 ) ) ;
#69 = DIRECTION ( 'NONE',  ( -2.543927709072191646E-17, 1.000000000000000000, -0.000000000000000000 ) ) ;
#70 = DIRECTION ( 'NONE',  ( -2.543927709072191646E-17, 1.000000000000000000, -0.000000000000000000 ) ) ;
#71 = CARTESIAN_POINT ( 'NONE',  ( 0.000000000000000000, 0.000000000000000000, 0.000000000000000000 ) ) ;
#72 = ORIENTED_EDGE ( 'NONE', *, *, #191, .F. ) ;
#73 = DIRECTION ( 'NONE',  ( 0.000000000000000000, -1.000000000000000000, -0.000000000000000000 ) ) ;
#74 = MECHANICAL_DESIGN_GEOMETRIC_PRESENTATION_REPRESENTATION (  '', ( #138 ), #67 ) ;
#75 =( NAMED_UNIT ( * ) PLANE_ANGLE_UNIT ( ) SI_UNIT ( $, .RADIAN. ) );
#76 = UNCERTAINTY_MEASURE_WITH_UNIT (LENGTH_MEASURE( 1.000000000000000082E-05 ), #189, 'distance_accuracy_value', 'NONE');
#77 =( NAMED_UNIT ( * ) PLANE_ANGLE_UNIT ( ) SI_UNIT ( $, .RADIAN. ) );
#78 = CIRCLE ( 'NONE', #94, 0.1250000000000000278 ) ;
#79 = CARTESIAN_POINT ( 'NONE',  ( -0.1250000000000001110, 2.500000000000000000, 0.000000000000000000 ) ) ;
#80 = AXIS2_PLACEMENT_3D ( 'NONE', #183, #241, #100 ) ;
#81 = DIRECTION ( 'NONE',  ( 0.2588190451025213501, 0.9659258262890682012, 3.169619151431772953E-17 ) ) ;
#82 = PRESENTATION_STYLE_ASSIGNMENT (( #64 ) ) ;
#83 = UNCERTAINTY_MEASURE_WITH_UNIT (LENGTH_MEASURE( 1.000000000000000082E-05 ), #5, 'distance_accuracy_value', 'NONE');
#84 = CONICAL_SURFACE ( 'NONE', #199, 0.01559999999999999928, 0.2617993877991500740 ) ;
#85 = ADVANCED_FACE ( 'NONE', ( #210 ), #184, .T. ) ;
#86 = DIMENSIONAL_EXPONENTS ( 1.000000000000000000, 0.000000000000000000, 0.000000000000000000, 0.000000000000000000, 0.000000000000000000, 0.000000000000000000, 0.000000000000000000 ) ;
#87 = COLOUR_RGB ( '',1.000000000000000000, 0.000000000000000000, 0.000000000000000000 ) ;
#88 = LENGTH_MEASURE_WITH_UNIT ( LENGTH_MEASURE( 0.02539999999999999897 ), #140 );
#89 = EDGE_LOOP ( 'NONE', ( #102, #316, #125, #347 ) ) ;
#90 = FACE_OUTER_BOUND ( 'NONE', #203, .T. ) ;
#91 = SURFACE_STYLE_USAGE ( .BOTH. , #175 ) ;
#92 = DIRECTION ( 'NONE',  ( -2.543927709072191646E-17, 1.000000000000000000, -0.000000000000000000 ) ) ;
#93 = FILL_AREA_STYLE ('',( #345 ) ) ;
#94 = AXIS2_PLACEMENT_3D ( 'NONE', #16, #300, #133 ) ;
#95 = COLOUR_RGB ( '',0.7921568627450980005, 0.8196078431372548767, 0.9333333333333333481 ) ;
#96 = VERTEX_POINT ( 'NONE', #297 ) ;
#97 = CYLINDRICAL_SURFACE ( 'NONE', #286, 0.1250000000000000278 ) ;
#98 =( NAMED_UNIT ( * ) PLANE_ANGLE_UNIT ( ) SI_UNIT ( $, .RADIAN. ) );
#99 = DIRECTION ( 'NONE',  ( -1.000000000000000000, 0.000000000000000000, 0.000000000000000000 ) ) ;
#100 = DIRECTION ( 'NONE',  ( -1.000000000000000000, 0.000000000000000000, 0.000000000000000000 ) ) ;
#101 = CARTESIAN_POINT ( 'NONE',  ( 0.000000000000000000, 0.000000000000000000, 0.000000000000000000 ) ) ;
#102 = ORIENTED_EDGE ( 'NONE', *, *, #170, .F. ) ;
#103 = DIRECTION ( 'NONE',  ( -2.543927709072191646E-17, 1.000000000000000000, -0.000000000000000000 ) ) ;
#104 = EDGE_LOOP ( 'NONE', ( #344, #329 ) ) ;
#105 = UNCERTAINTY_MEASURE_WITH_UNIT (LENGTH_MEASURE( 1.000000000000000082E-05 ), #13, 'distance_accuracy_value', 'NONE');
#106 = VERTEX_POINT ( 'NONE', #272 ) ;
#107 =( NAMED_UNIT ( * ) SI_UNIT ( $, .STERADIAN. ) SOLID_ANGLE_UNIT ( ) );
#108 = CARTESIAN_POINT ( 'NONE',  ( -0.01559999999999999928, 0.09299999999999980504, 0.000000000000000000 ) ) ;
#109 = CARTESIAN_POINT ( 'NONE',  ( 0.000000000000000000, 0.09299999999999992994, 0.000000000000000000 ) ) ;
#110 =( GEOMETRIC_REPRESENTATION_CONTEXT ( 3 ) GLOBAL_UNCERTAINTY_ASSIGNED_CONTEXT ( ( #135 ) ) GLOBAL_UNIT_ASSIGNED_CONTEXT ( ( #288, #130, #107 ) ) REPRESENTATION_CONTEXT ( 'NONE', 'WORKASPACE' ) );
#111 = CLOSED_SHELL ( 'NONE', ( #158, #276, #343, #114 ) ) ;
#112 = STYLED_ITEM ( 'NONE', ( #49 ), #343 ) ;
#113 = MECHANICAL_DESIGN_GEOMETRIC_PRESENTATION_REPRESENTATION (  '', ( #173 ), #110 ) ;
#114 = ADVANCED_FACE ( 'NONE', ( #116 ), #315, .T. ) ;
#115 = SURFACE_SIDE_STYLE ('',( #326 ) ) ;
#116 = FACE_OUTER_BOUND ( 'NONE', #104, .T. ) ;
#117 = DIRECTION ( 'NONE',  ( -1.000000000000000000, 0.000000000000000000, 0.000000000000000000 ) ) ;
#118 = DIMENSIONAL_EXPONENTS ( 1.000000000000000000, 0.000000000000000000, 0.000000000000000000, 0.000000000000000000, 0.000000000000000000, 0.000000000000000000, 0.000000000000000000 ) ;
#119 = DIRECTION ( 'NONE',  ( -0.000000000000000000, -1.000000000000000000, -0.000000000000000000 ) ) ;
#120 =( LENGTH_UNIT ( ) NAMED_UNIT ( * ) SI_UNIT ( $, .METRE. ) );
#121 = DIRECTION ( 'NONE',  ( -2.543927709072191337E-17, 1.000000000000000000, -0.000000000000000000 ) ) ;
#122 =( LENGTH_UNIT ( ) NAMED_UNIT ( * ) SI_UNIT ( $, .METRE. ) );
#123 = AXIS2_PLACEMENT_3D ( 'NONE', #139, #335, #179 ) ;
#124 = CIRCLE ( 'NONE', #230, 0.01559999999999999928 ) ;
#125 = ORIENTED_EDGE ( 'NONE', *, *, #309, .T. ) ;
#126 = LINE ( 'NONE', #290, #239 ) ;
#127 = SHAPE_DEFINITION_REPRESENTATION ( #243, #328 ) ;
#128 = PLANE ( 'NONE',  #311 ) ;
#129 = LINE ( 'NONE', #358, #20 ) ;
#130 =( NAMED_UNIT ( * ) PLANE_ANGLE_UNIT ( ) SI_UNIT ( $, .RADIAN. ) );
#131 =( GEOMETRIC_REPRESENTATION_CONTEXT ( 3 ) GLOBAL_UNCERTAINTY_ASSIGNED_CONTEXT ( ( #172 ) ) GLOBAL_UNIT_ASSIGNED_CONTEXT ( ( #156, #98, #270 ) ) REPRESENTATION_CONTEXT ( 'NONE', 'WORKASPACE' ) );
#132 = CARTESIAN_POINT ( 'NONE',  ( 0.000000000000000000, 0.09299999999999992994, 0.000000000000000000 ) ) ;
#133 = DIRECTION ( 'NONE',  ( -1.000000000000000000, 0.000000000000000000, 0.000000000000000000 ) ) ;
#134 = LINE ( 'NONE', #79, #254 ) ;
#135 = UNCERTAINTY_MEASURE_WITH_UNIT (LENGTH_MEASURE( 1.000000000000000082E-05 ), #288, 'distance_accuracy_value', 'NONE');
#136 = PRESENTATION_STYLE_ASSIGNMENT (( #282 ) ) ;
#137 = AXIS2_PLACEMENT_3D ( 'NONE', #232, #235, #160 ) ;
#138 = STYLED_ITEM ( 'NONE', ( #136 ), #276 ) ;
#139 = CARTESIAN_POINT ( 'NONE',  ( 0.000000000000000000, 0.000000000000000000, 0.000000000000000000 ) ) ;
#140 =( LENGTH_UNIT ( ) NAMED_UNIT ( * ) SI_UNIT ( $, .METRE. ) );
#141 =( NAMED_UNIT ( * ) SI_UNIT ( $, .STERADIAN. ) SOLID_ANGLE_UNIT ( ) );
#142 = CYLINDRICAL_SURFACE ( 'NONE', #44, 0.01559999999999999928 ) ;
#143 = CARTESIAN_POINT ( 'NONE',  ( 0.000000000000000000, 0.09299999999999992994, 0.000000000000000000 ) ) ;
#144 = DIMENSIONAL_EXPONENTS ( 1.000000000000000000, 0.000000000000000000, 0.000000000000000000, 0.000000000000000000, 0.000000000000000000, 0.000000000000000000, 0.000000000000000000 ) ;
#145 = FILL_AREA_STYLE ('',( #257 ) ) ;
#146 = ORIENTED_EDGE ( 'NONE', *, *, #191, .T. ) ;
#147 = VERTEX_POINT ( 'NONE', #307 ) ;
#148 = CARTESIAN_POINT ( 'NONE',  ( 0.000000000000000000, 0.09299999999999980504, 0.000000000000000000 ) ) ;
#149 = DIRECTION ( 'NONE',  ( -1.000000000000000000, 0.000000000000000000, 0.000000000000000000 ) ) ;
#150 = EDGE_CURVE ( 'NONE', #147, #324, #327, .T. ) ;
#151 = FACE_OUTER_BOUND ( 'NONE', #218, .T. ) ;
#152 = CARTESIAN_POINT ( 'NONE',  ( 1.910449006669871164E-18, 0.000000000000000000, 0.01559999999999999928 ) ) ;
#153 = MANIFOLD_SOLID_BREP ( 'Revolve - Cutting Edge', #111 ) ;
#154 = VERTEX_POINT ( 'NONE', #161 ) ;
#155 = LINE ( 'NONE', #152, #54 ) ;
#156 =( CONVERSION_BASED_UNIT ( 'INCH', #234 ) LENGTH_UNIT ( ) NAMED_UNIT ( #304 ) );
#157 = AXIS2_PLACEMENT_3D ( 'NONE', #143, #255, #9 ) ;
#158 = ADVANCED_FACE ( 'NONE', ( #321 ), #142, .T. ) ;
#159 = MECHANICAL_DESIGN_GEOMETRIC_PRESENTATION_REPRESENTATION (  '', ( #112 ), #33 ) ;
#160 = DIRECTION ( 'NONE',  ( -1.000000000000000000, 0.000000000000000000, 0.000000000000000000 ) ) ;
#161 = CARTESIAN_POINT ( 'NONE',  ( 1.910449006669871164E-18, 0.000000000000000000, 0.01559999999999999928 ) ) ;
#162 = DIRECTION ( 'NONE',  ( 1.000000000000000000, 0.000000000000000000, 0.000000000000000000 ) ) ;
#163 = SURFACE_SIDE_STYLE ('',( #301 ) ) ;
#164 = DIRECTION ( 'NONE',  ( 0.000000000000000000, 0.000000000000000000, -1.000000000000000000 ) ) ;
#165 = STYLED_ITEM ( 'NONE', ( #41 ), #114 ) ;
#166 = CIRCLE ( 'NONE', #7, 0.1250000000000000555 ) ;
#167 = DIRECTION ( 'NONE',  ( -0.000000000000000000, -1.000000000000000000, -0.000000000000000000 ) ) ;
#168 =( NAMED_UNIT ( * ) SI_UNIT ( $, .STERADIAN. ) SOLID_ANGLE_UNIT ( ) );
#169 = FILL_AREA_STYLE_COLOUR ( '', #332 ) ;
#170 = EDGE_CURVE ( 'NONE', #261, #154, #155, .T. ) ;
#171 = AXIS2_PLACEMENT_3D ( 'NONE', #198, #61, #57 ) ;
#172 = UNCERTAINTY_MEASURE_WITH_UNIT (LENGTH_MEASURE( 1.000000000000000082E-05 ), #156, 'distance_accuracy_value', 'NONE');
#173 = STYLED_ITEM ( 'NONE', ( #82 ), #277 ) ;
#174 = ORIENTED_EDGE ( 'NONE', *, *, #308, .F. ) ;
#175 = SURFACE_SIDE_STYLE ('',( #10 ) ) ;
#176 = EDGE_CURVE ( 'NONE', #324, #262, #126, .T. ) ;
#177 = CARTESIAN_POINT ( 'NONE',  ( 0.1249999999999999584, 2.500000000000000000, 1.530808498934191817E-17 ) ) ;
#178 = CONICAL_SURFACE ( 'NONE', #31, 0.01559999999999999928, 0.2617993877991500740 ) ;
#179 = DIRECTION ( 'NONE',  ( 0.000000000000000000, 0.000000000000000000, -1.000000000000000000 ) ) ;
#180 = ORIENTED_EDGE ( 'NONE', *, *, #337, .T. ) ;
#181 = SURFACE_SIDE_STYLE ('',( #354 ) ) ;
#182 = ORIENTED_EDGE ( 'NONE', *, *, #245, .T. ) ;
#183 = CARTESIAN_POINT ( 'NONE',  ( 0.000000000000000000, 0.09299999999999980504, 0.000000000000000000 ) ) ;
#184 = CYLINDRICAL_SURFACE ( 'NONE', #137, 0.1250000000000000278 ) ;
#185 = AXIS2_PLACEMENT_3D ( 'NONE', #38, #46, #40 ) ;
#186 = ORIENTED_EDGE ( 'NONE', *, *, #176, .T. ) ;
#187 = PRESENTATION_LAYER_ASSIGNMENT (  '', '', ( #165 ) ) ;
#188 = LENGTH_MEASURE_WITH_UNIT ( LENGTH_MEASURE( 0.02539999999999999897 ), #2 );
#189 =( CONVERSION_BASED_UNIT ( 'INCH', #216 ) LENGTH_UNIT ( ) NAMED_UNIT ( #8 ) );
#190 = ORIENTED_EDGE ( 'NONE', *, *, #35, .F. ) ;
#191 = EDGE_CURVE ( 'NONE', #262, #106, #339, .T. ) ;
#192 = CARTESIAN_POINT ( 'NONE',  ( 0.01559999999999999928, 0.09299999999999980504, 1.910449006669871164E-18 ) ) ;
#193 = ADVANCED_FACE ( 'NONE', ( #19 ), #97, .T. ) ;
#194 = CARTESIAN_POINT ( 'NONE',  ( 0.1250000000000000278, 2.500000000000000000, 1.530808498934192125E-17 ) ) ;
#195 = STYLED_ITEM ( 'NONE', ( #317 ), #158 ) ;
#196 = CARTESIAN_POINT ( 'NONE',  ( 0.000000000000000000, 0.09299999999999992994, -0.01559999999999999928 ) ) ;
#197 = AXIS2_PLACEMENT_3D ( 'NONE', #350, #322, #295 ) ;
#198 = CARTESIAN_POINT ( 'NONE',  ( 0.000000000000000000, 0.09299999999999980504, 0.000000000000000000 ) ) ;
#199 = AXIS2_PLACEMENT_3D ( 'NONE', #267, #69, #99 ) ;
#200 = CIRCLE ( 'NONE', #80, 0.01559999999999999928 ) ;
#201 = ORIENTED_EDGE ( 'NONE', *, *, #245, .F. ) ;
#202 = EDGE_CURVE ( 'NONE', #324, #147, #200, .T. ) ;
#203 = EDGE_LOOP ( 'NONE', ( #215, #18, #72, #303 ) ) ;
#204 =( NAMED_UNIT ( * ) PLANE_ANGLE_UNIT ( ) SI_UNIT ( $, .RADIAN. ) );
#205 = EDGE_LOOP ( 'NONE', ( #259, #51, #174, #45 ) ) ;
#206 = LENGTH_MEASURE_WITH_UNIT ( LENGTH_MEASURE( 0.02539999999999999897 ), #273 );
#207 = MECHANICAL_DESIGN_GEOMETRIC_PRESENTATION_REPRESENTATION (  '', ( #195 ), #299 ) ;
#208 = EDGE_LOOP ( 'NONE', ( #342, #349 ) ) ;
#209 = CARTESIAN_POINT ( 'NONE',  ( -6.123233995736766036E-17, 2.500000000000000000, 0.000000000000000000 ) ) ;
#210 = FACE_OUTER_BOUND ( 'NONE', #258, .T. ) ;
#211 = CARTESIAN_POINT ( 'NONE',  ( 0.000000000000000000, 0.000000000000000000, 0.000000000000000000 ) ) ;
#212 =( NAMED_UNIT ( * ) SI_UNIT ( $, .STERADIAN. ) SOLID_ANGLE_UNIT ( ) );
#213 = ORIENTED_EDGE ( 'NONE', *, *, #334, .F. ) ;
#214 = FILL_AREA_STYLE ('',( #25 ) ) ;
#215 = ORIENTED_EDGE ( 'NONE', *, *, #202, .T. ) ;
#216 = LENGTH_MEASURE_WITH_UNIT ( LENGTH_MEASURE( 0.02539999999999999897 ), #356 );
#217 = ADVANCED_FACE ( 'NONE', ( #21 ), #128, .F. ) ;
#218 = EDGE_LOOP ( 'NONE', ( #236, #14 ) ) ;
#219 = CARTESIAN_POINT ( 'NONE',  ( -6.123233995736766036E-17, 2.500000000000000000, 0.000000000000000000 ) ) ;
#220 = DIRECTION ( 'NONE',  ( -1.000000000000000000, 0.000000000000000000, 0.000000000000000000 ) ) ;
#221 = DIRECTION ( 'NONE',  ( -2.543927709072191646E-17, 1.000000000000000000, -0.000000000000000000 ) ) ;
#222 = AXIS2_PLACEMENT_3D ( 'NONE', #132, #26, #164 ) ;
#223 =( LENGTH_UNIT ( ) NAMED_UNIT ( * ) SI_UNIT ( $, .METRE. ) );
#224 = CIRCLE ( 'NONE', #222, 0.01559999999999999928 ) ;
#225 = DIRECTION ( 'NONE',  ( 1.000000000000000000, 2.543927709072191337E-17, 0.000000000000000000 ) ) ;
#226 = FILL_AREA_STYLE ('',( #169 ) ) ;
#227 = UNCERTAINTY_MEASURE_WITH_UNIT (LENGTH_MEASURE( 1.000000000000000082E-05 ), #302, 'distance_accuracy_value', 'NONE');
#228 = PRESENTATION_LAYER_ASSIGNMENT (  '', '', ( #56 ) ) ;
#229 = SURFACE_STYLE_FILL_AREA ( #145 ) ;
#230 = AXIS2_PLACEMENT_3D ( 'NONE', #109, #167, #246 ) ;
#231 = ORIENTED_EDGE ( 'NONE', *, *, #274, .F. ) ;
#232 = CARTESIAN_POINT ( 'NONE',  ( -6.123233995736766036E-17, 2.500000000000000000, 0.000000000000000000 ) ) ;
#233 = PRESENTATION_STYLE_ASSIGNMENT (( #91 ) ) ;
#234 = LENGTH_MEASURE_WITH_UNIT ( LENGTH_MEASURE( 0.02539999999999999897 ), #122 );
#235 = DIRECTION ( 'NONE',  ( -2.543927709072191646E-17, 1.000000000000000000, -0.000000000000000000 ) ) ;
#236 = ORIENTED_EDGE ( 'NONE', *, *, #202, .F. ) ;
#237 = SURFACE_STYLE_USAGE ( .BOTH. , #181 ) ;
#238 = CLOSED_SHELL ( 'NONE', ( #85, #36, #23, #4, #193, #217 ) ) ;
#239 = VECTOR ( 'NONE', #268, 39.37007874015747433 ) ;
#240 = VERTEX_POINT ( 'NONE', #194 ) ;
#241 = DIRECTION ( 'NONE',  ( -2.543927709072191646E-17, 1.000000000000000000, -0.000000000000000000 ) ) ;
#242 = VERTEX_POINT ( 'NONE', #333 ) ;
#243 = PRODUCT_DEFINITION_SHAPE ( 'NONE', 'NONE',  #264 ) ;
#244 = SURFACE_STYLE_USAGE ( .BOTH. , #115 ) ;
#245 = EDGE_CURVE ( 'NONE', #242, #240, #266, .T. ) ;
#246 = DIRECTION ( 'NONE',  ( 0.000000000000000000, 0.000000000000000000, -1.000000000000000000 ) ) ;
#247 = EDGE_CURVE ( 'NONE', #248, #261, #224, .T. ) ;
#248 = VERTEX_POINT ( 'NONE', #196 ) ;
#249 = CIRCLE ( 'NONE', #312, 0.01559999999999999928 ) ;
#250 = DIRECTION ( 'NONE',  ( 0.000000000000000000, 0.000000000000000000, -1.000000000000000000 ) ) ;
#251 = FACE_OUTER_BOUND ( 'NONE', #208, .T. ) ;
#252 = EDGE_CURVE ( 'NONE', #261, #248, #124, .T. ) ;
#253 = LENGTH_MEASURE_WITH_UNIT ( LENGTH_MEASURE( 0.02539999999999999897 ), #223 );
#254 = VECTOR ( 'NONE', #55, 39.37007874015748143 ) ;
#255 = DIRECTION ( 'NONE',  ( 0.000000000000000000, 1.000000000000000000, 0.000000000000000000 ) ) ;
#256 = APPLICATION_PROTOCOL_DEFINITION ( 'draft international standard', 'automotive_design', 1998, #32 ) ;
#257 = FILL_AREA_STYLE_COLOUR ( '', #95 ) ;
#258 = EDGE_LOOP ( 'NONE', ( #146, #319, #201, #231 ) ) ;
#259 = ORIENTED_EDGE ( 'NONE', *, *, #247, .T. ) ;
#260 =( NAMED_UNIT ( * ) SI_UNIT ( $, .STERADIAN. ) SOLID_ANGLE_UNIT ( ) );
#261 = VERTEX_POINT ( 'NONE', #331 ) ;
#262 = VERTEX_POINT ( 'NONE', #28 ) ;
#263 =( CONVERSION_BASED_UNIT ( 'INCH', #351 ) LENGTH_UNIT ( ) NAMED_UNIT ( #284 ) );
#264 = PRODUCT_DEFINITION ( 'UNKNOWN', '', #291, #283 ) ;
#265 = PRODUCT ( '84081', '84081', '', ( #269 ) ) ;
#266 = CIRCLE ( 'NONE', #29, 0.1250000000000000555 ) ;
#267 = CARTESIAN_POINT ( 'NONE',  ( 0.000000000000000000, 0.09299999999999980504, 0.000000000000000000 ) ) ;
#268 = DIRECTION ( 'NONE',  ( -0.2588190451025213501, 0.9659258262890682012, 0.000000000000000000 ) ) ;
#269 = PRODUCT_CONTEXT ( 'NONE', #338, 'mechanical' ) ;
#270 =( NAMED_UNIT ( * ) SI_UNIT ( $, .STERADIAN. ) SOLID_ANGLE_UNIT ( ) );
#271 = COLOUR_RGB ( '',1.000000000000000000, 0.000000000000000000, 0.000000000000000000 ) ;
#272 = CARTESIAN_POINT ( 'NONE',  ( 0.1250000000000000000, 0.5012863583480339225, 1.530808498934191509E-17 ) ) ;
#273 =( LENGTH_UNIT ( ) NAMED_UNIT ( * ) SI_UNIT ( $, .METRE. ) );
#274 = EDGE_CURVE ( 'NONE', #262, #242, #134, .T. ) ;
#275 = SURFACE_STYLE_USAGE ( .BOTH. , #163 ) ;
#276 = ADVANCED_FACE ( 'NONE', ( #251 ), #1, .T. ) ;
#277 = MANIFOLD_SOLID_BREP ( 'Revolve - Tool Body (Reduced Cut Diameter)', #238 ) ;
#278 = ORIENTED_EDGE ( 'NONE', *, *, #337, .F. ) ;
#279 =( NAMED_UNIT ( * ) PLANE_ANGLE_UNIT ( ) SI_UNIT ( $, .RADIAN. ) );
#280 = PRESENTATION_LAYER_ASSIGNMENT (  '', '', ( #173 ) ) ;
#281 = DIRECTION ( 'NONE',  ( -0.000000000000000000, -1.000000000000000000, -0.000000000000000000 ) ) ;
#282 = SURFACE_STYLE_USAGE ( .BOTH. , #50 ) ;
#283 = PRODUCT_DEFINITION_CONTEXT ( 'detailed design', #32, 'design' ) ;
#284 = DIMENSIONAL_EXPONENTS ( 1.000000000000000000, 0.000000000000000000, 0.000000000000000000, 0.000000000000000000, 0.000000000000000000, 0.000000000000000000, 0.000000000000000000 ) ;
#285 = PRESENTATION_LAYER_ASSIGNMENT (  '', '', ( #138 ) ) ;
#286 = AXIS2_PLACEMENT_3D ( 'NONE', #209, #70, #149 ) ;
#287 = DIMENSIONAL_EXPONENTS ( 1.000000000000000000, 0.000000000000000000, 0.000000000000000000, 0.000000000000000000, 0.000000000000000000, 0.000000000000000000, 0.000000000000000000 ) ;
#288 =( CONVERSION_BASED_UNIT ( 'INCH', #88 ) LENGTH_UNIT ( ) NAMED_UNIT ( #144 ) );
#289 = EDGE_LOOP ( 'NONE', ( #182, #180 ) ) ;
#290 = CARTESIAN_POINT ( 'NONE',  ( -0.01559999999999999928, 0.09299999999999980504, 0.000000000000000000 ) ) ;
#291 = PRODUCT_DEFINITION_FORMATION_WITH_SPECIFIED_SOURCE ( 'ANY', '', #265, .NOT_KNOWN. ) ;
#292 = CARTESIAN_POINT ( 'NONE',  ( 0.000000000000000000, 0.000000000000000000, 0.000000000000000000 ) ) ;
#293 = DIRECTION ( 'NONE',  ( 0.000000000000000000, 0.000000000000000000, -1.000000000000000000 ) ) ;
#294 = ORIENTED_EDGE ( 'NONE', *, *, #274, .T. ) ;
#295 = DIRECTION ( 'NONE',  ( -1.000000000000000000, -2.543927709072191337E-17, 0.000000000000000000 ) ) ;
#296 = PRESENTATION_LAYER_ASSIGNMENT (  '', '', ( #195 ) ) ;
#297 = CARTESIAN_POINT ( 'NONE',  ( 0.000000000000000000, 0.000000000000000000, -0.01559999999999999928 ) ) ;
#298 = DIRECTION ( 'NONE',  ( -0.000000000000000000, -1.000000000000000000, -0.000000000000000000 ) ) ;
#299 =( GEOMETRIC_REPRESENTATION_CONTEXT ( 3 ) GLOBAL_UNCERTAINTY_ASSIGNED_CONTEXT ( ( #105 ) ) GLOBAL_UNIT_ASSIGNED_CONTEXT ( ( #13, #75, #260 ) ) REPRESENTATION_CONTEXT ( 'NONE', 'WORKASPACE' ) );
#300 = DIRECTION ( 'NONE',  ( -2.543927709072191646E-17, 1.000000000000000000, -0.000000000000000000 ) ) ;
#301 = SURFACE_STYLE_FILL_AREA ( #214 ) ;
#302 =( CONVERSION_BASED_UNIT ( 'INCH', #188 ) LENGTH_UNIT ( ) NAMED_UNIT ( #287 ) );
#303 = ORIENTED_EDGE ( 'NONE', *, *, #176, .F. ) ;
#304 = DIMENSIONAL_EXPONENTS ( 1.000000000000000000, 0.000000000000000000, 0.000000000000000000, 0.000000000000000000, 0.000000000000000000, 0.000000000000000000, 0.000000000000000000 ) ;
#305 = CYLINDRICAL_SURFACE ( 'NONE', #123, 0.01559999999999999928 ) ;
#306 = CARTESIAN_POINT ( 'NONE',  ( 0.1250000000000000000, 2.500000000000000000, 0.000000000000000000 ) ) ;
#307 = CARTESIAN_POINT ( 'NONE',  ( 0.01559999999999999928, 0.09299999999999980504, 8.609266998005893705E-18 ) ) ;
#308 = EDGE_CURVE ( 'NONE', #96, #154, #320, .T. ) ;
#309 = EDGE_CURVE ( 'NONE', #248, #96, #129, .T. ) ;
#310 = DIRECTION ( 'NONE',  ( 0.000000000000000000, 0.000000000000000000, 1.000000000000000000 ) ) ;
#311 = AXIS2_PLACEMENT_3D ( 'NONE', #306, #48, #225 ) ;
#312 = AXIS2_PLACEMENT_3D ( 'NONE', #292, #119, #12 ) ;
#313 = SURFACE_SIDE_STYLE ('',( #229 ) ) ;
#314 = PRESENTATION_LAYER_ASSIGNMENT (  '', '', ( #112 ) ) ;
#315 = PLANE ( 'NONE',  #24 ) ;
#316 = ORIENTED_EDGE ( 'NONE', *, *, #252, .T. ) ;
#317 = PRESENTATION_STYLE_ASSIGNMENT (( #237 ) ) ;
#318 = AXIS2_PLACEMENT_3D ( 'NONE', #71, #310, #162 ) ;
#319 = ORIENTED_EDGE ( 'NONE', *, *, #35, .T. ) ;
#320 = CIRCLE ( 'NONE', #346, 0.01559999999999999928 ) ;
#321 = FACE_OUTER_BOUND ( 'NONE', #205, .T. ) ;
#322 = DIRECTION ( 'NONE',  ( -2.543927709072191337E-17, 1.000000000000000000, 0.000000000000000000 ) ) ;
#323 =( NAMED_UNIT ( * ) SI_UNIT ( $, .STERADIAN. ) SOLID_ANGLE_UNIT ( ) );
#324 = VERTEX_POINT ( 'NONE', #108 ) ;
#325 = DIRECTION ( 'NONE',  ( -0.000000000000000000, -1.000000000000000000, -0.000000000000000000 ) ) ;
#326 = SURFACE_STYLE_FILL_AREA ( #39 ) ;
#327 = CIRCLE ( 'NONE', #171, 0.01559999999999999928 ) ;
#328 = ADVANCED_BREP_SHAPE_REPRESENTATION ( '84081', ( #153, #277, #318 ), #30 ) ;
#329 = ORIENTED_EDGE ( 'NONE', *, *, #58, .T. ) ;
#330 = SURFACE_STYLE_FILL_AREA ( #226 ) ;
#331 = CARTESIAN_POINT ( 'NONE',  ( 1.910449006669871164E-18, 0.09299999999999992994, 0.01559999999999999928 ) ) ;
#332 = COLOUR_RGB ( '',1.000000000000000000, 0.000000000000000000, 0.000000000000000000 ) ;
#333 = CARTESIAN_POINT ( 'NONE',  ( -0.1250000000000001388, 2.500000000000000000, 0.000000000000000000 ) ) ;
#334 = EDGE_CURVE ( 'NONE', #147, #106, #27, .T. ) ;
#335 = DIRECTION ( 'NONE',  ( -0.000000000000000000, -1.000000000000000000, -0.000000000000000000 ) ) ;
#336 =( NAMED_UNIT ( * ) PLANE_ANGLE_UNIT ( ) SI_UNIT ( $, .RADIAN. ) );
#337 = EDGE_CURVE ( 'NONE', #240, #242, #166, .T. ) ;
#338 = APPLICATION_CONTEXT ( 'automotive_design' ) ;
#339 = CIRCLE ( 'NONE', #185, 0.1250000000000000278 ) ;
#340 = COLOUR_RGB ( '',1.000000000000000000, 0.000000000000000000, 0.000000000000000000 ) ;
#341 = EDGE_LOOP ( 'NONE', ( #213, #43, #186, #352 ) ) ;
#342 = ORIENTED_EDGE ( 'NONE', *, *, #247, .F. ) ;
#343 = ADVANCED_FACE ( 'NONE', ( #47 ), #305, .T. ) ;
#344 = ORIENTED_EDGE ( 'NONE', *, *, #308, .T. ) ;
#345 = FILL_AREA_STYLE_COLOUR ( '', #87 ) ;
#346 = AXIS2_PLACEMENT_3D ( 'NONE', #3, #325, #250 ) ;
#347 = ORIENTED_EDGE ( 'NONE', *, *, #58, .F. ) ;
#348 = DIRECTION ( 'NONE',  ( -0.000000000000000000, -1.000000000000000000, -0.000000000000000000 ) ) ;
#349 = ORIENTED_EDGE ( 'NONE', *, *, #252, .F. ) ;
#350 = CARTESIAN_POINT ( 'NONE',  ( 5.047823187408524696E-36, 0.09299999999999992994, 0.000000000000000000 ) ) ;
#351 = LENGTH_MEASURE_WITH_UNIT ( LENGTH_MEASURE( 0.02539999999999999897 ), #120 );
#352 = ORIENTED_EDGE ( 'NONE', *, *, #359, .F. ) ;
#353 = CARTESIAN_POINT ( 'NONE',  ( -6.123233995736766036E-17, 2.500000000000000000, 0.000000000000000000 ) ) ;
#354 = SURFACE_STYLE_FILL_AREA ( #93 ) ;
#355 = APPLICATION_PROTOCOL_DEFINITION ( 'draft international standard', 'automotive_design', 1998, #338 ) ;
#356 =( LENGTH_UNIT ( ) NAMED_UNIT ( * ) SI_UNIT ( $, .METRE. ) );
#357 = DIRECTION ( 'NONE',  ( -1.000000000000000000, 0.000000000000000000, 0.000000000000000000 ) ) ;
#358 = CARTESIAN_POINT ( 'NONE',  ( 0.000000000000000000, 0.000000000000000000, -0.01559999999999999928 ) ) ;
#359 = EDGE_CURVE ( 'NONE', #106, #262, #78, .T. ) ;
ENDSEC;
END-ISO-10303-21;
