ISO-10303-21;
HEADER;
FILE_DESCRIPTION (( 'STEP AP214' ),
    '1' );
FILE_NAME ('59906.STEP',
    '2023-06-22T23:53:27',
    ( '' ),
    ( '' ),
    'SwSTEP 2.0',
    'SolidWorks 2023',
    '' );
FILE_SCHEMA (( 'AUTOMOTIVE_DESIGN' ));
ENDSEC;

DATA;
#1 = ADVANCED_FACE ( 'NONE', ( #62 ), #155, .T. ) ;
#2 = LENGTH_MEASURE_WITH_UNIT ( LENGTH_MEASURE( 0.02539999999999999897 ), #215 );
#3 =( CONVERSION_BASED_UNIT ( 'INCH', #47 ) LENGTH_UNIT ( ) NAMED_UNIT ( #304 ) );
#4 = UNCERTAINTY_MEASURE_WITH_UNIT (LENGTH_MEASURE( 1.000000000000000082E-05 ), #132, 'distance_accuracy_value', 'NONE');
#5 = FILL_AREA_STYLE ('',( #24 ) ) ;
#6 = PRESENTATION_STYLE_ASSIGNMENT (( #25 ) ) ;
#7 = SURFACE_STYLE_USAGE ( .BOTH. , #125 ) ;
#8 = PRESENTATION_STYLE_ASSIGNMENT (( #222 ) ) ;
#9 = EDGE_LOOP ( 'NONE', ( #292, #83 ) ) ;
#10 = ORIENTED_EDGE ( 'NONE', *, *, #210, .F. ) ;
#11 = AXIS2_PLACEMENT_3D ( 'NONE', #299, #251, #53 ) ;
#12 = ORIENTED_EDGE ( 'NONE', *, *, #143, .F. ) ;
#13 = CARTESIAN_POINT ( 'NONE',  ( 3.032960542342103792E-32, 1.000000000000000000, 0.000000000000000000 ) ) ;
#14 = LENGTH_MEASURE_WITH_UNIT ( LENGTH_MEASURE( 0.02539999999999999897 ), #298 );
#15 = CARTESIAN_POINT ( 'NONE',  ( 3.032960542342103792E-32, 1.000000000000000000, 0.000000000000000000 ) ) ;
#16 = MECHANICAL_DESIGN_GEOMETRIC_PRESENTATION_REPRESENTATION (  '', ( #146 ), #170 ) ;
#17 = DIRECTION ( 'NONE',  ( 0.000000000000000000, 0.000000000000000000, -1.000000000000000000 ) ) ;
#18 = DIRECTION ( 'NONE',  ( 1.000000000000000000, 6.123233995736769734E-17, 0.000000000000000000 ) ) ;
#19 = CARTESIAN_POINT ( 'NONE',  ( 0.000000000000000000, 0.000000000000000000, 0.000000000000000000 ) ) ;
#20 = EDGE_CURVE ( 'NONE', #61, #200, #256, .T. ) ;
#21 = AXIS2_PLACEMENT_3D ( 'NONE', #280, #214, #217 ) ;
#22 = DIMENSIONAL_EXPONENTS ( 1.000000000000000000, 0.000000000000000000, 0.000000000000000000, 0.000000000000000000, 0.000000000000000000, 0.000000000000000000, 0.000000000000000000 ) ;
#23 = CYLINDRICAL_SURFACE ( 'NONE', #286, 0.1875000000000000833 ) ;
#24 = FILL_AREA_STYLE_COLOUR ( '', #307 ) ;
#25 = SURFACE_STYLE_USAGE ( .BOTH. , #144 ) ;
#26 = DIMENSIONAL_EXPONENTS ( 1.000000000000000000, 0.000000000000000000, 0.000000000000000000, 0.000000000000000000, 0.000000000000000000, 0.000000000000000000, 0.000000000000000000 ) ;
#27 = DIRECTION ( 'NONE',  ( -1.000000000000000000, 0.000000000000000000, 0.000000000000000000 ) ) ;
#28 = DIRECTION ( 'NONE',  ( -1.000000000000000000, 0.000000000000000000, 0.000000000000000000 ) ) ;
#29 = PRODUCT_DEFINITION ( 'UNKNOWN', '', #190, #51 ) ;
#30 = SURFACE_SIDE_STYLE ('',( #171 ) ) ;
#31 = PRESENTATION_STYLE_ASSIGNMENT (( #149 ) ) ;
#32 = CIRCLE ( 'NONE', #216, 0.1875000000000000278 ) ;
#33 = PRESENTATION_LAYER_ASSIGNMENT (  '', '', ( #261 ) ) ;
#34 = PRODUCT_RELATED_PRODUCT_CATEGORY ( 'part', '', ( #153 ) ) ;
#35 = LENGTH_MEASURE_WITH_UNIT ( LENGTH_MEASURE( 0.02539999999999999897 ), #52 );
#36 = ORIENTED_EDGE ( 'NONE', *, *, #64, .F. ) ;
#37 = ORIENTED_EDGE ( 'NONE', *, *, #107, .T. ) ;
#38 = ORIENTED_EDGE ( 'NONE', *, *, #218, .T. ) ;
#39 = PRESENTATION_LAYER_ASSIGNMENT (  '', '', ( #189 ) ) ;
#40 = DIRECTION ( 'NONE',  ( -0.000000000000000000, -1.000000000000000000, -0.000000000000000000 ) ) ;
#41 = LINE ( 'NONE', #257, #115 ) ;
#42 = DIRECTION ( 'NONE',  ( 0.000000000000000000, 0.000000000000000000, -1.000000000000000000 ) ) ;
#43 = SURFACE_SIDE_STYLE ('',( #185 ) ) ;
#44 = CARTESIAN_POINT ( 'NONE',  ( 2.296212748401287726E-17, 1.000000000000000000, 0.1875000000000000278 ) ) ;
#45 = DIMENSIONAL_EXPONENTS ( 1.000000000000000000, 0.000000000000000000, 0.000000000000000000, 0.000000000000000000, 0.000000000000000000, 0.000000000000000000, 0.000000000000000000 ) ;
#46 = CARTESIAN_POINT ( 'NONE',  ( 0.000000000000000000, 0.000000000000000000, 0.000000000000000000 ) ) ;
#47 = LENGTH_MEASURE_WITH_UNIT ( LENGTH_MEASURE( 0.02539999999999999897 ), #309 );
#48 =( GEOMETRIC_REPRESENTATION_CONTEXT ( 3 ) GLOBAL_UNCERTAINTY_ASSIGNED_CONTEXT ( ( #136 ) ) GLOBAL_UNIT_ASSIGNED_CONTEXT ( ( #244, #117, #245 ) ) REPRESENTATION_CONTEXT ( 'NONE', 'WORKASPACE' ) );
#49 = CYLINDRICAL_SURFACE ( 'NONE', #71, 0.1875000000000000278 ) ;
#50 = DIRECTION ( 'NONE',  ( -1.000000000000000000, -6.123233995736769734E-17, 0.000000000000000000 ) ) ;
#51 = PRODUCT_DEFINITION_CONTEXT ( 'detailed design', #268, 'design' ) ;
#52 =( LENGTH_UNIT ( ) NAMED_UNIT ( * ) SI_UNIT ( $, .METRE. ) );
#53 = DIRECTION ( 'NONE',  ( 0.000000000000000000, 0.000000000000000000, -1.000000000000000000 ) ) ;
#54 = APPLICATION_CONTEXT ( 'automotive_design' ) ;
#55 = EDGE_CURVE ( 'NONE', #270, #296, #41, .T. ) ;
#56 = CYLINDRICAL_SURFACE ( 'NONE', #75, 0.1875000000000000278 ) ;
#57 = SURFACE_SIDE_STYLE ('',( #78 ) ) ;
#58 =( LENGTH_UNIT ( ) NAMED_UNIT ( * ) SI_UNIT ( $, .METRE. ) );
#59 = EDGE_LOOP ( 'NONE', ( #104, #129 ) ) ;
#60 = AXIS2_PLACEMENT_3D ( 'NONE', #46, #40, #138 ) ;
#61 = VERTEX_POINT ( 'NONE', #44 ) ;
#62 = FACE_OUTER_BOUND ( 'NONE', #59, .T. ) ;
#63 = PRESENTATION_STYLE_ASSIGNMENT (( #7 ) ) ;
#64 = EDGE_CURVE ( 'NONE', #296, #200, #274, .T. ) ;
#65 = DIRECTION ( 'NONE',  ( -0.000000000000000000, -1.000000000000000000, -0.000000000000000000 ) ) ;
#66 = DIRECTION ( 'NONE',  ( 0.000000000000000000, -1.000000000000000000, -0.000000000000000000 ) ) ;
#67 = MECHANICAL_DESIGN_GEOMETRIC_PRESENTATION_REPRESENTATION (  '', ( #106 ), #48 ) ;
#68 = DIRECTION ( 'NONE',  ( -6.123233995736769734E-17, 1.000000000000000000, -0.000000000000000000 ) ) ;
#69 = CARTESIAN_POINT ( 'NONE',  ( 0.000000000000000000, 0.000000000000000000, -0.1875000000000000278 ) ) ;
#70 = APPLICATION_PROTOCOL_DEFINITION ( 'draft international standard', 'automotive_design', 1998, #54 ) ;
#71 = AXIS2_PLACEMENT_3D ( 'NONE', #134, #109, #195 ) ;
#72 = CARTESIAN_POINT ( 'NONE',  ( 0.000000000000000000, 1.000000000000000000, 0.000000000000000000 ) ) ;
#73 = DIRECTION ( 'NONE',  ( -6.123233995736769734E-17, 1.000000000000000000, -0.000000000000000000 ) ) ;
#74 =( NAMED_UNIT ( * ) PLANE_ANGLE_UNIT ( ) SI_UNIT ( $, .RADIAN. ) );
#75 = AXIS2_PLACEMENT_3D ( 'NONE', #202, #203, #42 ) ;
#76 = ADVANCED_FACE ( 'NONE', ( #160 ), #279, .F. ) ;
#77 = AXIS2_PLACEMENT_3D ( 'NONE', #235, #133, #18 ) ;
#78 = SURFACE_STYLE_FILL_AREA ( #220 ) ;
#79 = SURFACE_STYLE_FILL_AREA ( #289 ) ;
#80 = ORIENTED_EDGE ( 'NONE', *, *, #143, .T. ) ;
#81 = ORIENTED_EDGE ( 'NONE', *, *, #86, .F. ) ;
#82 = EDGE_LOOP ( 'NONE', ( #38, #37 ) ) ;
#83 = ORIENTED_EDGE ( 'NONE', *, *, #295, .F. ) ;
#84 =( NAMED_UNIT ( * ) SI_UNIT ( $, .STERADIAN. ) SOLID_ANGLE_UNIT ( ) );
#85 = FILL_AREA_STYLE ('',( #211 ) ) ;
#86 = EDGE_CURVE ( 'NONE', #196, #224, #237, .T. ) ;
#87 =( GEOMETRIC_REPRESENTATION_CONTEXT ( 3 ) GLOBAL_UNCERTAINTY_ASSIGNED_CONTEXT ( ( #4 ) ) GLOBAL_UNIT_ASSIGNED_CONTEXT ( ( #132, #74, #159 ) ) REPRESENTATION_CONTEXT ( 'NONE', 'WORKASPACE' ) );
#88 = DIRECTION ( 'NONE',  ( -6.123233995736769734E-17, 1.000000000000000000, -0.000000000000000000 ) ) ;
#89 = UNCERTAINTY_MEASURE_WITH_UNIT (LENGTH_MEASURE( 1.000000000000000082E-05 ), #3, 'distance_accuracy_value', 'NONE');
#90 =( NAMED_UNIT ( * ) SI_UNIT ( $, .STERADIAN. ) SOLID_ANGLE_UNIT ( ) );
#91 = STYLED_ITEM ( 'NONE', ( #8 ), #294 ) ;
#92 =( NAMED_UNIT ( * ) PLANE_ANGLE_UNIT ( ) SI_UNIT ( $, .RADIAN. ) );
#93 = DIRECTION ( 'NONE',  ( 0.000000000000000000, 0.000000000000000000, 1.000000000000000000 ) ) ;
#94 = CARTESIAN_POINT ( 'NONE',  ( 2.296212748401287726E-17, 0.000000000000000000, 0.1875000000000000278 ) ) ;
#95 =( NAMED_UNIT ( * ) PLANE_ANGLE_UNIT ( ) SI_UNIT ( $, .RADIAN. ) );
#96 = SURFACE_STYLE_FILL_AREA ( #5 ) ;
#97 = AXIS2_PLACEMENT_3D ( 'NONE', #13, #114, #209 ) ;
#98 = SURFACE_STYLE_USAGE ( .BOTH. , #145 ) ;
#99 = DIMENSIONAL_EXPONENTS ( 1.000000000000000000, 0.000000000000000000, 0.000000000000000000, 0.000000000000000000, 0.000000000000000000, 0.000000000000000000, 0.000000000000000000 ) ;
#100 = EDGE_CURVE ( 'NONE', #196, #272, #271, .T. ) ;
#101 = UNCERTAINTY_MEASURE_WITH_UNIT (LENGTH_MEASURE( 1.000000000000000082E-05 ), #287, 'distance_accuracy_value', 'NONE');
#102 = MECHANICAL_DESIGN_GEOMETRIC_PRESENTATION_REPRESENTATION (  '', ( #189 ), #87 ) ;
#103 = VERTEX_POINT ( 'NONE', #230 ) ;
#104 = ORIENTED_EDGE ( 'NONE', *, *, #64, .T. ) ;
#105 = ORIENTED_EDGE ( 'NONE', *, *, #218, .F. ) ;
#106 = STYLED_ITEM ( 'NONE', ( #283 ), #198 ) ;
#107 = EDGE_CURVE ( 'NONE', #103, #224, #241, .T. ) ;
#108 = CARTESIAN_POINT ( 'NONE',  ( 0.000000000000000000, 0.000000000000000000, 0.000000000000000000 ) ) ;
#109 = DIRECTION ( 'NONE',  ( -0.000000000000000000, -1.000000000000000000, -0.000000000000000000 ) ) ;
#110 = CARTESIAN_POINT ( 'NONE',  ( -1.224646799147353700E-16, 3.000000000000000444, 0.000000000000000000 ) ) ;
#111 = COLOUR_RGB ( '',1.000000000000000000, 0.000000000000000000, 0.000000000000000000 ) ;
#112 = PLANE ( 'NONE',  #301 ) ;
#113 = DIRECTION ( 'NONE',  ( -0.000000000000000000, -1.000000000000000000, -0.000000000000000000 ) ) ;
#114 = DIRECTION ( 'NONE',  ( -6.123233995736769734E-17, 1.000000000000000000, -0.000000000000000000 ) ) ;
#115 = VECTOR ( 'NONE', #303, 39.37007874015748143 ) ;
#116 = AXIS2_PLACEMENT_3D ( 'NONE', #108, #66, #276 ) ;
#117 =( NAMED_UNIT ( * ) PLANE_ANGLE_UNIT ( ) SI_UNIT ( $, .RADIAN. ) );
#118 = ADVANCED_BREP_SHAPE_REPRESENTATION ( '59906', ( #198, #294, #123 ), #227 ) ;
#119 = SURFACE_STYLE_FILL_AREA ( #285 ) ;
#120 = DIRECTION ( 'NONE',  ( -1.000000000000000000, 0.000000000000000000, 0.000000000000000000 ) ) ;
#121 = PRESENTATION_LAYER_ASSIGNMENT (  '', '', ( #106 ) ) ;
#122 = AXIS2_PLACEMENT_3D ( 'NONE', #15, #184, #120 ) ;
#123 = AXIS2_PLACEMENT_3D ( 'NONE', #19, #93, #234 ) ;
#124 = FILL_AREA_STYLE_COLOUR ( '', #275 ) ;
#125 = SURFACE_SIDE_STYLE ('',( #79 ) ) ;
#126 = MECHANICAL_DESIGN_GEOMETRIC_PRESENTATION_REPRESENTATION (  '', ( #192 ), #180 ) ;
#127 = EDGE_LOOP ( 'NONE', ( #10, #269, #172, #228 ) ) ;
#128 =( NAMED_UNIT ( * ) PLANE_ANGLE_UNIT ( ) SI_UNIT ( $, .RADIAN. ) );
#129 = ORIENTED_EDGE ( 'NONE', *, *, #267, .T. ) ;
#130 = ORIENTED_EDGE ( 'NONE', *, *, #210, .T. ) ;
#131 = EDGE_LOOP ( 'NONE', ( #293, #130, #105, #81 ) ) ;
#132 =( CONVERSION_BASED_UNIT ( 'INCH', #255 ) LENGTH_UNIT ( ) NAMED_UNIT ( #99 ) );
#133 = DIRECTION ( 'NONE',  ( 6.123233995736769734E-17, -1.000000000000000000, 0.000000000000000000 ) ) ;
#134 = CARTESIAN_POINT ( 'NONE',  ( 0.000000000000000000, 0.000000000000000000, 0.000000000000000000 ) ) ;
#135 = MECHANICAL_DESIGN_GEOMETRIC_PRESENTATION_REPRESENTATION (  '', ( #261 ), #188 ) ;
#136 = UNCERTAINTY_MEASURE_WITH_UNIT (LENGTH_MEASURE( 1.000000000000000082E-05 ), #244, 'distance_accuracy_value', 'NONE');
#137 = LENGTH_MEASURE_WITH_UNIT ( LENGTH_MEASURE( 0.02539999999999999897 ), #305 );
#138 = DIRECTION ( 'NONE',  ( 0.000000000000000000, 0.000000000000000000, -1.000000000000000000 ) ) ;
#139 =( NAMED_UNIT ( * ) SI_UNIT ( $, .STERADIAN. ) SOLID_ANGLE_UNIT ( ) );
#140 = UNCERTAINTY_MEASURE_WITH_UNIT (LENGTH_MEASURE( 1.000000000000000082E-05 ), #162, 'distance_accuracy_value', 'NONE');
#141 = PLANE ( 'NONE',  #166 ) ;
#142 = COLOUR_RGB ( '',1.000000000000000000, 0.000000000000000000, 0.000000000000000000 ) ;
#143 = EDGE_CURVE ( 'NONE', #270, #61, #150, .T. ) ;
#144 = SURFACE_SIDE_STYLE ('',( #96 ) ) ;
#145 = SURFACE_SIDE_STYLE ('',( #119 ) ) ;
#146 = STYLED_ITEM ( 'NONE', ( #6 ), #254 ) ;
#147 = DIRECTION ( 'NONE',  ( 0.000000000000000000, -0.000000000000000000, 1.000000000000000000 ) ) ;
#148 = DIRECTION ( 'NONE',  ( -6.123233995736769734E-17, 1.000000000000000000, -0.000000000000000000 ) ) ;
#149 = SURFACE_STYLE_USAGE ( .BOTH. , #57 ) ;
#150 = CIRCLE ( 'NONE', #246, 0.1875000000000000278 ) ;
#151 = ORIENTED_EDGE ( 'NONE', *, *, #173, .T. ) ;
#152 = ADVANCED_FACE ( 'NONE', ( #306 ), #112, .T. ) ;
#153 = PRODUCT ( '59906', '59906', '', ( #243 ) ) ;
#154 = AXIS2_PLACEMENT_3D ( 'NONE', #110, #88, #204 ) ;
#155 = PLANE ( 'NONE',  #116 ) ;
#156 =( GEOMETRIC_REPRESENTATION_CONTEXT ( 3 ) GLOBAL_UNCERTAINTY_ASSIGNED_CONTEXT ( ( #208 ) ) GLOBAL_UNIT_ASSIGNED_CONTEXT ( ( #240, #183, #90 ) ) REPRESENTATION_CONTEXT ( 'NONE', 'WORKASPACE' ) );
#157 = FILL_AREA_STYLE_COLOUR ( '', #111 ) ;
#158 =( NAMED_UNIT ( * ) PLANE_ANGLE_UNIT ( ) SI_UNIT ( $, .RADIAN. ) );
#159 =( NAMED_UNIT ( * ) SI_UNIT ( $, .STERADIAN. ) SOLID_ANGLE_UNIT ( ) );
#160 = FACE_OUTER_BOUND ( 'NONE', #82, .T. ) ;
#161 = CARTESIAN_POINT ( 'NONE',  ( -0.1875000000000002220, 3.000000000000000444, 0.000000000000000000 ) ) ;
#162 =( CONVERSION_BASED_UNIT ( 'INCH', #14 ) LENGTH_UNIT ( ) NAMED_UNIT ( #22 ) );
#163 = DIRECTION ( 'NONE',  ( 0.000000000000000000, 1.000000000000000000, 0.000000000000000000 ) ) ;
#164 = ADVANCED_FACE ( 'NONE', ( #168 ), #141, .F. ) ;
#165 = DIMENSIONAL_EXPONENTS ( 1.000000000000000000, 0.000000000000000000, 0.000000000000000000, 0.000000000000000000, 0.000000000000000000, 0.000000000000000000, 0.000000000000000000 ) ;
#166 = AXIS2_PLACEMENT_3D ( 'NONE', #187, #238, #50 ) ;
#167 = CARTESIAN_POINT ( 'NONE',  ( -1.224646799147353700E-16, 3.000000000000000444, 0.000000000000000000 ) ) ;
#168 = FACE_OUTER_BOUND ( 'NONE', #9, .T. ) ;
#169 = DIRECTION ( 'NONE',  ( -6.123233995736769734E-17, 1.000000000000000000, -0.000000000000000000 ) ) ;
#170 =( GEOMETRIC_REPRESENTATION_CONTEXT ( 3 ) GLOBAL_UNCERTAINTY_ASSIGNED_CONTEXT ( ( #101 ) ) GLOBAL_UNIT_ASSIGNED_CONTEXT ( ( #287, #128, #84 ) ) REPRESENTATION_CONTEXT ( 'NONE', 'WORKASPACE' ) );
#171 = SURFACE_STYLE_FILL_AREA ( #297 ) ;
#172 = ORIENTED_EDGE ( 'NONE', *, *, #86, .T. ) ;
#173 = EDGE_CURVE ( 'NONE', #61, #270, #32, .T. ) ;
#174 = ORIENTED_EDGE ( 'NONE', *, *, #267, .F. ) ;
#175 = PRESENTATION_LAYER_ASSIGNMENT (  '', '', ( #192 ) ) ;
#176 = FILL_AREA_STYLE_COLOUR ( '', #142 ) ;
#177 = EDGE_LOOP ( 'NONE', ( #80, #201, #36, #288 ) ) ;
#178 = FACE_OUTER_BOUND ( 'NONE', #127, .T. ) ;
#179 =( CONVERSION_BASED_UNIT ( 'INCH', #137 ) LENGTH_UNIT ( ) NAMED_UNIT ( #165 ) );
#180 =( GEOMETRIC_REPRESENTATION_CONTEXT ( 3 ) GLOBAL_UNCERTAINTY_ASSIGNED_CONTEXT ( ( #265 ) ) GLOBAL_UNIT_ASSIGNED_CONTEXT ( ( #179, #158, #213 ) ) REPRESENTATION_CONTEXT ( 'NONE', 'WORKASPACE' ) );
#181 =( LENGTH_UNIT ( ) NAMED_UNIT ( * ) SI_UNIT ( $, .METRE. ) );
#182 = CARTESIAN_POINT ( 'NONE',  ( 0.000000000000000000, 1.000000000000000000, 0.000000000000000000 ) ) ;
#183 =( NAMED_UNIT ( * ) PLANE_ANGLE_UNIT ( ) SI_UNIT ( $, .RADIAN. ) );
#184 = DIRECTION ( 'NONE',  ( -6.123233995736769734E-17, 1.000000000000000000, -0.000000000000000000 ) ) ;
#185 = SURFACE_STYLE_FILL_AREA ( #85 ) ;
#186 = DIRECTION ( 'NONE',  ( -0.000000000000000000, -1.000000000000000000, -0.000000000000000000 ) ) ;
#187 = CARTESIAN_POINT ( 'NONE',  ( 3.515061990613733472E-34, 1.000000000000000000, 0.000000000000000000 ) ) ;
#188 =( GEOMETRIC_REPRESENTATION_CONTEXT ( 3 ) GLOBAL_UNCERTAINTY_ASSIGNED_CONTEXT ( ( #140 ) ) GLOBAL_UNIT_ASSIGNED_CONTEXT ( ( #162, #92, #232 ) ) REPRESENTATION_CONTEXT ( 'NONE', 'WORKASPACE' ) );
#189 = STYLED_ITEM ( 'NONE', ( #63 ), #281 ) ;
#190 = PRODUCT_DEFINITION_FORMATION_WITH_SPECIFIED_SOURCE ( 'ANY', '', #153, .NOT_KNOWN. ) ;
#191 = CARTESIAN_POINT ( 'NONE',  ( 0.000000000000000000, 1.000000000000000000, 0.000000000000000000 ) ) ;
#192 = STYLED_ITEM ( 'NONE', ( #253 ), #152 ) ;
#193 = ADVANCED_FACE ( 'NONE', ( #284 ), #23, .T. ) ;
#194 = EDGE_LOOP ( 'NONE', ( #12, #249 ) ) ;
#195 = DIRECTION ( 'NONE',  ( 0.000000000000000000, 0.000000000000000000, -1.000000000000000000 ) ) ;
#196 = VERTEX_POINT ( 'NONE', #242 ) ;
#197 = ORIENTED_EDGE ( 'NONE', *, *, #20, .F. ) ;
#198 = MANIFOLD_SOLID_BREP ( 'Revolve - Cutting Edge', #302 ) ;
#199 = COLOUR_RGB ( '',1.000000000000000000, 0.000000000000000000, 0.000000000000000000 ) ;
#200 = VERTEX_POINT ( 'NONE', #94 ) ;
#201 = ORIENTED_EDGE ( 'NONE', *, *, #20, .T. ) ;
#202 = CARTESIAN_POINT ( 'NONE',  ( 0.000000000000000000, 0.000000000000000000, 0.000000000000000000 ) ) ;
#203 = DIRECTION ( 'NONE',  ( -0.000000000000000000, -1.000000000000000000, -0.000000000000000000 ) ) ;
#204 = DIRECTION ( 'NONE',  ( -1.000000000000000000, 0.000000000000000000, 0.000000000000000000 ) ) ;
#205 = PRESENTATION_LAYER_ASSIGNMENT (  '', '', ( #146 ) ) ;
#206 = FILL_AREA_STYLE_COLOUR ( '', #252 ) ;
#207 = DIMENSIONAL_EXPONENTS ( 1.000000000000000000, 0.000000000000000000, 0.000000000000000000, 0.000000000000000000, 0.000000000000000000, 0.000000000000000000, 0.000000000000000000 ) ;
#208 = UNCERTAINTY_MEASURE_WITH_UNIT (LENGTH_MEASURE( 1.000000000000000082E-05 ), #240, 'distance_accuracy_value', 'NONE');
#209 = DIRECTION ( 'NONE',  ( -1.000000000000000000, 0.000000000000000000, 0.000000000000000000 ) ) ;
#210 = EDGE_CURVE ( 'NONE', #272, #103, #259, .T. ) ;
#211 = FILL_AREA_STYLE_COLOUR ( '', #199 ) ;
#212 = PRESENTATION_LAYER_ASSIGNMENT (  '', '', ( #91 ) ) ;
#213 =( NAMED_UNIT ( * ) SI_UNIT ( $, .STERADIAN. ) SOLID_ANGLE_UNIT ( ) );
#214 = DIRECTION ( 'NONE',  ( -6.123233995736769734E-17, 1.000000000000000000, -0.000000000000000000 ) ) ;
#215 =( LENGTH_UNIT ( ) NAMED_UNIT ( * ) SI_UNIT ( $, .METRE. ) );
#216 = AXIS2_PLACEMENT_3D ( 'NONE', #191, #186, #264 ) ;
#217 = DIRECTION ( 'NONE',  ( -1.000000000000000000, 0.000000000000000000, 0.000000000000000000 ) ) ;
#218 = EDGE_CURVE ( 'NONE', #224, #103, #239, .T. ) ;
#219 = CYLINDRICAL_SURFACE ( 'NONE', #226, 0.1875000000000000833 ) ;
#220 = FILL_AREA_STYLE ('',( #176 ) ) ;
#221 = MECHANICAL_DESIGN_GEOMETRIC_PRESENTATION_REPRESENTATION (  '', ( #91 ), #156 ) ;
#222 = SURFACE_STYLE_USAGE ( .BOTH. , #30 ) ;
#223 = FACE_OUTER_BOUND ( 'NONE', #225, .T. ) ;
#224 = VERTEX_POINT ( 'NONE', #260 ) ;
#225 = EDGE_LOOP ( 'NONE', ( #197, #151, #290, #174 ) ) ;
#226 = AXIS2_PLACEMENT_3D ( 'NONE', #273, #148, #28 ) ;
#227 =( GEOMETRIC_REPRESENTATION_CONTEXT ( 3 ) GLOBAL_UNCERTAINTY_ASSIGNED_CONTEXT ( ( #89 ) ) GLOBAL_UNIT_ASSIGNED_CONTEXT ( ( #3, #95, #139 ) ) REPRESENTATION_CONTEXT ( 'NONE', 'WORKASPACE' ) );
#228 = ORIENTED_EDGE ( 'NONE', *, *, #107, .F. ) ;
#229 = CARTESIAN_POINT ( 'NONE',  ( 2.296212748401287726E-17, 0.000000000000000000, 0.1875000000000000278 ) ) ;
#230 = CARTESIAN_POINT ( 'NONE',  ( 0.1875000000000000278, 3.000000000000000444, 2.296212748401288650E-17 ) ) ;
#231 = VECTOR ( 'NONE', #68, 39.37007874015748143 ) ;
#232 =( NAMED_UNIT ( * ) SI_UNIT ( $, .STERADIAN. ) SOLID_ANGLE_UNIT ( ) );
#233 = CIRCLE ( 'NONE', #122, 0.1875000000000000278 ) ;
#234 = DIRECTION ( 'NONE',  ( 1.000000000000000000, 0.000000000000000000, 0.000000000000000000 ) ) ;
#235 = CARTESIAN_POINT ( 'NONE',  ( 0.1875000000000000278, 3.000000000000000444, 0.000000000000000000 ) ) ;
#236 = SHAPE_DEFINITION_REPRESENTATION ( #291, #118 ) ;
#237 = LINE ( 'NONE', #161, #231 ) ;
#238 = DIRECTION ( 'NONE',  ( -6.123233995736769734E-17, 1.000000000000000000, 0.000000000000000000 ) ) ;
#239 = CIRCLE ( 'NONE', #21, 0.1875000000000001388 ) ;
#240 =( CONVERSION_BASED_UNIT ( 'INCH', #258 ) LENGTH_UNIT ( ) NAMED_UNIT ( #207 ) );
#241 = CIRCLE ( 'NONE', #154, 0.1875000000000001388 ) ;
#242 = CARTESIAN_POINT ( 'NONE',  ( -0.1875000000000000278, 1.000000000000000000, 0.000000000000000000 ) ) ;
#243 = PRODUCT_CONTEXT ( 'NONE', #54, 'mechanical' ) ;
#244 =( CONVERSION_BASED_UNIT ( 'INCH', #2 ) LENGTH_UNIT ( ) NAMED_UNIT ( #26 ) );
#245 =( NAMED_UNIT ( * ) SI_UNIT ( $, .STERADIAN. ) SOLID_ANGLE_UNIT ( ) );
#246 = AXIS2_PLACEMENT_3D ( 'NONE', #182, #65, #17 ) ;
#247 = CARTESIAN_POINT ( 'NONE',  ( 0.1875000000000000278, 1.000000000000000000, 2.296212748401288650E-17 ) ) ;
#248 = CARTESIAN_POINT ( 'NONE',  ( 0.000000000000000000, 1.000000000000000000, -0.1875000000000000278 ) ) ;
#249 = ORIENTED_EDGE ( 'NONE', *, *, #173, .F. ) ;
#250 = CIRCLE ( 'NONE', #11, 0.1875000000000000278 ) ;
#251 = DIRECTION ( 'NONE',  ( -0.000000000000000000, -1.000000000000000000, -0.000000000000000000 ) ) ;
#252 = COLOUR_RGB ( '',0.7921568627450980005, 0.8196078431372548767, 0.9333333333333333481 ) ;
#253 = PRESENTATION_STYLE_ASSIGNMENT (( #308 ) ) ;
#254 = ADVANCED_FACE ( 'NONE', ( #266 ), #49, .T. ) ;
#255 = LENGTH_MEASURE_WITH_UNIT ( LENGTH_MEASURE( 0.02539999999999999897 ), #181 );
#256 = LINE ( 'NONE', #229, #300 ) ;
#257 = CARTESIAN_POINT ( 'NONE',  ( 0.000000000000000000, 0.000000000000000000, -0.1875000000000000278 ) ) ;
#258 = LENGTH_MEASURE_WITH_UNIT ( LENGTH_MEASURE( 0.02539999999999999897 ), #58 );
#259 = LINE ( 'NONE', #282, #277 ) ;
#260 = CARTESIAN_POINT ( 'NONE',  ( -0.1875000000000002776, 3.000000000000000444, 0.000000000000000000 ) ) ;
#261 = STYLED_ITEM ( 'NONE', ( #31 ), #1 ) ;
#262 = CLOSED_SHELL ( 'NONE', ( #193, #164, #263, #76 ) ) ;
#263 = ADVANCED_FACE ( 'NONE', ( #178 ), #219, .T. ) ;
#264 = DIRECTION ( 'NONE',  ( 0.000000000000000000, 0.000000000000000000, -1.000000000000000000 ) ) ;
#265 = UNCERTAINTY_MEASURE_WITH_UNIT (LENGTH_MEASURE( 1.000000000000000082E-05 ), #179, 'distance_accuracy_value', 'NONE');
#266 = FACE_OUTER_BOUND ( 'NONE', #177, .T. ) ;
#267 = EDGE_CURVE ( 'NONE', #200, #296, #250, .T. ) ;
#268 = APPLICATION_CONTEXT ( 'automotive_design' ) ;
#269 = ORIENTED_EDGE ( 'NONE', *, *, #295, .T. ) ;
#270 = VERTEX_POINT ( 'NONE', #248 ) ;
#271 = CIRCLE ( 'NONE', #97, 0.1875000000000000278 ) ;
#272 = VERTEX_POINT ( 'NONE', #247 ) ;
#273 = CARTESIAN_POINT ( 'NONE',  ( -1.224646799147353700E-16, 3.000000000000000444, 0.000000000000000000 ) ) ;
#274 = CIRCLE ( 'NONE', #60, 0.1875000000000000278 ) ;
#275 = COLOUR_RGB ( '',0.7921568627450980005, 0.8196078431372548767, 0.9333333333333333481 ) ;
#276 = DIRECTION ( 'NONE',  ( 0.000000000000000000, 0.000000000000000000, -1.000000000000000000 ) ) ;
#277 = VECTOR ( 'NONE', #169, 39.37007874015748143 ) ;
#278 = APPLICATION_PROTOCOL_DEFINITION ( 'draft international standard', 'automotive_design', 1998, #268 ) ;
#279 = PLANE ( 'NONE',  #77 ) ;
#280 = CARTESIAN_POINT ( 'NONE',  ( -1.224646799147353700E-16, 3.000000000000000444, 0.000000000000000000 ) ) ;
#281 = ADVANCED_FACE ( 'NONE', ( #223 ), #56, .T. ) ;
#282 = CARTESIAN_POINT ( 'NONE',  ( 0.1874999999999999445, 3.000000000000000444, 2.296212748401288342E-17 ) ) ;
#283 = PRESENTATION_STYLE_ASSIGNMENT (( #98 ) ) ;
#284 = FACE_OUTER_BOUND ( 'NONE', #131, .T. ) ;
#285 = FILL_AREA_STYLE ('',( #124 ) ) ;
#286 = AXIS2_PLACEMENT_3D ( 'NONE', #167, #73, #27 ) ;
#287 =( CONVERSION_BASED_UNIT ( 'INCH', #35 ) LENGTH_UNIT ( ) NAMED_UNIT ( #45 ) );
#288 = ORIENTED_EDGE ( 'NONE', *, *, #55, .F. ) ;
#289 = FILL_AREA_STYLE ('',( #157 ) ) ;
#290 = ORIENTED_EDGE ( 'NONE', *, *, #55, .T. ) ;
#291 = PRODUCT_DEFINITION_SHAPE ( 'NONE', 'NONE',  #29 ) ;
#292 = ORIENTED_EDGE ( 'NONE', *, *, #100, .F. ) ;
#293 = ORIENTED_EDGE ( 'NONE', *, *, #100, .T. ) ;
#294 = MANIFOLD_SOLID_BREP ( 'Revolve - Tool Body (Straight Shanked)', #262 ) ;
#295 = EDGE_CURVE ( 'NONE', #272, #196, #233, .T. ) ;
#296 = VERTEX_POINT ( 'NONE', #69 ) ;
#297 = FILL_AREA_STYLE ('',( #206 ) ) ;
#298 =( LENGTH_UNIT ( ) NAMED_UNIT ( * ) SI_UNIT ( $, .METRE. ) );
#299 = CARTESIAN_POINT ( 'NONE',  ( 0.000000000000000000, 0.000000000000000000, 0.000000000000000000 ) ) ;
#300 = VECTOR ( 'NONE', #113, 39.37007874015748143 ) ;
#301 = AXIS2_PLACEMENT_3D ( 'NONE', #72, #163, #147 ) ;
#302 = CLOSED_SHELL ( 'NONE', ( #254, #152, #281, #1 ) ) ;
#303 = DIRECTION ( 'NONE',  ( -0.000000000000000000, -1.000000000000000000, -0.000000000000000000 ) ) ;
#304 = DIMENSIONAL_EXPONENTS ( 1.000000000000000000, 0.000000000000000000, 0.000000000000000000, 0.000000000000000000, 0.000000000000000000, 0.000000000000000000, 0.000000000000000000 ) ;
#305 =( LENGTH_UNIT ( ) NAMED_UNIT ( * ) SI_UNIT ( $, .METRE. ) );
#306 = FACE_OUTER_BOUND ( 'NONE', #194, .T. ) ;
#307 = COLOUR_RGB ( '',1.000000000000000000, 0.000000000000000000, 0.000000000000000000 ) ;
#308 = SURFACE_STYLE_USAGE ( .BOTH. , #43 ) ;
#309 =( LENGTH_UNIT ( ) NAMED_UNIT ( * ) SI_UNIT ( $, .METRE. ) );
ENDSEC;
END-ISO-10303-21;
