ISO-10303-21;
HEADER;
FILE_DESCRIPTION (( 'STEP AP214' ),
    '1' );
FILE_NAME ('Micro_AEMM-060-4X.STEP',
    '2022-03-15T14:28:05',
    ( '' ),
    ( '' ),
    'SwSTEP 2.0',
    'SolidWorks 2022',
    '' );
FILE_SCHEMA (( 'AUTOMOTIVE_DESIGN' ));
ENDSEC;

DATA;
#1 = DIRECTION ( 'NONE',  ( 0.000000000000000000, 0.000000000000000000, 1.000000000000000000 ) ) ;
#2 = CARTESIAN_POINT ( 'NONE',  ( 1.769594913022618037E-33, 0.000000000000000000, 1.444983904138465938E-17 ) ) ;
#3 = AXIS2_PLACEMENT_3D ( 'NONE', #88, #167, #184 ) ;
#4 = FACE_OUTER_BOUND ( 'NONE', #293, .T. ) ;
#5 = EDGE_CURVE ( 'NONE', #155, #176, #178, .T. ) ;
#6 = CARTESIAN_POINT ( 'NONE',  ( 0.000000000000000000, 0.000000000000000000, 0.000000000000000000 ) ) ;
#7 = DIRECTION ( 'NONE',  ( 0.000000000000000000, 0.000000000000000000, -1.000000000000000000 ) ) ;
#8 = CARTESIAN_POINT ( 'NONE',  ( -0.1031100000000002570, 0.000000000000000000, 2.244094000000000033 ) ) ;
#9 = DIRECTION ( 'NONE',  ( 1.000000000000000000, 0.000000000000000000, 0.000000000000000000 ) ) ;
#10 = LINE ( 'NONE', #64, #93 ) ;
#11 = AXIS2_PLACEMENT_3D ( 'NONE', #188, #1, #280 ) ;
#12 = PRESENTATION_LAYER_ASSIGNMENT (  '', '', ( #288 ) ) ;
#13 = VERTEX_POINT ( 'NONE', #18 ) ;
#14 = EDGE_LOOP ( 'NONE', ( #105, #289 ) ) ;
#15 = EDGE_CURVE ( 'NONE', #155, #196, #10, .T. ) ;
#16 = LENGTH_MEASURE_WITH_UNIT ( LENGTH_MEASURE( 0.02539999999999999897 ), #180 );
#17 = EDGE_LOOP ( 'NONE', ( #247, #154 ) ) ;
#18 = CARTESIAN_POINT ( 'NONE',  ( -0.1179918899999999049, 1.445707119305702357E-17, 0.6299209999999999532 ) ) ;
#19 = AXIS2_PLACEMENT_3D ( 'NONE', #208, #230, #118 ) ;
#20 = AXIS2_PLACEMENT_3D ( 'NONE', #148, #238, #55 ) ;
#21 = LINE ( 'NONE', #111, #205 ) ;
#22 = DIRECTION ( 'NONE',  ( -0.000000000000000000, -0.000000000000000000, -1.000000000000000000 ) ) ;
#23 = CARTESIAN_POINT ( 'NONE',  ( 7.714307363656999460E-17, 0.000000000000000000, 0.6299209999999999532 ) ) ;
#24 = VECTOR ( 'NONE', #115, 39.37007874015748854 ) ;
#25 = AXIS2_PLACEMENT_3D ( 'NONE', #279, #91, #140 ) ;
#26 = LINE ( 'NONE', #209, #66 ) ;
#27 = DIRECTION ( 'NONE',  ( -0.000000000000000000, -0.000000000000000000, -1.000000000000000000 ) ) ;
#28 = PRESENTATION_STYLE_ASSIGNMENT (( #258 ) ) ;
#29 = DIMENSIONAL_EXPONENTS ( 1.000000000000000000, 0.000000000000000000, 0.000000000000000000, 0.000000000000000000, 0.000000000000000000, 0.000000000000000000, 0.000000000000000000 ) ;
#30 = LENGTH_MEASURE_WITH_UNIT ( LENGTH_MEASURE( 0.02539999999999999897 ), #144 );
#31 =( CONVERSION_BASED_UNIT ( 'INCH', #214 ) LENGTH_UNIT ( ) NAMED_UNIT ( #29 ) );
#32 =( NAMED_UNIT ( * ) SI_UNIT ( $, .STERADIAN. ) SOLID_ANGLE_UNIT ( ) );
#33 = CARTESIAN_POINT ( 'NONE',  ( 0.000000000000000000, 0.000000000000000000, 2.244094000000000033 ) ) ;
#34 = CONICAL_SURFACE ( 'NONE', #135, 0.1031100000000002570, 0.7853981633974318477 ) ;
#35 = SHAPE_DEFINITION_REPRESENTATION ( #112, #262 ) ;
#36 = ORIENTED_EDGE ( 'NONE', *, *, #147, .T. ) ;
#37 = CARTESIAN_POINT ( 'NONE',  ( -0.1181100000000000066, 0.000000000000000000, 2.229093999999999465 ) ) ;
#38 = EDGE_CURVE ( 'NONE', #13, #271, #102, .T. ) ;
#39 = VECTOR ( 'NONE', #296, 39.37007874015748143 ) ;
#40 = ORIENTED_EDGE ( 'NONE', *, *, #98, .F. ) ;
#41 = UNCERTAINTY_MEASURE_WITH_UNIT (LENGTH_MEASURE( 1.000000000000000082E-05 ), #120, 'distance_accuracy_value', 'NONE');
#42 = EDGE_LOOP ( 'NONE', ( #292, #246, #226, #82 ) ) ;
#43 = VERTEX_POINT ( 'NONE', #37 ) ;
#44 = EDGE_LOOP ( 'NONE', ( #136, #110, #79, #85 ) ) ;
#45 = DIRECTION ( 'NONE',  ( 0.7071067811865358044, 8.659560562354788645E-17, -0.7071067811865590080 ) ) ;
#46 = DIRECTION ( 'NONE',  ( 1.000000000000000000, 0.000000000000000000, 0.000000000000000000 ) ) ;
#47 = CYLINDRICAL_SURFACE ( 'NONE', #25, 0.1179918899999999882 ) ;
#48 = CARTESIAN_POINT ( 'NONE',  ( 7.722510477716240475E-17, 0.000000000000000000, 0.6305908350957151187 ) ) ;
#49 = CARTESIAN_POINT ( 'NONE',  ( 0.1179918900000000853, 0.000000000000000000, 0.6299209999999999532 ) ) ;
#50 = EDGE_CURVE ( 'NONE', #84, #181, #26, .T. ) ;
#51 = PRODUCT_RELATED_PRODUCT_CATEGORY ( 'part', '', ( #162 ) ) ;
#52 = DIRECTION ( 'NONE',  ( 0.000000000000000000, 0.000000000000000000, 1.000000000000000000 ) ) ;
#53 =( GEOMETRIC_REPRESENTATION_CONTEXT ( 3 ) GLOBAL_UNCERTAINTY_ASSIGNED_CONTEXT ( ( #41 ) ) GLOBAL_UNIT_ASSIGNED_CONTEXT ( ( #120, #266, #291 ) ) REPRESENTATION_CONTEXT ( 'NONE', 'WORKASPACE' ) );
#54 = CARTESIAN_POINT ( 'NONE',  ( 0.000000000000000000, 0.000000000000000000, 2.244094000000000033 ) ) ;
#55 = DIRECTION ( 'NONE',  ( -1.000000000000000000, 0.000000000000000000, 0.000000000000000000 ) ) ;
#56 = CYLINDRICAL_SURFACE ( 'NONE', #237, 0.1179918899999999882 ) ;
#57 = CONICAL_SURFACE ( 'NONE', #259, 0.1179918899999999882, 0.1745329251994339192 ) ;
#58 =( NAMED_UNIT ( * ) SI_UNIT ( $, .STERADIAN. ) SOLID_ANGLE_UNIT ( ) );
#59 = DIRECTION ( 'NONE',  ( -1.224646799147353207E-16, -0.000000000000000000, -1.000000000000000000 ) ) ;
#60 = ORIENTED_EDGE ( 'NONE', *, *, #147, .F. ) ;
#61 = PRESENTATION_LAYER_ASSIGNMENT (  '', '', ( #109 ) ) ;
#62 = ORIENTED_EDGE ( 'NONE', *, *, #5, .F. ) ;
#63 = ORIENTED_EDGE ( 'NONE', *, *, #122, .F. ) ;
#64 = CARTESIAN_POINT ( 'NONE',  ( 0.1179918899999999882, 1.444983904138465938E-17, -1.444983904138465938E-17 ) ) ;
#65 = DIRECTION ( 'NONE',  ( -1.224646799147353207E-16, -0.000000000000000000, -1.000000000000000000 ) ) ;
#66 = VECTOR ( 'NONE', #45, 39.37007874015748854 ) ;
#67 = CARTESIAN_POINT ( 'NONE',  ( -0.1031100000000002570, 0.000000000000000000, 2.244094000000000033 ) ) ;
#68 = ADVANCED_FACE ( 'NONE', ( #186 ), #236, .T. ) ;
#69 = DIRECTION ( 'NONE',  ( 1.000000000000000000, 0.000000000000000000, 0.000000000000000000 ) ) ;
#70 = CYLINDRICAL_SURFACE ( 'NONE', #187, 0.1181100000000000066 ) ;
#71 = APPLICATION_CONTEXT ( 'automotive_design' ) ;
#72 = LINE ( 'NONE', #256, #39 ) ;
#73 = DIRECTION ( 'NONE',  ( -1.224646799147353207E-16, -0.000000000000000000, -1.000000000000000000 ) ) ;
#74 = VECTOR ( 'NONE', #59, 39.37007874015748143 ) ;
#75 = FACE_OUTER_BOUND ( 'NONE', #225, .T. ) ;
#76 = ADVANCED_FACE ( 'NONE', ( #138 ), #70, .T. ) ;
#77 = DIRECTION ( 'NONE',  ( 0.000000000000000000, 0.000000000000000000, 1.000000000000000000 ) ) ;
#78 = UNCERTAINTY_MEASURE_WITH_UNIT (LENGTH_MEASURE( 1.000000000000000082E-05 ), #133, 'distance_accuracy_value', 'NONE');
#79 = ORIENTED_EDGE ( 'NONE', *, *, #5, .T. ) ;
#80 = ORIENTED_EDGE ( 'NONE', *, *, #201, .F. ) ;
#81 = EDGE_CURVE ( 'NONE', #271, #196, #156, .T. ) ;
#82 = ORIENTED_EDGE ( 'NONE', *, *, #219, .F. ) ;
#83 = SURFACE_SIDE_STYLE ('',( #127 ) ) ;
#84 = VERTEX_POINT ( 'NONE', #183 ) ;
#85 = ORIENTED_EDGE ( 'NONE', *, *, #219, .T. ) ;
#86 = ORIENTED_EDGE ( 'NONE', *, *, #50, .F. ) ;
#87 = CARTESIAN_POINT ( 'NONE',  ( 0.000000000000000000, 0.000000000000000000, 2.244094000000000033 ) ) ;
#88 = CARTESIAN_POINT ( 'NONE',  ( 1.769594913022618037E-33, 0.000000000000000000, 1.444983904138465938E-17 ) ) ;
#89 = EDGE_CURVE ( 'NONE', #196, #271, #97, .T. ) ;
#90 = CARTESIAN_POINT ( 'NONE',  ( 0.1181100000000000899, 1.446430334472940009E-17, 0.6305908350957151187 ) ) ;
#91 = DIRECTION ( 'NONE',  ( -1.224646799147353207E-16, -0.000000000000000000, -1.000000000000000000 ) ) ;
#92 = CARTESIAN_POINT ( 'NONE',  ( -0.1181100000000000066, 0.000000000000000000, 2.244094000000000033 ) ) ;
#93 = VECTOR ( 'NONE', #248, 39.37007874015748143 ) ;
#94 = CIRCLE ( 'NONE', #254, 0.1179918899999999882 ) ;
#95 = SURFACE_STYLE_FILL_AREA ( #169 ) ;
#96 = DIRECTION ( 'NONE',  ( -1.000000000000000000, 0.000000000000000000, 0.000000000000000000 ) ) ;
#97 = CIRCLE ( 'NONE', #172, 0.1179918899999999882 ) ;
#98 = EDGE_CURVE ( 'NONE', #181, #43, #119, .T. ) ;
#99 = CARTESIAN_POINT ( 'NONE',  ( -0.1179918899999999882, 0.000000000000000000, 2.889967808276931875E-17 ) ) ;
#100 = CYLINDRICAL_SURFACE ( 'NONE', #20, 0.1181100000000000066 ) ;
#101 = EDGE_CURVE ( 'NONE', #223, #43, #168, .T. ) ;
#102 = LINE ( 'NONE', #265, #74 ) ;
#103 = AXIS2_PLACEMENT_3D ( 'NONE', #23, #298, #46 ) ;
#104 = CARTESIAN_POINT ( 'NONE',  ( 0.000000000000000000, 0.000000000000000000, 0.000000000000000000 ) ) ;
#105 = ORIENTED_EDGE ( 'NONE', *, *, #81, .T. ) ;
#106 = ORIENTED_EDGE ( 'NONE', *, *, #38, .F. ) ;
#107 = ORIENTED_EDGE ( 'NONE', *, *, #211, .T. ) ;
#108 = CLOSED_SHELL ( 'NONE', ( #270, #260, #276, #76, #242, #137, #220, #68, #185, #240 ) ) ;
#109 = STYLED_ITEM ( 'NONE', ( #153 ), #262 ) ;
#110 = ORIENTED_EDGE ( 'NONE', *, *, #297, .F. ) ;
#111 = CARTESIAN_POINT ( 'NONE',  ( -0.1179918899999999049, 1.444983904138465938E-17, 0.6299209999999999532 ) ) ;
#112 = PRODUCT_DEFINITION_SHAPE ( 'NONE', 'NONE',  #277 ) ;
#113 = CARTESIAN_POINT ( 'NONE',  ( 0.000000000000000000, 0.000000000000000000, 2.229093999999999465 ) ) ;
#114 = EDGE_CURVE ( 'NONE', #13, #155, #275, .T. ) ;
#115 = DIRECTION ( 'NONE',  ( -0.7071067811865358044, 0.000000000000000000, -0.7071067811865590080 ) ) ;
#116 = AXIS2_PLACEMENT_3D ( 'NONE', #113, #252, #69 ) ;
#117 = CARTESIAN_POINT ( 'NONE',  ( 0.000000000000000000, 0.000000000000000000, 2.244094000000000033 ) ) ;
#118 = DIRECTION ( 'NONE',  ( 1.000000000000000000, 0.000000000000000000, 0.000000000000000000 ) ) ;
#119 = CIRCLE ( 'NONE', #116, 0.1181100000000000066 ) ;
#120 =( CONVERSION_BASED_UNIT ( 'INCH', #30 ) LENGTH_UNIT ( ) NAMED_UNIT ( #257 ) );
#121 =( NAMED_UNIT ( * ) PLANE_ANGLE_UNIT ( ) SI_UNIT ( $, .RADIAN. ) );
#122 = EDGE_CURVE ( 'NONE', #84, #223, #193, .T. ) ;
#123 = DIMENSIONAL_EXPONENTS ( 1.000000000000000000, 0.000000000000000000, 0.000000000000000000, 0.000000000000000000, 0.000000000000000000, 0.000000000000000000, 0.000000000000000000 ) ;
#124 = DIRECTION ( 'NONE',  ( -1.000000000000000000, 0.000000000000000000, 0.000000000000000000 ) ) ;
#125 = CIRCLE ( 'NONE', #222, 0.1181100000000000066 ) ;
#126 = SURFACE_SIDE_STYLE ('',( #95 ) ) ;
#127 = SURFACE_STYLE_FILL_AREA ( #202 ) ;
#128 = EDGE_LOOP ( 'NONE', ( #86, #160, #295, #40 ) ) ;
#129 = AXIS2_PLACEMENT_3D ( 'NONE', #6, #77, #264 ) ;
#130 = EDGE_LOOP ( 'NONE', ( #134, #197, #203, #159 ) ) ;
#131 = DIRECTION ( 'NONE',  ( 0.1736481776669314137, 0.000000000000000000, 0.9848077530122077983 ) ) ;
#132 = EDGE_CURVE ( 'NONE', #43, #290, #274, .T. ) ;
#133 =( CONVERSION_BASED_UNIT ( 'INCH', #16 ) LENGTH_UNIT ( ) NAMED_UNIT ( #123 ) );
#134 = ORIENTED_EDGE ( 'NONE', *, *, #15, .F. ) ;
#135 = AXIS2_PLACEMENT_3D ( 'NONE', #54, #7, #96 ) ;
#136 = ORIENTED_EDGE ( 'NONE', *, *, #161, .F. ) ;
#137 = ADVANCED_FACE ( 'NONE', ( #228 ), #142, .T. ) ;
#138 = FACE_OUTER_BOUND ( 'NONE', #200, .T. ) ;
#139 = DIRECTION ( 'NONE',  ( 1.000000000000000000, 0.000000000000000000, 0.000000000000000000 ) ) ;
#140 = DIRECTION ( 'NONE',  ( -1.000000000000000000, 0.000000000000000000, 1.224646799147353454E-16 ) ) ;
#141 = COLOUR_RGB ( '',0.7921568627450980005, 0.8196078431372548767, 0.9333333333333333481 ) ;
#142 = PLANE ( 'NONE',  #11 ) ;
#143 = CARTESIAN_POINT ( 'NONE',  ( 0.000000000000000000, 0.000000000000000000, 0.000000000000000000 ) ) ;
#144 =( LENGTH_UNIT ( ) NAMED_UNIT ( * ) SI_UNIT ( $, .METRE. ) );
#145 = AXIS2_PLACEMENT_3D ( 'NONE', #210, #166, #253 ) ;
#146 = AXIS2_PLACEMENT_3D ( 'NONE', #170, #52, #190 ) ;
#147 = EDGE_CURVE ( 'NONE', #43, #181, #198, .T. ) ;
#148 = CARTESIAN_POINT ( 'NONE',  ( 0.000000000000000000, 0.000000000000000000, 2.244094000000000033 ) ) ;
#149 = DIRECTION ( 'NONE',  ( -1.000000000000000000, 0.000000000000000000, 1.224646799147353454E-16 ) ) ;
#150 =( GEOMETRIC_REPRESENTATION_CONTEXT ( 3 ) GLOBAL_UNCERTAINTY_ASSIGNED_CONTEXT ( ( #239 ) ) GLOBAL_UNIT_ASSIGNED_CONTEXT ( ( #31, #121, #32 ) ) REPRESENTATION_CONTEXT ( 'NONE', 'WORKASPACE' ) );
#151 = CIRCLE ( 'NONE', #146, 0.1031100000000002570 ) ;
#152 = APPLICATION_PROTOCOL_DEFINITION ( 'draft international standard', 'automotive_design', 1998, #272 ) ;
#153 = PRESENTATION_STYLE_ASSIGNMENT (( #157 ) ) ;
#154 = ORIENTED_EDGE ( 'NONE', *, *, #122, .T. ) ;
#155 = VERTEX_POINT ( 'NONE', #49 ) ;
#156 = CIRCLE ( 'NONE', #3, 0.1179918899999999882 ) ;
#157 = SURFACE_STYLE_USAGE ( .BOTH. , #83 ) ;
#158 = ORIENTED_EDGE ( 'NONE', *, *, #161, .T. ) ;
#159 = ORIENTED_EDGE ( 'NONE', *, *, #89, .F. ) ;
#160 = ORIENTED_EDGE ( 'NONE', *, *, #251, .F. ) ;
#161 = EDGE_CURVE ( 'NONE', #13, #290, #21, .T. ) ;
#162 = PRODUCT ( 'Micro_AEMM-060-4X', 'Micro_AEMM-060-4X', '', ( #206 ) ) ;
#163 = AXIS2_PLACEMENT_3D ( 'NONE', #104, #199, #9 ) ;
#164 = DIRECTION ( 'NONE',  ( 1.000000000000000000, 0.000000000000000000, 0.000000000000000000 ) ) ;
#165 = DIRECTION ( 'NONE',  ( 0.000000000000000000, 0.000000000000000000, 1.000000000000000000 ) ) ;
#166 = DIRECTION ( 'NONE',  ( -1.224646799147353207E-16, -0.000000000000000000, -1.000000000000000000 ) ) ;
#167 = DIRECTION ( 'NONE',  ( -1.224646799147353207E-16, -0.000000000000000000, -1.000000000000000000 ) ) ;
#168 = LINE ( 'NONE', #67, #24 ) ;
#169 = FILL_AREA_STYLE ('',( #217 ) ) ;
#170 = CARTESIAN_POINT ( 'NONE',  ( 0.000000000000000000, 0.000000000000000000, 2.244094000000000033 ) ) ;
#171 = CARTESIAN_POINT ( 'NONE',  ( 7.714307363656999460E-17, 0.000000000000000000, 0.6299209999999999532 ) ) ;
#172 = AXIS2_PLACEMENT_3D ( 'NONE', #2, #278, #212 ) ;
#173 = CIRCLE ( 'NONE', #189, 0.1181100000000000066 ) ;
#174 = FILL_AREA_STYLE_COLOUR ( '', #249 ) ;
#175 = ORIENTED_EDGE ( 'NONE', *, *, #15, .T. ) ;
#176 = VERTEX_POINT ( 'NONE', #90 ) ;
#177 =( NAMED_UNIT ( * ) PLANE_ANGLE_UNIT ( ) SI_UNIT ( $, .RADIAN. ) );
#178 = LINE ( 'NONE', #268, #282 ) ;
#179 = ORIENTED_EDGE ( 'NONE', *, *, #201, .T. ) ;
#180 =( LENGTH_UNIT ( ) NAMED_UNIT ( * ) SI_UNIT ( $, .METRE. ) );
#181 = VERTEX_POINT ( 'NONE', #255 ) ;
#182 = CARTESIAN_POINT ( 'NONE',  ( 7.722510477716240475E-17, 0.000000000000000000, 0.6305908350957151187 ) ) ;
#183 = CARTESIAN_POINT ( 'NONE',  ( 0.1031100000000002570, 1.354581824536888722E-17, 2.244094000000000033 ) ) ;
#184 = DIRECTION ( 'NONE',  ( -1.000000000000000000, 0.000000000000000000, 1.224646799147353454E-16 ) ) ;
#185 = ADVANCED_FACE ( 'NONE', ( #283 ), #47, .T. ) ;
#186 = FACE_OUTER_BOUND ( 'NONE', #44, .T. ) ;
#187 = AXIS2_PLACEMENT_3D ( 'NONE', #117, #27, #229 ) ;
#188 = CARTESIAN_POINT ( 'NONE',  ( 0.000000000000000000, 0.000000000000000000, 2.244094000000000033 ) ) ;
#189 = AXIS2_PLACEMENT_3D ( 'NONE', #182, #65, #164 ) ;
#190 = DIRECTION ( 'NONE',  ( 1.000000000000000000, 0.000000000000000000, 0.000000000000000000 ) ) ;
#191 = CARTESIAN_POINT ( 'NONE',  ( -0.1181099999999999234, 0.000000000000000000, 0.6305908350957151187 ) ) ;
#192 = DIRECTION ( 'NONE',  ( 1.000000000000000000, 0.000000000000000000, 0.000000000000000000 ) ) ;
#193 = CIRCLE ( 'NONE', #231, 0.1031100000000002570 ) ;
#194 = AXIS2_PLACEMENT_3D ( 'NONE', #33, #287, #124 ) ;
#195 = FACE_OUTER_BOUND ( 'NONE', #273, .T. ) ;
#196 = VERTEX_POINT ( 'NONE', #233 ) ;
#197 = ORIENTED_EDGE ( 'NONE', *, *, #297, .T. ) ;
#198 = CIRCLE ( 'NONE', #19, 0.1181100000000000066 ) ;
#199 = DIRECTION ( 'NONE',  ( 0.000000000000000000, 0.000000000000000000, 1.000000000000000000 ) ) ;
#200 = EDGE_LOOP ( 'NONE', ( #36, #107, #80, #207 ) ) ;
#201 = EDGE_CURVE ( 'NONE', #290, #176, #125, .T. ) ;
#202 = FILL_AREA_STYLE ('',( #174 ) ) ;
#203 = ORIENTED_EDGE ( 'NONE', *, *, #38, .T. ) ;
#204 = ORIENTED_EDGE ( 'NONE', *, *, #114, .F. ) ;
#205 = VECTOR ( 'NONE', #299, 39.37007874015747433 ) ;
#206 = PRODUCT_CONTEXT ( 'NONE', #71, 'mechanical' ) ;
#207 = ORIENTED_EDGE ( 'NONE', *, *, #132, .F. ) ;
#208 = CARTESIAN_POINT ( 'NONE',  ( 0.000000000000000000, 0.000000000000000000, 2.229093999999999465 ) ) ;
#209 = CARTESIAN_POINT ( 'NONE',  ( 0.1031100000000002570, 1.262733314600838667E-17, 2.244094000000000033 ) ) ;
#210 = CARTESIAN_POINT ( 'NONE',  ( 7.714307363656999460E-17, 0.000000000000000000, 0.6299209999999999532 ) ) ;
#211 = EDGE_CURVE ( 'NONE', #181, #176, #72, .T. ) ;
#212 = DIRECTION ( 'NONE',  ( -1.000000000000000000, 0.000000000000000000, 1.224646799147353454E-16 ) ) ;
#213 = DIRECTION ( 'NONE',  ( 1.000000000000000000, 0.000000000000000000, 0.000000000000000000 ) ) ;
#214 = LENGTH_MEASURE_WITH_UNIT ( LENGTH_MEASURE( 0.02539999999999999897 ), #261 );
#215 = CONICAL_SURFACE ( 'NONE', #194, 0.1031100000000002570, 0.7853981633974318477 ) ;
#216 = DIRECTION ( 'NONE',  ( -1.224646799147353207E-16, -0.000000000000000000, -1.000000000000000000 ) ) ;
#217 = FILL_AREA_STYLE_COLOUR ( '', #141 ) ;
#218 = DIRECTION ( 'NONE',  ( -1.000000000000000000, 0.000000000000000000, 0.000000000000000000 ) ) ;
#219 = EDGE_CURVE ( 'NONE', #176, #290, #173, .T. ) ;
#220 = ADVANCED_FACE ( 'NONE', ( #250 ), #34, .T. ) ;
#221 = ORIENTED_EDGE ( 'NONE', *, *, #50, .T. ) ;
#222 = AXIS2_PLACEMENT_3D ( 'NONE', #48, #234, #213 ) ;
#223 = VERTEX_POINT ( 'NONE', #8 ) ;
#224 = PRODUCT_DEFINITION_CONTEXT ( 'detailed design', #272, 'design' ) ;
#225 = EDGE_LOOP ( 'NONE', ( #63, #221, #60, #243 ) ) ;
#226 = ORIENTED_EDGE ( 'NONE', *, *, #132, .T. ) ;
#227 = MECHANICAL_DESIGN_GEOMETRIC_PRESENTATION_REPRESENTATION (  '', ( #288 ), #150 ) ;
#228 = FACE_OUTER_BOUND ( 'NONE', #17, .T. ) ;
#229 = DIRECTION ( 'NONE',  ( -1.000000000000000000, 0.000000000000000000, 0.000000000000000000 ) ) ;
#230 = DIRECTION ( 'NONE',  ( 0.000000000000000000, 0.000000000000000000, -1.000000000000000000 ) ) ;
#231 = AXIS2_PLACEMENT_3D ( 'NONE', #87, #165, #139 ) ;
#232 = MECHANICAL_DESIGN_GEOMETRIC_PRESENTATION_REPRESENTATION (  '', ( #109 ), #285 ) ;
#233 = CARTESIAN_POINT ( 'NONE',  ( 0.1179918899999999882, 1.444983904138465938E-17, 0.000000000000000000 ) ) ;
#234 = DIRECTION ( 'NONE',  ( -1.224646799147353207E-16, -0.000000000000000000, -1.000000000000000000 ) ) ;
#235 = DIRECTION ( 'NONE',  ( 1.224646799147353207E-16, 0.000000000000000000, 1.000000000000000000 ) ) ;
#236 = CONICAL_SURFACE ( 'NONE', #103, 0.1179918899999999882, 0.1745329251994339192 ) ;
#237 = AXIS2_PLACEMENT_3D ( 'NONE', #143, #216, #149 ) ;
#238 = DIRECTION ( 'NONE',  ( -0.000000000000000000, -0.000000000000000000, -1.000000000000000000 ) ) ;
#239 = UNCERTAINTY_MEASURE_WITH_UNIT (LENGTH_MEASURE( 1.000000000000000082E-05 ), #31, 'distance_accuracy_value', 'NONE');
#240 = ADVANCED_FACE ( 'NONE', ( #286 ), #241, .F. ) ;
#241 = PLANE ( 'NONE',  #129 ) ;
#242 = ADVANCED_FACE ( 'NONE', ( #263 ), #100, .T. ) ;
#243 = ORIENTED_EDGE ( 'NONE', *, *, #101, .F. ) ;
#244 = ORIENTED_EDGE ( 'NONE', *, *, #81, .F. ) ;
#245 = PRODUCT_DEFINITION_FORMATION_WITH_SPECIFIED_SOURCE ( 'ANY', '', #162, .NOT_KNOWN. ) ;
#246 = ORIENTED_EDGE ( 'NONE', *, *, #98, .T. ) ;
#247 = ORIENTED_EDGE ( 'NONE', *, *, #251, .T. ) ;
#248 = DIRECTION ( 'NONE',  ( -1.224646799147353207E-16, -0.000000000000000000, -1.000000000000000000 ) ) ;
#249 = COLOUR_RGB ( '',0.7921568627450980005, 0.8196078431372548767, 0.9333333333333333481 ) ;
#250 = FACE_OUTER_BOUND ( 'NONE', #128, .T. ) ;
#251 = EDGE_CURVE ( 'NONE', #223, #84, #151, .T. ) ;
#252 = DIRECTION ( 'NONE',  ( 0.000000000000000000, 0.000000000000000000, -1.000000000000000000 ) ) ;
#253 = DIRECTION ( 'NONE',  ( -1.000000000000000000, 0.000000000000000000, 0.000000000000000000 ) ) ;
#254 = AXIS2_PLACEMENT_3D ( 'NONE', #171, #73, #218 ) ;
#255 = CARTESIAN_POINT ( 'NONE',  ( 0.1181100000000000066, 1.446430334472939084E-17, 2.229093999999999465 ) ) ;
#256 = CARTESIAN_POINT ( 'NONE',  ( 0.1181100000000000066, 1.446430334472939084E-17, 2.244094000000000033 ) ) ;
#257 = DIMENSIONAL_EXPONENTS ( 1.000000000000000000, 0.000000000000000000, 0.000000000000000000, 0.000000000000000000, 0.000000000000000000, 0.000000000000000000, 0.000000000000000000 ) ;
#258 = SURFACE_STYLE_USAGE ( .BOTH. , #126 ) ;
#259 = AXIS2_PLACEMENT_3D ( 'NONE', #284, #235, #192 ) ;
#260 = ADVANCED_FACE ( 'NONE', ( #195 ), #57, .T. ) ;
#261 =( LENGTH_UNIT ( ) NAMED_UNIT ( * ) SI_UNIT ( $, .METRE. ) );
#262 = ADVANCED_BREP_SHAPE_REPRESENTATION ( 'Micro_AEMM-060-4X', ( #281, #163 ), #53 ) ;
#263 = FACE_OUTER_BOUND ( 'NONE', #42, .T. ) ;
#264 = DIRECTION ( 'NONE',  ( 1.000000000000000000, 0.000000000000000000, -0.000000000000000000 ) ) ;
#265 = CARTESIAN_POINT ( 'NONE',  ( -0.1179918899999999882, 0.000000000000000000, 1.444983904138465938E-17 ) ) ;
#266 =( NAMED_UNIT ( * ) PLANE_ANGLE_UNIT ( ) SI_UNIT ( $, .RADIAN. ) );
#267 = ORIENTED_EDGE ( 'NONE', *, *, #114, .T. ) ;
#268 = CARTESIAN_POINT ( 'NONE',  ( 0.1179918900000000853, 0.000000000000000000, 0.6299209999999999532 ) ) ;
#269 = VECTOR ( 'NONE', #22, 39.37007874015748143 ) ;
#270 = ADVANCED_FACE ( 'NONE', ( #4 ), #56, .T. ) ;
#271 = VERTEX_POINT ( 'NONE', #99 ) ;
#272 = APPLICATION_CONTEXT ( 'automotive_design' ) ;
#273 = EDGE_LOOP ( 'NONE', ( #204, #158, #179, #62 ) ) ;
#274 = LINE ( 'NONE', #92, #269 ) ;
#275 = CIRCLE ( 'NONE', #145, 0.1179918899999999882 ) ;
#276 = ADVANCED_FACE ( 'NONE', ( #75 ), #215, .T. ) ;
#277 = PRODUCT_DEFINITION ( 'UNKNOWN', '', #245, #224 ) ;
#278 = DIRECTION ( 'NONE',  ( -1.224646799147353207E-16, -0.000000000000000000, -1.000000000000000000 ) ) ;
#279 = CARTESIAN_POINT ( 'NONE',  ( 0.000000000000000000, 0.000000000000000000, 0.000000000000000000 ) ) ;
#281 = MANIFOLD_SOLID_BREP ( 'Cut-Revolve1', #108 ) ;
#280 = DIRECTION ( 'NONE',  ( 1.000000000000000000, 0.000000000000000000, -0.000000000000000000 ) ) ;
#282 = VECTOR ( 'NONE', #131, 39.37007874015748143 ) ;
#283 = FACE_OUTER_BOUND ( 'NONE', #130, .T. ) ;
#284 = CARTESIAN_POINT ( 'NONE',  ( 7.714307363656999460E-17, 0.000000000000000000, 0.6299209999999999532 ) ) ;
#285 =( GEOMETRIC_REPRESENTATION_CONTEXT ( 3 ) GLOBAL_UNCERTAINTY_ASSIGNED_CONTEXT ( ( #78 ) ) GLOBAL_UNIT_ASSIGNED_CONTEXT ( ( #133, #177, #58 ) ) REPRESENTATION_CONTEXT ( 'NONE', 'WORKASPACE' ) );
#286 = FACE_OUTER_BOUND ( 'NONE', #14, .T. ) ;
#287 = DIRECTION ( 'NONE',  ( 0.000000000000000000, 0.000000000000000000, -1.000000000000000000 ) ) ;
#288 = STYLED_ITEM ( 'NONE', ( #28 ), #281 ) ;
#289 = ORIENTED_EDGE ( 'NONE', *, *, #89, .T. ) ;
#290 = VERTEX_POINT ( 'NONE', #191 ) ;
#291 =( NAMED_UNIT ( * ) SI_UNIT ( $, .STERADIAN. ) SOLID_ANGLE_UNIT ( ) );
#292 = ORIENTED_EDGE ( 'NONE', *, *, #211, .F. ) ;
#293 = EDGE_LOOP ( 'NONE', ( #267, #175, #244, #106 ) ) ;
#294 = APPLICATION_PROTOCOL_DEFINITION ( 'draft international standard', 'automotive_design', 1998, #71 ) ;
#295 = ORIENTED_EDGE ( 'NONE', *, *, #101, .T. ) ;
#296 = DIRECTION ( 'NONE',  ( -0.000000000000000000, -0.000000000000000000, -1.000000000000000000 ) ) ;
#297 = EDGE_CURVE ( 'NONE', #155, #13, #94, .T. ) ;
#298 = DIRECTION ( 'NONE',  ( 1.224646799147353207E-16, 0.000000000000000000, 1.000000000000000000 ) ) ;
#299 = DIRECTION ( 'NONE',  ( -0.1736481776669312194, 2.126576849575783625E-17, 0.9848077530122080203 ) ) ;
ENDSEC;
END-ISO-10303-21;
