ISO-10303-21;
HEADER;
FILE_DESCRIPTION (( 'STEP AP214' ),
    '1' );
FILE_NAME ('82267.STEP',
    '2023-06-23T04:53:29',
    ( '' ),
    ( '' ),
    'SwSTEP 2.0',
    'SolidWorks 2023',
    '' );
FILE_SCHEMA (( 'AUTOMOTIVE_DESIGN' ));
ENDSEC;

DATA;
#1 = SURFACE_STYLE_FILL_AREA ( #170 ) ;
#2 = LENGTH_MEASURE_WITH_UNIT ( LENGTH_MEASURE( 0.02539999999999999897 ), #235 );
#3 =( GEOMETRIC_REPRESENTATION_CONTEXT ( 3 ) GLOBAL_UNCERTAINTY_ASSIGNED_CONTEXT ( ( #34 ) ) GLOBAL_UNIT_ASSIGNED_CONTEXT ( ( #233, #27, #207 ) ) REPRESENTATION_CONTEXT ( 'NONE', 'WORKASPACE' ) );
#4 = DIRECTION ( 'NONE',  ( 0.000000000000000000, -0.000000000000000000, 1.000000000000000000 ) ) ;
#5 = ORIENTED_EDGE ( 'NONE', *, *, #230, .T. ) ;
#6 = CARTESIAN_POINT ( 'NONE',  ( 0.000000000000000000, 0.8750000000000000000, 0.000000000000000000 ) ) ;
#7 = CARTESIAN_POINT ( 'NONE',  ( 0.1875000000000000278, 3.000000000000000444, 2.296212748401288650E-17 ) ) ;
#8 = DIRECTION ( 'NONE',  ( -5.763043760693429322E-17, 1.000000000000000000, -0.000000000000000000 ) ) ;
#9 = DIRECTION ( 'NONE',  ( -5.763043760693429322E-17, 1.000000000000000000, 0.000000000000000000 ) ) ;
#10 = LENGTH_MEASURE_WITH_UNIT ( LENGTH_MEASURE( 0.02539999999999999897 ), #112 );
#11 =( GEOMETRIC_REPRESENTATION_CONTEXT ( 3 ) GLOBAL_UNCERTAINTY_ASSIGNED_CONTEXT ( ( #80 ) ) GLOBAL_UNIT_ASSIGNED_CONTEXT ( ( #29, #102, #213 ) ) REPRESENTATION_CONTEXT ( 'NONE', 'WORKASPACE' ) );
#12 = VERTEX_POINT ( 'NONE', #83 ) ;
#13 = ORIENTED_EDGE ( 'NONE', *, *, #90, .T. ) ;
#14 = PRESENTATION_STYLE_ASSIGNMENT (( #40 ) ) ;
#15 = EDGE_CURVE ( 'NONE', #271, #288, #68, .T. ) ;
#16 = STYLED_ITEM ( 'NONE', ( #89 ), #287 ) ;
#17 = SHAPE_DEFINITION_REPRESENTATION ( #54, #173 ) ;
#18 =( NAMED_UNIT ( * ) PLANE_ANGLE_UNIT ( ) SI_UNIT ( $, .RADIAN. ) );
#19 = DIRECTION ( 'NONE',  ( -0.000000000000000000, -1.000000000000000000, -0.000000000000000000 ) ) ;
#20 = MECHANICAL_DESIGN_GEOMETRIC_PRESENTATION_REPRESENTATION (  '', ( #182 ), #3 ) ;
#21 = AXIS2_PLACEMENT_3D ( 'NONE', #244, #267, #296 ) ;
#22 =( LENGTH_UNIT ( ) NAMED_UNIT ( * ) SI_UNIT ( $, .METRE. ) );
#23 = EDGE_CURVE ( 'NONE', #303, #12, #171, .T. ) ;
#24 = UNCERTAINTY_MEASURE_WITH_UNIT (LENGTH_MEASURE( 1.000000000000000082E-05 ), #38, 'distance_accuracy_value', 'NONE');
#25 = CARTESIAN_POINT ( 'NONE',  ( 0.1875000000000000278, 3.000000000000000444, 0.000000000000000000 ) ) ;
#26 = SURFACE_STYLE_FILL_AREA ( #256 ) ;
#27 =( NAMED_UNIT ( * ) PLANE_ANGLE_UNIT ( ) SI_UNIT ( $, .RADIAN. ) );
#28 = DIMENSIONAL_EXPONENTS ( 1.000000000000000000, 0.000000000000000000, 0.000000000000000000, 0.000000000000000000, 0.000000000000000000, 0.000000000000000000, 0.000000000000000000 ) ;
#29 =( CONVERSION_BASED_UNIT ( 'INCH', #2 ) LENGTH_UNIT ( ) NAMED_UNIT ( #101 ) );
#30 = DIMENSIONAL_EXPONENTS ( 1.000000000000000000, 0.000000000000000000, 0.000000000000000000, 0.000000000000000000, 0.000000000000000000, 0.000000000000000000, 0.000000000000000000 ) ;
#31 = CARTESIAN_POINT ( 'NONE',  ( 2.296212748401287726E-17, 0.000000000000000000, 0.1875000000000000278 ) ) ;
#32 = CIRCLE ( 'NONE', #167, 0.1875000000000000278 ) ;
#33 = PLANE ( 'NONE',  #291 ) ;
#34 = UNCERTAINTY_MEASURE_WITH_UNIT (LENGTH_MEASURE( 1.000000000000000082E-05 ), #233, 'distance_accuracy_value', 'NONE');
#35 = SURFACE_STYLE_USAGE ( .BOTH. , #184 ) ;
#36 = ORIENTED_EDGE ( 'NONE', *, *, #305, .T. ) ;
#37 = PLANE ( 'NONE',  #185 ) ;
#38 =( CONVERSION_BASED_UNIT ( 'INCH', #10 ) LENGTH_UNIT ( ) NAMED_UNIT ( #169 ) );
#39 = EDGE_LOOP ( 'NONE', ( #175, #69, #239, #214 ) ) ;
#40 = SURFACE_STYLE_USAGE ( .BOTH. , #67 ) ;
#41 = MECHANICAL_DESIGN_GEOMETRIC_PRESENTATION_REPRESENTATION (  '', ( #301 ), #11 ) ;
#42 = DIRECTION ( 'NONE',  ( -5.763043760693429322E-17, 1.000000000000000000, -0.000000000000000000 ) ) ;
#43 = EDGE_LOOP ( 'NONE', ( #153, #293, #290, #113 ) ) ;
#44 = CARTESIAN_POINT ( 'NONE',  ( -1.224646799147353700E-16, 3.000000000000000444, 0.000000000000000000 ) ) ;
#45 =( GEOMETRIC_REPRESENTATION_CONTEXT ( 3 ) GLOBAL_UNCERTAINTY_ASSIGNED_CONTEXT ( ( #24 ) ) GLOBAL_UNIT_ASSIGNED_CONTEXT ( ( #38, #174, #196 ) ) REPRESENTATION_CONTEXT ( 'NONE', 'WORKASPACE' ) );
#46 = ORIENTED_EDGE ( 'NONE', *, *, #59, .F. ) ;
#47 = DIRECTION ( 'NONE',  ( 0.000000000000000000, 0.000000000000000000, -1.000000000000000000 ) ) ;
#48 =( NAMED_UNIT ( * ) SI_UNIT ( $, .STERADIAN. ) SOLID_ANGLE_UNIT ( ) );
#49 =( LENGTH_UNIT ( ) NAMED_UNIT ( * ) SI_UNIT ( $, .METRE. ) );
#50 = APPLICATION_PROTOCOL_DEFINITION ( 'draft international standard', 'automotive_design', 1998, #94 ) ;
#51 = FILL_AREA_STYLE_COLOUR ( '', #223 ) ;
#52 = CIRCLE ( 'NONE', #58, 0.1875000000000001388 ) ;
#53 = DIRECTION ( 'NONE',  ( -1.000000000000000000, 0.000000000000000000, 0.000000000000000000 ) ) ;
#54 = PRODUCT_DEFINITION_SHAPE ( 'NONE', 'NONE',  #225 ) ;
#55 = DIRECTION ( 'NONE',  ( -1.000000000000000000, 0.000000000000000000, 0.000000000000000000 ) ) ;
#56 = DIRECTION ( 'NONE',  ( 0.000000000000000000, 0.000000000000000000, -1.000000000000000000 ) ) ;
#57 = DIRECTION ( 'NONE',  ( 0.000000000000000000, 0.000000000000000000, -1.000000000000000000 ) ) ;
#58 = AXIS2_PLACEMENT_3D ( 'NONE', #116, #273, #55 ) ;
#59 = EDGE_CURVE ( 'NONE', #12, #228, #84, .T. ) ;
#60 = EDGE_LOOP ( 'NONE', ( #70, #248, #268, #137 ) ) ;
#61 = COLOUR_RGB ( '',1.000000000000000000, 0.000000000000000000, 0.000000000000000000 ) ;
#62 = VECTOR ( 'NONE', #142, 39.37007874015748143 ) ;
#63 = CARTESIAN_POINT ( 'NONE',  ( 0.000000000000000000, 0.000000000000000000, 0.000000000000000000 ) ) ;
#64 = AXIS2_PLACEMENT_3D ( 'NONE', #299, #278, #123 ) ;
#65 = SURFACE_STYLE_FILL_AREA ( #198 ) ;
#66 = EDGE_LOOP ( 'NONE', ( #87, #243 ) ) ;
#67 = SURFACE_SIDE_STYLE ('',( #1 ) ) ;
#68 = LINE ( 'NONE', #108, #136 ) ;
#69 = ORIENTED_EDGE ( 'NONE', *, *, #95, .T. ) ;
#70 = ORIENTED_EDGE ( 'NONE', *, *, #305, .F. ) ;
#71 = AXIS2_PLACEMENT_3D ( 'NONE', #99, #282, #224 ) ;
#72 = PRESENTATION_LAYER_ASSIGNMENT (  '', '', ( #16 ) ) ;
#73 = DIRECTION ( 'NONE',  ( -5.763043760693429322E-17, 1.000000000000000000, -0.000000000000000000 ) ) ;
#74 = EDGE_CURVE ( 'NONE', #303, #193, #232, .T. ) ;
#75 = FACE_OUTER_BOUND ( 'NONE', #218, .T. ) ;
#76 = MECHANICAL_DESIGN_GEOMETRIC_PRESENTATION_REPRESENTATION (  '', ( #211 ), #97 ) ;
#77 = ADVANCED_FACE ( 'NONE', ( #247 ), #81, .T. ) ;
#78 =( CONVERSION_BASED_UNIT ( 'INCH', #302 ) LENGTH_UNIT ( ) NAMED_UNIT ( #30 ) );
#79 = FACE_OUTER_BOUND ( 'NONE', #88, .T. ) ;
#80 = UNCERTAINTY_MEASURE_WITH_UNIT (LENGTH_MEASURE( 1.000000000000000082E-05 ), #29, 'distance_accuracy_value', 'NONE');
#81 = CYLINDRICAL_SURFACE ( 'NONE', #204, 0.1875000000000000833 ) ;
#82 = FILL_AREA_STYLE_COLOUR ( '', #61 ) ;
#83 = CARTESIAN_POINT ( 'NONE',  ( -0.1875000000000002776, 3.000000000000000444, 0.000000000000000000 ) ) ;
#84 = CIRCLE ( 'NONE', #177, 0.1875000000000001388 ) ;
#85 = FILL_AREA_STYLE_COLOUR ( '', #238 ) ;
#86 = DIRECTION ( 'NONE',  ( -1.000000000000000000, 0.000000000000000000, 0.000000000000000000 ) ) ;
#87 = ORIENTED_EDGE ( 'NONE', *, *, #74, .F. ) ;
#88 = EDGE_LOOP ( 'NONE', ( #159, #13 ) ) ;
#89 = PRESENTATION_STYLE_ASSIGNMENT (( #221 ) ) ;
#90 = EDGE_CURVE ( 'NONE', #228, #12, #52, .T. ) ;
#91 = DIRECTION ( 'NONE',  ( 0.000000000000000000, -1.000000000000000000, -0.000000000000000000 ) ) ;
#92 = LINE ( 'NONE', #283, #62 ) ;
#93 = LINE ( 'NONE', #275, #265 ) ;
#94 = APPLICATION_CONTEXT ( 'automotive_design' ) ;
#95 = EDGE_CURVE ( 'NONE', #212, #271, #297, .T. ) ;
#96 = DIRECTION ( 'NONE',  ( -1.000000000000000000, 0.000000000000000000, 0.000000000000000000 ) ) ;
#97 =( GEOMETRIC_REPRESENTATION_CONTEXT ( 3 ) GLOBAL_UNCERTAINTY_ASSIGNED_CONTEXT ( ( #188 ) ) GLOBAL_UNIT_ASSIGNED_CONTEXT ( ( #122, #119, #48 ) ) REPRESENTATION_CONTEXT ( 'NONE', 'WORKASPACE' ) );
#98 = FACE_OUTER_BOUND ( 'NONE', #39, .T. ) ;
#99 = CARTESIAN_POINT ( 'NONE',  ( 0.000000000000000000, 0.000000000000000000, 0.000000000000000000 ) ) ;
#100 = MECHANICAL_DESIGN_GEOMETRIC_PRESENTATION_REPRESENTATION (  '', ( #222 ), #45 ) ;
#101 = DIMENSIONAL_EXPONENTS ( 1.000000000000000000, 0.000000000000000000, 0.000000000000000000, 0.000000000000000000, 0.000000000000000000, 0.000000000000000000, 0.000000000000000000 ) ;
#102 =( NAMED_UNIT ( * ) PLANE_ANGLE_UNIT ( ) SI_UNIT ( $, .RADIAN. ) );
#103 = DIRECTION ( 'NONE',  ( 0.000000000000000000, 0.000000000000000000, -1.000000000000000000 ) ) ;
#104 = ADVANCED_FACE ( 'NONE', ( #209 ), #37, .F. ) ;
#105 = PRODUCT_DEFINITION_CONTEXT ( 'detailed design', #111, 'design' ) ;
#106 = CIRCLE ( 'NONE', #120, 0.1875000000000000278 ) ;
#107 = PRESENTATION_STYLE_ASSIGNMENT (( #151 ) ) ;
#108 = CARTESIAN_POINT ( 'NONE',  ( 0.000000000000000000, 0.000000000000000000, -0.1875000000000000278 ) ) ;
#109 = PLANE ( 'NONE',  #168 ) ;
#110 = DIRECTION ( 'NONE',  ( -1.000000000000000000, -5.763043760693429322E-17, 0.000000000000000000 ) ) ;
#111 = APPLICATION_CONTEXT ( 'automotive_design' ) ;
#112 =( LENGTH_UNIT ( ) NAMED_UNIT ( * ) SI_UNIT ( $, .METRE. ) );
#113 = ORIENTED_EDGE ( 'NONE', *, *, #15, .F. ) ;
#114 = EDGE_CURVE ( 'NONE', #212, #190, #92, .T. ) ;
#115 = PRESENTATION_LAYER_ASSIGNMENT (  '', '', ( #301 ) ) ;
#116 = CARTESIAN_POINT ( 'NONE',  ( -1.224646799147353700E-16, 3.000000000000000444, 0.000000000000000000 ) ) ;
#117 = DIRECTION ( 'NONE',  ( 0.000000000000000000, 0.000000000000000000, -1.000000000000000000 ) ) ;
#118 = PRESENTATION_STYLE_ASSIGNMENT (( #161 ) ) ;
#119 =( NAMED_UNIT ( * ) PLANE_ANGLE_UNIT ( ) SI_UNIT ( $, .RADIAN. ) );
#120 = AXIS2_PLACEMENT_3D ( 'NONE', #63, #286, #57 ) ;
#121 = CARTESIAN_POINT ( 'NONE',  ( 0.000000000000000000, 0.000000000000000000, -0.1875000000000000278 ) ) ;
#122 =( CONVERSION_BASED_UNIT ( 'INCH', #203 ) LENGTH_UNIT ( ) NAMED_UNIT ( #130 ) );
#123 = DIRECTION ( 'NONE',  ( 1.000000000000000000, 0.000000000000000000, 0.000000000000000000 ) ) ;
#124 = SURFACE_STYLE_FILL_AREA ( #277 ) ;
#125 = DIMENSIONAL_EXPONENTS ( 1.000000000000000000, 0.000000000000000000, 0.000000000000000000, 0.000000000000000000, 0.000000000000000000, 0.000000000000000000, 0.000000000000000000 ) ;
#126 = FILL_AREA_STYLE ('',( #147 ) ) ;
#127 = CARTESIAN_POINT ( 'NONE',  ( 0.000000000000000000, 0.000000000000000000, 0.000000000000000000 ) ) ;
#128 = MECHANICAL_DESIGN_GEOMETRIC_PRESENTATION_REPRESENTATION (  '', ( #308 ), #144 ) ;
#129 =( GEOMETRIC_REPRESENTATION_CONTEXT ( 3 ) GLOBAL_UNCERTAINTY_ASSIGNED_CONTEXT ( ( #227 ) ) GLOBAL_UNIT_ASSIGNED_CONTEXT ( ( #272, #139, #163 ) ) REPRESENTATION_CONTEXT ( 'NONE', 'WORKASPACE' ) );
#130 = DIMENSIONAL_EXPONENTS ( 1.000000000000000000, 0.000000000000000000, 0.000000000000000000, 0.000000000000000000, 0.000000000000000000, 0.000000000000000000, 0.000000000000000000 ) ;
#131 = ADVANCED_FACE ( 'NONE', ( #98 ), #141, .T. ) ;
#132 = SURFACE_STYLE_FILL_AREA ( #187 ) ;
#133 = ORIENTED_EDGE ( 'NONE', *, *, #23, .F. ) ;
#134 = CARTESIAN_POINT ( 'NONE',  ( 3.113688130093824870E-34, 0.8750000000000000000, 0.000000000000000000 ) ) ;
#135 = ORIENTED_EDGE ( 'NONE', *, *, #74, .T. ) ;
#136 = VECTOR ( 'NONE', #295, 39.37007874015748143 ) ;
#137 = ORIENTED_EDGE ( 'NONE', *, *, #90, .F. ) ;
#138 = FILL_AREA_STYLE_COLOUR ( '', #234 ) ;
#139 =( NAMED_UNIT ( * ) PLANE_ANGLE_UNIT ( ) SI_UNIT ( $, .RADIAN. ) );
#140 = AXIS2_PLACEMENT_3D ( 'NONE', #306, #304, #47 ) ;
#141 = CYLINDRICAL_SURFACE ( 'NONE', #71, 0.1875000000000000278 ) ;
#142 = DIRECTION ( 'NONE',  ( -0.000000000000000000, -1.000000000000000000, -0.000000000000000000 ) ) ;
#143 = SURFACE_STYLE_USAGE ( .BOTH. , #252 ) ;
#144 =( GEOMETRIC_REPRESENTATION_CONTEXT ( 3 ) GLOBAL_UNCERTAINTY_ASSIGNED_CONTEXT ( ( #307 ) ) GLOBAL_UNIT_ASSIGNED_CONTEXT ( ( #253, #18, #279 ) ) REPRESENTATION_CONTEXT ( 'NONE', 'WORKASPACE' ) );
#145 = PLANE ( 'NONE',  #285 ) ;
#146 = DIRECTION ( 'NONE',  ( -5.763043760693429322E-17, 1.000000000000000000, -0.000000000000000000 ) ) ;
#147 = FILL_AREA_STYLE_COLOUR ( '', #274 ) ;
#148 = MANIFOLD_SOLID_BREP ( 'Revolve - Cutting Edge', #260 ) ;
#149 = LENGTH_MEASURE_WITH_UNIT ( LENGTH_MEASURE( 0.02539999999999999897 ), #261 );
#150 = ADVANCED_FACE ( 'NONE', ( #75 ), #202, .T. ) ;
#151 = SURFACE_STYLE_USAGE ( .BOTH. , #236 ) ;
#152 = PRODUCT_DEFINITION_FORMATION_WITH_SPECIFIED_SOURCE ( 'ANY', '', #259, .NOT_KNOWN. ) ;
#153 = ORIENTED_EDGE ( 'NONE', *, *, #284, .T. ) ;
#154 = EDGE_CURVE ( 'NONE', #193, #303, #32, .T. ) ;
#155 = CARTESIAN_POINT ( 'NONE',  ( -0.1875000000000002220, 3.000000000000000444, 0.000000000000000000 ) ) ;
#156 = AXIS2_PLACEMENT_3D ( 'NONE', #127, #208, #103 ) ;
#157 = EDGE_LOOP ( 'NONE', ( #181, #262 ) ) ;
#158 = CARTESIAN_POINT ( 'NONE',  ( -1.224646799147353700E-16, 3.000000000000000444, 0.000000000000000000 ) ) ;
#159 = ORIENTED_EDGE ( 'NONE', *, *, #59, .T. ) ;
#160 = PRESENTATION_LAYER_ASSIGNMENT (  '', '', ( #222 ) ) ;
#161 = SURFACE_STYLE_USAGE ( .BOTH. , #180 ) ;
#162 = LENGTH_MEASURE_WITH_UNIT ( LENGTH_MEASURE( 0.02539999999999999897 ), #49 );
#163 =( NAMED_UNIT ( * ) SI_UNIT ( $, .STERADIAN. ) SOLID_ANGLE_UNIT ( ) );
#164 = DIRECTION ( 'NONE',  ( -5.763043760693429322E-17, 1.000000000000000000, -0.000000000000000000 ) ) ;
#165 = DIRECTION ( 'NONE',  ( 5.763043760693429322E-17, -1.000000000000000000, 0.000000000000000000 ) ) ;
#166 = CARTESIAN_POINT ( 'NONE',  ( 2.296212748401287726E-17, 0.8750000000000000000, 0.1875000000000000278 ) ) ;
#167 = AXIS2_PLACEMENT_3D ( 'NONE', #229, #146, #53 ) ;
#168 = AXIS2_PLACEMENT_3D ( 'NONE', #194, #91, #117 ) ;
#169 = DIMENSIONAL_EXPONENTS ( 1.000000000000000000, 0.000000000000000000, 0.000000000000000000, 0.000000000000000000, 0.000000000000000000, 0.000000000000000000, 0.000000000000000000 ) ;
#170 = FILL_AREA_STYLE ('',( #82 ) ) ;
#171 = LINE ( 'NONE', #155, #206 ) ;
#172 = CLOSED_SHELL ( 'NONE', ( #150, #104, #77, #183 ) ) ;
#173 = ADVANCED_BREP_SHAPE_REPRESENTATION ( '82267', ( #148, #245, #64 ), #186 ) ;
#174 =( NAMED_UNIT ( * ) PLANE_ANGLE_UNIT ( ) SI_UNIT ( $, .RADIAN. ) );
#175 = ORIENTED_EDGE ( 'NONE', *, *, #114, .F. ) ;
#176 = FACE_OUTER_BOUND ( 'NONE', #43, .T. ) ;
#177 = AXIS2_PLACEMENT_3D ( 'NONE', #158, #249, #266 ) ;
#178 = APPLICATION_PROTOCOL_DEFINITION ( 'draft international standard', 'automotive_design', 1998, #111 ) ;
#179 = CIRCLE ( 'NONE', #156, 0.1875000000000000278 ) ;
#180 = SURFACE_SIDE_STYLE ('',( #26 ) ) ;
#181 = ORIENTED_EDGE ( 'NONE', *, *, #284, .F. ) ;
#182 = STYLED_ITEM ( 'NONE', ( #107 ), #263 ) ;
#183 = ADVANCED_FACE ( 'NONE', ( #79 ), #145, .F. ) ;
#184 = SURFACE_SIDE_STYLE ('',( #132 ) ) ;
#185 = AXIS2_PLACEMENT_3D ( 'NONE', #134, #9, #110 ) ;
#186 =( GEOMETRIC_REPRESENTATION_CONTEXT ( 3 ) GLOBAL_UNCERTAINTY_ASSIGNED_CONTEXT ( ( #237 ) ) GLOBAL_UNIT_ASSIGNED_CONTEXT ( ( #78, #257, #201 ) ) REPRESENTATION_CONTEXT ( 'NONE', 'WORKASPACE' ) );
#187 = FILL_AREA_STYLE ('',( #85 ) ) ;
#188 = UNCERTAINTY_MEASURE_WITH_UNIT (LENGTH_MEASURE( 1.000000000000000082E-05 ), #122, 'distance_accuracy_value', 'NONE');
#189 = DIRECTION ( 'NONE',  ( -1.000000000000000000, 0.000000000000000000, 0.000000000000000000 ) ) ;
#190 = VERTEX_POINT ( 'NONE', #31 ) ;
#191 = CARTESIAN_POINT ( 'NONE',  ( 0.1875000000000000278, 0.8749999999999997780, 2.296212748401288650E-17 ) ) ;
#192 = PRESENTATION_LAYER_ASSIGNMENT (  '', '', ( #308 ) ) ;
#193 = VERTEX_POINT ( 'NONE', #191 ) ;
#194 = CARTESIAN_POINT ( 'NONE',  ( 0.000000000000000000, 0.000000000000000000, 0.000000000000000000 ) ) ;
#195 = ORIENTED_EDGE ( 'NONE', *, *, #242, .T. ) ;
#196 =( NAMED_UNIT ( * ) SI_UNIT ( $, .STERADIAN. ) SOLID_ANGLE_UNIT ( ) );
#197 = AXIS2_PLACEMENT_3D ( 'NONE', #199, #164, #96 ) ;
#198 = FILL_AREA_STYLE ('',( #138 ) ) ;
#199 = CARTESIAN_POINT ( 'NONE',  ( -1.224646799147353700E-16, 3.000000000000000444, 0.000000000000000000 ) ) ;
#200 = PRESENTATION_LAYER_ASSIGNMENT (  '', '', ( #182 ) ) ;
#201 =( NAMED_UNIT ( * ) SI_UNIT ( $, .STERADIAN. ) SOLID_ANGLE_UNIT ( ) );
#202 = CYLINDRICAL_SURFACE ( 'NONE', #197, 0.1875000000000000833 ) ;
#203 = LENGTH_MEASURE_WITH_UNIT ( LENGTH_MEASURE( 0.02539999999999999897 ), #300 );
#204 = AXIS2_PLACEMENT_3D ( 'NONE', #44, #42, #189 ) ;
#205 = FILL_AREA_STYLE_COLOUR ( '', #254 ) ;
#206 = VECTOR ( 'NONE', #292, 39.37007874015748143 ) ;
#207 =( NAMED_UNIT ( * ) SI_UNIT ( $, .STERADIAN. ) SOLID_ANGLE_UNIT ( ) );
#208 = DIRECTION ( 'NONE',  ( -0.000000000000000000, -1.000000000000000000, -0.000000000000000000 ) ) ;
#209 = FACE_OUTER_BOUND ( 'NONE', #66, .T. ) ;
#210 = DIRECTION ( 'NONE',  ( 0.000000000000000000, 1.000000000000000000, 0.000000000000000000 ) ) ;
#211 = STYLED_ITEM ( 'NONE', ( #309 ), #131 ) ;
#212 = VERTEX_POINT ( 'NONE', #166 ) ;
#213 =( NAMED_UNIT ( * ) SI_UNIT ( $, .STERADIAN. ) SOLID_ANGLE_UNIT ( ) );
#214 = ORIENTED_EDGE ( 'NONE', *, *, #230, .F. ) ;
#215 = CARTESIAN_POINT ( 'NONE',  ( 1.516480271171051896E-32, 0.8749999999999997780, 0.000000000000000000 ) ) ;
#216 = LENGTH_MEASURE_WITH_UNIT ( LENGTH_MEASURE( 0.02539999999999999897 ), #220 );
#217 = PRESENTATION_LAYER_ASSIGNMENT (  '', '', ( #211 ) ) ;
#218 = EDGE_LOOP ( 'NONE', ( #135, #36, #46, #133 ) ) ;
#219 = EDGE_LOOP ( 'NONE', ( #195, #5 ) ) ;
#220 =( LENGTH_UNIT ( ) NAMED_UNIT ( * ) SI_UNIT ( $, .METRE. ) );
#221 = SURFACE_STYLE_USAGE ( .BOTH. , #298 ) ;
#222 = STYLED_ITEM ( 'NONE', ( #14 ), #270 ) ;
#223 = COLOUR_RGB ( '',0.7921568627450980005, 0.8196078431372548767, 0.9333333333333333481 ) ;
#224 = DIRECTION ( 'NONE',  ( 0.000000000000000000, 0.000000000000000000, -1.000000000000000000 ) ) ;
#225 = PRODUCT_DEFINITION ( 'UNKNOWN', '', #152, #105 ) ;
#226 = CARTESIAN_POINT ( 'NONE',  ( -0.1875000000000000278, 0.8749999999999997780, 0.000000000000000000 ) ) ;
#227 = UNCERTAINTY_MEASURE_WITH_UNIT (LENGTH_MEASURE( 1.000000000000000082E-05 ), #272, 'distance_accuracy_value', 'NONE');
#228 = VERTEX_POINT ( 'NONE', #7 ) ;
#229 = CARTESIAN_POINT ( 'NONE',  ( 1.516480271171051896E-32, 0.8749999999999997780, 0.000000000000000000 ) ) ;
#230 = EDGE_CURVE ( 'NONE', #190, #288, #106, .T. ) ;
#231 = DIRECTION ( 'NONE',  ( 1.000000000000000000, 5.763043760693429322E-17, 0.000000000000000000 ) ) ;
#232 = CIRCLE ( 'NONE', #280, 0.1875000000000000278 ) ;
#233 =( CONVERSION_BASED_UNIT ( 'INCH', #149 ) LENGTH_UNIT ( ) NAMED_UNIT ( #125 ) );
#234 = COLOUR_RGB ( '',1.000000000000000000, 0.000000000000000000, 0.000000000000000000 ) ;
#235 =( LENGTH_UNIT ( ) NAMED_UNIT ( * ) SI_UNIT ( $, .METRE. ) );
#236 = SURFACE_SIDE_STYLE ('',( #264 ) ) ;
#237 = UNCERTAINTY_MEASURE_WITH_UNIT (LENGTH_MEASURE( 1.000000000000000082E-05 ), #78, 'distance_accuracy_value', 'NONE');
#238 = COLOUR_RGB ( '',0.7921568627450980005, 0.8196078431372548767, 0.9333333333333333481 ) ;
#239 = ORIENTED_EDGE ( 'NONE', *, *, #15, .T. ) ;
#240 = DIMENSIONAL_EXPONENTS ( 1.000000000000000000, 0.000000000000000000, 0.000000000000000000, 0.000000000000000000, 0.000000000000000000, 0.000000000000000000, 0.000000000000000000 ) ;
#241 = FACE_OUTER_BOUND ( 'NONE', #157, .T. ) ;
#242 = EDGE_CURVE ( 'NONE', #288, #190, #179, .T. ) ;
#243 = ORIENTED_EDGE ( 'NONE', *, *, #154, .F. ) ;
#244 = CARTESIAN_POINT ( 'NONE',  ( 0.000000000000000000, 0.8750000000000000000, 0.000000000000000000 ) ) ;
#245 = MANIFOLD_SOLID_BREP ( 'Revolve - Tool Body (Straight Shanked)', #172 ) ;
#246 = AXIS2_PLACEMENT_3D ( 'NONE', #276, #19, #56 ) ;
#247 = FACE_OUTER_BOUND ( 'NONE', #60, .T. ) ;
#248 = ORIENTED_EDGE ( 'NONE', *, *, #154, .T. ) ;
#249 = DIRECTION ( 'NONE',  ( -5.763043760693429322E-17, 1.000000000000000000, -0.000000000000000000 ) ) ;
#250 = PRODUCT_RELATED_PRODUCT_CATEGORY ( 'part', '', ( #259 ) ) ;
#251 = PRODUCT_CONTEXT ( 'NONE', #94, 'mechanical' ) ;
#252 = SURFACE_SIDE_STYLE ('',( #124 ) ) ;
#253 =( CONVERSION_BASED_UNIT ( 'INCH', #162 ) LENGTH_UNIT ( ) NAMED_UNIT ( #28 ) );
#254 = COLOUR_RGB ( '',1.000000000000000000, 0.000000000000000000, 0.000000000000000000 ) ;
#255 = MECHANICAL_DESIGN_GEOMETRIC_PRESENTATION_REPRESENTATION (  '', ( #16 ), #129 ) ;
#256 = FILL_AREA_STYLE ('',( #51 ) ) ;
#257 =( NAMED_UNIT ( * ) PLANE_ANGLE_UNIT ( ) SI_UNIT ( $, .RADIAN. ) );
#258 = PRESENTATION_STYLE_ASSIGNMENT (( #35 ) ) ;
#259 = PRODUCT ( '82267', '82267', '', ( #251 ) ) ;
#260 = CLOSED_SHELL ( 'NONE', ( #287, #263, #131, #270 ) ) ;
#261 =( LENGTH_UNIT ( ) NAMED_UNIT ( * ) SI_UNIT ( $, .METRE. ) );
#262 = ORIENTED_EDGE ( 'NONE', *, *, #95, .F. ) ;
#263 = ADVANCED_FACE ( 'NONE', ( #241 ), #33, .T. ) ;
#264 = SURFACE_STYLE_FILL_AREA ( #126 ) ;
#265 = VECTOR ( 'NONE', #73, 39.37007874015748143 ) ;
#266 = DIRECTION ( 'NONE',  ( -1.000000000000000000, 0.000000000000000000, 0.000000000000000000 ) ) ;
#267 = DIRECTION ( 'NONE',  ( -0.000000000000000000, -1.000000000000000000, -0.000000000000000000 ) ) ;
#268 = ORIENTED_EDGE ( 'NONE', *, *, #23, .T. ) ;
#269 = CYLINDRICAL_SURFACE ( 'NONE', #140, 0.1875000000000000278 ) ;
#270 = ADVANCED_FACE ( 'NONE', ( #289 ), #109, .T. ) ;
#271 = VERTEX_POINT ( 'NONE', #294 ) ;
#272 =( CONVERSION_BASED_UNIT ( 'INCH', #216 ) LENGTH_UNIT ( ) NAMED_UNIT ( #240 ) );
#273 = DIRECTION ( 'NONE',  ( -5.763043760693429322E-17, 1.000000000000000000, -0.000000000000000000 ) ) ;
#274 = COLOUR_RGB ( '',1.000000000000000000, 0.000000000000000000, 0.000000000000000000 ) ;
#275 = CARTESIAN_POINT ( 'NONE',  ( 0.1874999999999999445, 3.000000000000000444, 2.296212748401288342E-17 ) ) ;
#276 = CARTESIAN_POINT ( 'NONE',  ( 0.000000000000000000, 0.8750000000000000000, 0.000000000000000000 ) ) ;
#277 = FILL_AREA_STYLE ('',( #205 ) ) ;
#278 = DIRECTION ( 'NONE',  ( 0.000000000000000000, 0.000000000000000000, 1.000000000000000000 ) ) ;
#279 =( NAMED_UNIT ( * ) SI_UNIT ( $, .STERADIAN. ) SOLID_ANGLE_UNIT ( ) );
#280 = AXIS2_PLACEMENT_3D ( 'NONE', #215, #8, #86 ) ;
#281 = CIRCLE ( 'NONE', #21, 0.1875000000000000278 ) ;
#282 = DIRECTION ( 'NONE',  ( -0.000000000000000000, -1.000000000000000000, -0.000000000000000000 ) ) ;
#283 = CARTESIAN_POINT ( 'NONE',  ( 2.296212748401287726E-17, 0.000000000000000000, 0.1875000000000000278 ) ) ;
#284 = EDGE_CURVE ( 'NONE', #271, #212, #281, .T. ) ;
#285 = AXIS2_PLACEMENT_3D ( 'NONE', #25, #165, #231 ) ;
#286 = DIRECTION ( 'NONE',  ( -0.000000000000000000, -1.000000000000000000, -0.000000000000000000 ) ) ;
#287 = ADVANCED_FACE ( 'NONE', ( #176 ), #269, .T. ) ;
#288 = VERTEX_POINT ( 'NONE', #121 ) ;
#289 = FACE_OUTER_BOUND ( 'NONE', #219, .T. ) ;
#290 = ORIENTED_EDGE ( 'NONE', *, *, #242, .F. ) ;
#291 = AXIS2_PLACEMENT_3D ( 'NONE', #6, #210, #4 ) ;
#292 = DIRECTION ( 'NONE',  ( -5.763043760693429322E-17, 1.000000000000000000, -0.000000000000000000 ) ) ;
#293 = ORIENTED_EDGE ( 'NONE', *, *, #114, .T. ) ;
#294 = CARTESIAN_POINT ( 'NONE',  ( 0.000000000000000000, 0.8750000000000000000, -0.1875000000000000278 ) ) ;
#295 = DIRECTION ( 'NONE',  ( -0.000000000000000000, -1.000000000000000000, -0.000000000000000000 ) ) ;
#296 = DIRECTION ( 'NONE',  ( 0.000000000000000000, 0.000000000000000000, -1.000000000000000000 ) ) ;
#297 = CIRCLE ( 'NONE', #246, 0.1875000000000000278 ) ;
#298 = SURFACE_SIDE_STYLE ('',( #65 ) ) ;
#299 = CARTESIAN_POINT ( 'NONE',  ( 0.000000000000000000, 0.000000000000000000, 0.000000000000000000 ) ) ;
#300 =( LENGTH_UNIT ( ) NAMED_UNIT ( * ) SI_UNIT ( $, .METRE. ) );
#301 = STYLED_ITEM ( 'NONE', ( #258 ), #245 ) ;
#302 = LENGTH_MEASURE_WITH_UNIT ( LENGTH_MEASURE( 0.02539999999999999897 ), #22 );
#303 = VERTEX_POINT ( 'NONE', #226 ) ;
#304 = DIRECTION ( 'NONE',  ( -0.000000000000000000, -1.000000000000000000, -0.000000000000000000 ) ) ;
#305 = EDGE_CURVE ( 'NONE', #193, #228, #93, .T. ) ;
#306 = CARTESIAN_POINT ( 'NONE',  ( 0.000000000000000000, 0.000000000000000000, 0.000000000000000000 ) ) ;
#307 = UNCERTAINTY_MEASURE_WITH_UNIT (LENGTH_MEASURE( 1.000000000000000082E-05 ), #253, 'distance_accuracy_value', 'NONE');
#308 = STYLED_ITEM ( 'NONE', ( #118 ), #148 ) ;
#309 = PRESENTATION_STYLE_ASSIGNMENT (( #143 ) ) ;
ENDSEC;
END-ISO-10303-21;
